ISO-10303-21;
HEADER;
/* Generated by software containing ST-Developer
 * from STEP Tools, Inc. (www.steptools.com) 
 */

FILE_DESCRIPTION(
/* description */ (''),
/* implementation_level */ '2;1');

FILE_NAME(
/* name */ 
'C:\\Users\\Z420\\Downloads\\Usinage caisse a savon\\Demande de prix\\
CAS-1.stp',
/* time_stamp */ '2024-04-26T10:32:48+02:00',
/* author */ ('Z420'),
/* organization */ (''),
/* preprocessor_version */ 'ST-DEVELOPER v18.1',
/* originating_system */ 'Autodesk Inventor 2022',
/* authorisation */ '');

FILE_SCHEMA (('AUTOMOTIVE_DESIGN { 1 0 10303 214 3 1 1 }'));
ENDSEC;

DATA;
#10=MECHANICAL_DESIGN_GEOMETRIC_PRESENTATION_REPRESENTATION('',(#13),#214);
#11=SHAPE_REPRESENTATION_RELATIONSHIP('SRR','None',#221,#12);
#12=ADVANCED_BREP_SHAPE_REPRESENTATION('',(#14),#213);
#13=STYLED_ITEM('',(#230),#14);
#14=MANIFOLD_SOLID_BREP('Solide7',#109);
#15=FACE_BOUND('',#33,.T.);
#16=FACE_BOUND('',#36,.T.);
#17=FACE_BOUND('',#38,.T.);
#18=PLANE('',#141);
#19=PLANE('',#145);
#20=PLANE('',#146);
#21=CONICAL_SURFACE('',#135,9.65,0.785398163397451);
#22=FACE_OUTER_BOUND('',#29,.T.);
#23=FACE_OUTER_BOUND('',#30,.T.);
#24=FACE_OUTER_BOUND('',#31,.T.);
#25=FACE_OUTER_BOUND('',#32,.T.);
#26=FACE_OUTER_BOUND('',#34,.T.);
#27=FACE_OUTER_BOUND('',#35,.T.);
#28=FACE_OUTER_BOUND('',#37,.T.);
#29=EDGE_LOOP('',(#75,#76,#77,#78));
#30=EDGE_LOOP('',(#79,#80,#81,#82,#83));
#31=EDGE_LOOP('',(#84,#85,#86,#87,#88));
#32=EDGE_LOOP('',(#89));
#33=EDGE_LOOP('',(#90));
#34=EDGE_LOOP('',(#91,#92,#93,#94));
#35=EDGE_LOOP('',(#95));
#36=EDGE_LOOP('',(#96));
#37=EDGE_LOOP('',(#97));
#38=EDGE_LOOP('',(#98));
#39=LINE('',#188,#43);
#40=LINE('',#194,#44);
#41=LINE('',#200,#45);
#42=LINE('',#207,#46);
#43=VECTOR('',#153,6.1);
#44=VECTOR('',#160,9.65);
#45=VECTOR('',#167,9.9);
#46=VECTOR('',#176,17.5);
#47=CIRCLE('',#133,6.1);
#48=CIRCLE('',#134,6.1);
#49=CIRCLE('',#136,9.4);
#50=CIRCLE('',#137,9.9);
#51=CIRCLE('',#138,9.9);
#52=CIRCLE('',#140,9.9);
#53=CIRCLE('',#143,17.5);
#54=CIRCLE('',#144,17.5);
#55=VERTEX_POINT('',#185);
#56=VERTEX_POINT('',#187);
#57=VERTEX_POINT('',#191);
#58=VERTEX_POINT('',#193);
#59=VERTEX_POINT('',#195);
#60=VERTEX_POINT('',#199);
#61=VERTEX_POINT('',#204);
#62=VERTEX_POINT('',#206);
#63=EDGE_CURVE('',#55,#55,#47,.T.);
#64=EDGE_CURVE('',#55,#56,#39,.T.);
#65=EDGE_CURVE('',#56,#56,#48,.T.);
#66=EDGE_CURVE('',#57,#57,#49,.T.);
#67=EDGE_CURVE('',#57,#58,#40,.T.);
#68=EDGE_CURVE('',#58,#59,#50,.T.);
#69=EDGE_CURVE('',#59,#58,#51,.T.);
#70=EDGE_CURVE('',#59,#60,#41,.T.);
#71=EDGE_CURVE('',#60,#60,#52,.T.);
#72=EDGE_CURVE('',#61,#61,#53,.T.);
#73=EDGE_CURVE('',#61,#62,#42,.T.);
#74=EDGE_CURVE('',#62,#62,#54,.T.);
#75=ORIENTED_EDGE('',*,*,#63,.F.);
#76=ORIENTED_EDGE('',*,*,#64,.T.);
#77=ORIENTED_EDGE('',*,*,#65,.F.);
#78=ORIENTED_EDGE('',*,*,#64,.F.);
#79=ORIENTED_EDGE('',*,*,#66,.T.);
#80=ORIENTED_EDGE('',*,*,#67,.T.);
#81=ORIENTED_EDGE('',*,*,#68,.T.);
#82=ORIENTED_EDGE('',*,*,#69,.T.);
#83=ORIENTED_EDGE('',*,*,#67,.F.);
#84=ORIENTED_EDGE('',*,*,#68,.F.);
#85=ORIENTED_EDGE('',*,*,#69,.F.);
#86=ORIENTED_EDGE('',*,*,#70,.T.);
#87=ORIENTED_EDGE('',*,*,#71,.F.);
#88=ORIENTED_EDGE('',*,*,#70,.F.);
#89=ORIENTED_EDGE('',*,*,#66,.F.);
#90=ORIENTED_EDGE('',*,*,#63,.T.);
#91=ORIENTED_EDGE('',*,*,#72,.F.);
#92=ORIENTED_EDGE('',*,*,#73,.T.);
#93=ORIENTED_EDGE('',*,*,#74,.T.);
#94=ORIENTED_EDGE('',*,*,#73,.F.);
#95=ORIENTED_EDGE('',*,*,#72,.T.);
#96=ORIENTED_EDGE('',*,*,#71,.T.);
#97=ORIENTED_EDGE('',*,*,#74,.F.);
#98=ORIENTED_EDGE('',*,*,#65,.T.);
#99=CYLINDRICAL_SURFACE('',#132,6.1);
#100=CYLINDRICAL_SURFACE('',#139,9.9);
#101=CYLINDRICAL_SURFACE('',#142,17.5);
#102=ADVANCED_FACE('',(#22),#99,.F.);
#103=ADVANCED_FACE('',(#23),#21,.T.);
#104=ADVANCED_FACE('',(#24),#100,.T.);
#105=ADVANCED_FACE('',(#25,#15),#18,.T.);
#106=ADVANCED_FACE('',(#26),#101,.T.);
#107=ADVANCED_FACE('',(#27,#16),#19,.T.);
#108=ADVANCED_FACE('',(#28,#17),#20,.F.);
#109=CLOSED_SHELL('',(#102,#103,#104,#105,#106,#107,#108));
#110=DERIVED_UNIT_ELEMENT(#113,1.);
#111=DERIVED_UNIT_ELEMENT(#216,-3.);
#112=DIMENSIONAL_EXPONENTS(1.,0.,0.,0.,0.,0.,0.);
#113=(
CONVERSION_BASED_UNIT('gram',#115)
MASS_UNIT()
NAMED_UNIT(#112)
);
#114=(
MASS_UNIT()
NAMED_UNIT(*)
SI_UNIT(.KILO.,.GRAM.)
);
#115=MASS_MEASURE_WITH_UNIT(MASS_MEASURE(0.001),#114);
#116=DERIVED_UNIT((#110,#111));
#117=MEASURE_REPRESENTATION_ITEM('density measure',
POSITIVE_RATIO_MEASURE(7.85),#116);
#118=PROPERTY_DEFINITION_REPRESENTATION(#123,#120);
#119=PROPERTY_DEFINITION_REPRESENTATION(#124,#121);
#120=REPRESENTATION('material name',(#122),#213);
#121=REPRESENTATION('density',(#117),#213);
#122=DESCRIPTIVE_REPRESENTATION_ITEM('S235','S235');
#123=PROPERTY_DEFINITION('material property','material name',#223);
#124=PROPERTY_DEFINITION('material property','density of part',#223);
#125=DATE_TIME_ROLE('creation_date');
#126=APPLIED_DATE_AND_TIME_ASSIGNMENT(#127,#125,(#223));
#127=DATE_AND_TIME(#128,#129);
#128=CALENDAR_DATE(2023,7,5);
#129=LOCAL_TIME(0,0,0.,#130);
#130=COORDINATED_UNIVERSAL_TIME_OFFSET(0,0,.BEHIND.);
#131=AXIS2_PLACEMENT_3D('placement',#183,#147,#148);
#132=AXIS2_PLACEMENT_3D('',#184,#149,#150);
#133=AXIS2_PLACEMENT_3D('',#186,#151,#152);
#134=AXIS2_PLACEMENT_3D('',#189,#154,#155);
#135=AXIS2_PLACEMENT_3D('',#190,#156,#157);
#136=AXIS2_PLACEMENT_3D('',#192,#158,#159);
#137=AXIS2_PLACEMENT_3D('',#196,#161,#162);
#138=AXIS2_PLACEMENT_3D('',#197,#163,#164);
#139=AXIS2_PLACEMENT_3D('',#198,#165,#166);
#140=AXIS2_PLACEMENT_3D('',#201,#168,#169);
#141=AXIS2_PLACEMENT_3D('',#202,#170,#171);
#142=AXIS2_PLACEMENT_3D('',#203,#172,#173);
#143=AXIS2_PLACEMENT_3D('',#205,#174,#175);
#144=AXIS2_PLACEMENT_3D('',#208,#177,#178);
#145=AXIS2_PLACEMENT_3D('',#209,#179,#180);
#146=AXIS2_PLACEMENT_3D('',#210,#181,#182);
#147=DIRECTION('axis',(0.,0.,1.));
#148=DIRECTION('refdir',(1.,0.,0.));
#149=DIRECTION('center_axis',(0.,0.,1.));
#150=DIRECTION('ref_axis',(1.,0.,0.));
#151=DIRECTION('center_axis',(0.,0.,-1.));
#152=DIRECTION('ref_axis',(1.,0.,0.));
#153=DIRECTION('',(0.,0.,-1.));
#154=DIRECTION('center_axis',(0.,0.,1.));
#155=DIRECTION('ref_axis',(1.,0.,0.));
#156=DIRECTION('center_axis',(0.,0.,-1.));
#157=DIRECTION('ref_axis',(-1.,0.,0.));
#158=DIRECTION('center_axis',(0.,0.,-1.));
#159=DIRECTION('ref_axis',(-1.,0.,0.));
#160=DIRECTION('',(0.707106781186549,8.65956056235495E-17,-0.707106781186546));
#161=DIRECTION('center_axis',(0.,0.,1.));
#162=DIRECTION('ref_axis',(-1.,0.,0.));
#163=DIRECTION('center_axis',(0.,0.,1.));
#164=DIRECTION('ref_axis',(-1.,0.,0.));
#165=DIRECTION('center_axis',(0.,0.,1.));
#166=DIRECTION('ref_axis',(1.,0.,0.));
#167=DIRECTION('',(0.,0.,-1.));
#168=DIRECTION('center_axis',(0.,0.,-1.));
#169=DIRECTION('ref_axis',(1.,0.,0.));
#170=DIRECTION('center_axis',(0.,0.,1.));
#171=DIRECTION('ref_axis',(1.,0.,0.));
#172=DIRECTION('center_axis',(0.,0.,1.));
#173=DIRECTION('ref_axis',(1.,0.,0.));
#174=DIRECTION('center_axis',(0.,0.,1.));
#175=DIRECTION('ref_axis',(1.,0.,0.));
#176=DIRECTION('',(0.,0.,-1.));
#177=DIRECTION('center_axis',(0.,0.,1.));
#178=DIRECTION('ref_axis',(1.,0.,0.));
#179=DIRECTION('center_axis',(0.,0.,1.));
#180=DIRECTION('ref_axis',(1.,0.,0.));
#181=DIRECTION('center_axis',(0.,0.,1.));
#182=DIRECTION('ref_axis',(1.,0.,0.));
#183=CARTESIAN_POINT('',(0.,0.,0.));
#184=CARTESIAN_POINT('Origin',(0.,0.,-16.1070746132571));
#185=CARTESIAN_POINT('',(-6.1,-7.47034547479885E-16,68.));
#186=CARTESIAN_POINT('Origin',(0.,0.,68.));
#187=CARTESIAN_POINT('',(-6.1,-7.47034547479885E-16,0.));
#188=CARTESIAN_POINT('',(-6.1,-7.47034547479885E-16,-16.1070746132571));
#189=CARTESIAN_POINT('Origin',(0.,0.,0.));
#190=CARTESIAN_POINT('Origin',(0.,0.,67.75));
#191=CARTESIAN_POINT('',(9.4,-1.15116799119851E-15,68.));
#192=CARTESIAN_POINT('Origin',(0.,0.,68.));
#193=CARTESIAN_POINT('',(9.9,1.21240033115588E-15,67.5));
#194=CARTESIAN_POINT('',(9.65,1.1817841611772E-15,67.75));
#195=CARTESIAN_POINT('',(-9.9,-1.21240033115588E-15,67.5));
#196=CARTESIAN_POINT('Origin',(0.,0.,67.5));
#197=CARTESIAN_POINT('Origin',(0.,0.,67.5));
#198=CARTESIAN_POINT('Origin',(0.,0.,35.));
#199=CARTESIAN_POINT('',(-9.9,-1.21240033115588E-15,35.));
#200=CARTESIAN_POINT('',(-9.9,-1.21240033115588E-15,35.));
#201=CARTESIAN_POINT('Origin',(0.,0.,35.));
#202=CARTESIAN_POINT('Origin',(0.,0.,68.));
#203=CARTESIAN_POINT('Origin',(0.,0.,0.));
#204=CARTESIAN_POINT('',(-17.5,-2.14313189850787E-15,35.));
#205=CARTESIAN_POINT('Origin',(0.,0.,35.));
#206=CARTESIAN_POINT('',(-17.5,-2.14313189850787E-15,0.));
#207=CARTESIAN_POINT('',(-17.5,-2.14313189850787E-15,0.));
#208=CARTESIAN_POINT('Origin',(0.,0.,0.));
#209=CARTESIAN_POINT('Origin',(0.,0.,35.));
#210=CARTESIAN_POINT('Origin',(0.,0.,0.));
#211=UNCERTAINTY_MEASURE_WITH_UNIT(LENGTH_MEASURE(0.01),#215,
'DISTANCE_ACCURACY_VALUE',
'Maximum model space distance between geometric entities at asserted c
onnectivities');
#212=UNCERTAINTY_MEASURE_WITH_UNIT(LENGTH_MEASURE(0.01),#215,
'DISTANCE_ACCURACY_VALUE',
'Maximum model space distance between geometric entities at asserted c
onnectivities');
#213=(
GEOMETRIC_REPRESENTATION_CONTEXT(3)
GLOBAL_UNCERTAINTY_ASSIGNED_CONTEXT((#211))
GLOBAL_UNIT_ASSIGNED_CONTEXT((#215,#217,#218))
REPRESENTATION_CONTEXT('','3D')
);
#214=(
GEOMETRIC_REPRESENTATION_CONTEXT(3)
GLOBAL_UNCERTAINTY_ASSIGNED_CONTEXT((#212))
GLOBAL_UNIT_ASSIGNED_CONTEXT((#215,#217,#218))
REPRESENTATION_CONTEXT('','3D')
);
#215=(
LENGTH_UNIT()
NAMED_UNIT(*)
SI_UNIT(.MILLI.,.METRE.)
);
#216=(
LENGTH_UNIT()
NAMED_UNIT(*)
SI_UNIT(.CENTI.,.METRE.)
);
#217=(
NAMED_UNIT(*)
PLANE_ANGLE_UNIT()
SI_UNIT($,.RADIAN.)
);
#218=(
NAMED_UNIT(*)
SI_UNIT($,.STERADIAN.)
SOLID_ANGLE_UNIT()
);
#219=SHAPE_DEFINITION_REPRESENTATION(#220,#221);
#220=PRODUCT_DEFINITION_SHAPE('',$,#223);
#221=SHAPE_REPRESENTATION('',(#131),#213);
#222=PRODUCT_DEFINITION_CONTEXT('part definition',#227,'design');
#223=PRODUCT_DEFINITION('MM56 - 1201','CAS-1',#224,#222);
#224=PRODUCT_DEFINITION_FORMATION('',$,#229);
#225=PRODUCT_RELATED_PRODUCT_CATEGORY('CAS-1','CAS-1',(#229));
#226=APPLICATION_PROTOCOL_DEFINITION('international standard',
'automotive_design',2009,#227);
#227=APPLICATION_CONTEXT(
'Core Data for Automotive Mechanical Design Process');
#228=PRODUCT_CONTEXT('part definition',#227,'mechanical');
#229=PRODUCT('MM56 - 1201','CAS-1',$,(#228));
#230=PRESENTATION_STYLE_ASSIGNMENT((#231));
#231=SURFACE_STYLE_USAGE(.BOTH.,#234);
#232=SURFACE_STYLE_RENDERING_WITH_PROPERTIES($,#238,(#233));
#233=SURFACE_STYLE_TRANSPARENT(0.);
#234=SURFACE_SIDE_STYLE('',(#235,#232));
#235=SURFACE_STYLE_FILL_AREA(#236);
#236=FILL_AREA_STYLE('',(#237));
#237=FILL_AREA_STYLE_COLOUR('',#238);
#238=COLOUR_RGB('',0.549019607843137,0.549019607843137,0.549019607843137);
ENDSEC;
END-ISO-10303-21;
