  0
SECTION
  2
HEADER
  9
$ACADVER
  1
AC1015
  9
$ACADMAINTVER
 70
     6
  9
$DWGCODEPAGE
  3
ANSI_1252
  9
$INSBASE
 10
0.0
 20
0.0
 30
0.0
  9
$EXTMIN
 10
-352.6633525082
 20
14.744043247
 30
0.0
  9
$EXTMAX
 10
-6.4233960327
 20
188.4208241659
 30
0.0
  9
$LIMMIN
 10
0.0
 20
0.0
  9
$LIMMAX
 10
420.0
 20
297.0
  9
$ORTHOMODE
 70
     0
  9
$REGENMODE
 70
     1
  9
$FILLMODE
 70
     1
  9
$QTEXTMODE
 70
     0
  9
$MIRRTEXT
 70
     1
  9
$LTSCALE
 40
1.0
  9
$ATTMODE
 70
     1
  9
$TEXTSIZE
 40
3.5
  9
$TRACEWID
 40
1.0
  9
$TEXTSTYLE
  7
Standard
  9
$CLAYER
  8
0
  9
$CELTYPE
  6
ByLayer
  9
$CECOLOR
 62
   256
  9
$CELTSCALE
 40
1.0
  9
$DISPSILH
 70
     0
  9
$DIMSCALE
 40
1.0
  9
$DIMASZ
 40
3.302
  9
$DIMEXO
 40
1.0
  9
$DIMDLI
 40
3.75
  9
$DIMRND
 40
0.0
  9
$DIMDLE
 40
0.0
  9
$DIMEXE
 40
1.0
  9
$DIMTP
 40
0.0
  9
$DIMTM
 40
0.0
  9
$DIMTXT
 40
3.5
  9
$DIMCEN
 40
2.5
  9
$DIMTSZ
 40
0.0
  9
$DIMTOL
 70
     0
  9
$DIMLIM
 70
     0
  9
$DIMTIH
 70
     1
  9
$DIMTOH
 70
     1
  9
$DIMSE1
 70
     0
  9
$DIMSE2
 70
     0
  9
$DIMTAD
 70
     1
  9
$DIMZIN
 70
     0
  9
$DIMBLK
  1

  9
$DIMASO
 70
     1
  9
$DIMSHO
 70
     1
  9
$DIMPOST
  1

  9
$DIMAPOST
  1

  9
$DIMALT
 70
     0
  9
$DIMALTD
 70
     3
  9
$DIMALTF
 40
0.0393700787
  9
$DIMLFAC
 40
1.0
  9
$DIMTOFL
 70
     1
  9
$DIMTVP
 40
0.0
  9
$DIMTIX
 70
     0
  9
$DIMSOXD
 70
     0
  9
$DIMSAH
 70
     0
  9
$DIMBLK1
  1

  9
$DIMBLK2
  1

  9
$DIMSTYLE
  2
ISO-25
  9
$DIMCLRD
 70
     0
  9
$DIMCLRE
 70
     0
  9
$DIMCLRT
 70
     0
  9
$DIMTFAC
 40
1.0
  9
$DIMGAP
 40
1.524
  9
$DIMJUST
 70
     0
  9
$DIMSD1
 70
     0
  9
$DIMSD2
 70
     0
  9
$DIMTOLJ
 70
     0
  9
$DIMTZIN
 70
     0
  9
$DIMALTZ
 70
     0
  9
$DIMALTTZ
 70
     0
  9
$DIMUPT
 70
     0
  9
$DIMDEC
 70
     2
  9
$DIMTDEC
 70
     2
  9
$DIMALTU
 70
     2
  9
$DIMALTTD
 70
     3
  9
$DIMTXSTY
  7
Standard
  9
$DIMAUNIT
 70
     0
  9
$DIMADEC
 70
     2
  9
$DIMALTRND
 40
0.0
  9
$DIMAZIN
 70
     0
  9
$DIMDSEP
 70
    44
  9
$DIMATFIT
 70
     3
  9
$DIMFRAC
 70
     0
  9
$DIMLDRBLK
  1

  9
$DIMLUNIT
 70
     2
  9
$DIMLWD
 70
    -2
  9
$DIMLWE
 70
    -2
  9
$DIMTMOVE
 70
     0
  9
$LUNITS
 70
     2
  9
$LUPREC
 70
     2
  9
$SKETCHINC
 40
1.0
  9
$FILLETRAD
 40
10.0
  9
$AUNITS
 70
     0
  9
$AUPREC
 70
     2
  9
$MENU
  1
.
  9
$ELEVATION
 40
0.0
  9
$PELEVATION
 40
0.0
  9
$THICKNESS
 40
0.0
  9
$LIMCHECK
 70
     0
  9
$CHAMFERA
 40
0.0
  9
$CHAMFERB
 40
0.0
  9
$CHAMFERC
 40
0.0
  9
$CHAMFERD
 40
0.0
  9
$SKPOLY
 70
     0
  9
$TDCREATE
 40
2460409.707313137
  9
$TDUCREATE
 40
2460409.623979803
  9
$TDUPDATE
 40
2460409.707401829
  9
$TDUUPDATE
 40
2460409.624068495
  9
$TDINDWG
 40
0.0000000116
  9
$TDUSRTIMER
 40
0.0000000116
  9
$USRTIMER
 70
     1
  9
$ANGBASE
 50
0.0
  9
$ANGDIR
 70
     0
  9
$PDMODE
 70
     0
  9
$PDSIZE
 40
-1.0
  9
$PLINEWID
 40
0.0
  9
$SPLFRAME
 70
     0
  9
$SPLINETYPE
 70
     6
  9
$SPLINESEGS
 70
     8
  9
$HANDSEED
  5
280
  9
$SURFTAB1
 70
     6
  9
$SURFTAB2
 70
     6
  9
$SURFTYPE
 70
     6
  9
$SURFU
 70
     6
  9
$SURFV
 70
     6
  9
$UCSBASE
  2

  9
$UCSNAME
  2

  9
$UCSORG
 10
0.0
 20
0.0
 30
0.0
  9
$UCSXDIR
 10
1.0
 20
0.0
 30
0.0
  9
$UCSYDIR
 10
0.0
 20
1.0
 30
0.0
  9
$UCSORTHOREF
  2

  9
$UCSORTHOVIEW
 70
     0
  9
$UCSORGTOP
 10
0.0
 20
0.0
 30
0.0
  9
$UCSORGBOTTOM
 10
0.0
 20
0.0
 30
0.0
  9
$UCSORGLEFT
 10
0.0
 20
0.0
 30
0.0
  9
$UCSORGRIGHT
 10
0.0
 20
0.0
 30
0.0
  9
$UCSORGFRONT
 10
0.0
 20
0.0
 30
0.0
  9
$UCSORGBACK
 10
0.0
 20
0.0
 30
0.0
  9
$PUCSBASE
  2

  9
$PUCSNAME
  2

  9
$PUCSORG
 10
0.0
 20
0.0
 30
0.0
  9
$PUCSXDIR
 10
1.0
 20
0.0
 30
0.0
  9
$PUCSYDIR
 10
0.0
 20
1.0
 30
0.0
  9
$PUCSORTHOREF
  2

  9
$PUCSORTHOVIEW
 70
     0
  9
$PUCSORGTOP
 10
0.0
 20
0.0
 30
0.0
  9
$PUCSORGBOTTOM
 10
0.0
 20
0.0
 30
0.0
  9
$PUCSORGLEFT
 10
0.0
 20
0.0
 30
0.0
  9
$PUCSORGRIGHT
 10
0.0
 20
0.0
 30
0.0
  9
$PUCSORGFRONT
 10
0.0
 20
0.0
 30
0.0
  9
$PUCSORGBACK
 10
0.0
 20
0.0
 30
0.0
  9
$USERI1
 70
     0
  9
$USERI2
 70
     0
  9
$USERI3
 70
     0
  9
$USERI4
 70
     0
  9
$USERI5
 70
     0
  9
$USERR1
 40
0.0
  9
$USERR2
 40
0.0
  9
$USERR3
 40
0.0
  9
$USERR4
 40
0.0
  9
$USERR5
 40
0.0
  9
$WORLDVIEW
 70
     1
  9
$SHADEDGE
 70
     3
  9
$SHADEDIF
 70
    70
  9
$TILEMODE
 70
     1
  9
$MAXACTVP
 70
    64
  9
$PINSBASE
 10
0.0
 20
0.0
 30
0.0
  9
$PLIMCHECK
 70
     0
  9
$PEXTMIN
 10
20.4
 20
-410.0
 30
0.0
  9
$PEXTMAX
 10
37.2
 20
-27.0
 30
0.0
  9
$PLIMMIN
 10
-18.8820512821
 20
-424.7307692308
  9
$PLIMMAX
 10
564.4564102564
 20
-12.2692307692
  9
$UNITMODE
 70
     0
  9
$VISRETAIN
 70
     1
  9
$PLINEGEN
 70
     0
  9
$PSLTSCALE
 70
     1
  9
$TREEDEPTH
 70
  3020
  9
$CMLSTYLE
  2
Standard
  9
$CMLJUST
 70
     0
  9
$CMLSCALE
 40
20.0
  9
$PROXYGRAPHICS
 70
     1
  9
$MEASUREMENT
 70
     1
  9
$CELWEIGHT
370
    -1
  9
$ENDCAPS
280
     0
  9
$JOINSTYLE
280
     0
  9
$LWDISPLAY
290
     1
  9
$INSUNITS
 70
     4
  9
$HYPERLINKBASE
  1

  9
$STYLESHEET
  1

  9
$XEDIT
290
     1
  9
$CEPSNTYPE
380
     0
  9
$PSTYLEMODE
290
     1
  9
$FINGERPRINTGUID
  2
{FD6D1BCA-50B4-4B80-9BAF-7CE9BC0E9550}
  9
$VERSIONGUID
  2
{FAEB1C32-E019-11D5-929B-00C0DF256EC4}
  9
$EXTNAMES
290
     1
  9
$PSVPSCALE
 40
0.0
  9
$OLESTARTUP
290
     0
  0
ENDSEC
  0
SECTION
  2
CLASSES
  0
CLASS
  1
ACDBDICTIONARYWDFLT
  2
AcDbDictionaryWithDefault
  3
ObjectDBX Classes
 90
        0
280
     0
281
     0
  0
CLASS
  1
VISUALSTYLE
  2
AcDbVisualStyle
  3
ObjectDBX Classes
 90
     4095
280
     0
281
     0
  0
CLASS
  1
MATERIAL
  2
AcDbMaterial
  3
ObjectDBX Classes
 90
     1153
280
     0
281
     0
  0
CLASS
  1
SCALE
  2
AcDbScale
  3
ObjectDBX Classes
 90
     1153
280
     0
281
     0
  0
CLASS
  1
TABLESTYLE
  2
AcDbTableStyle
  3
ObjectDBX Classes
 90
     4095
280
     0
281
     0
  0
CLASS
  1
MLEADERSTYLE
  2
AcDbMLeaderStyle
  3
ACDB_MLEADERSTYLE_CLASS
 90
     4095
280
     0
281
     0
  0
CLASS
  1
SUN
  2
AcDbSun
  3
SCENEOE
 90
     1153
280
     0
281
     0
  0
CLASS
  1
ACDBPLACEHOLDER
  2
AcDbPlaceHolder
  3
ObjectDBX Classes
 90
        0
280
     0
281
     0
  0
CLASS
  1
LAYOUT
  2
AcDbLayout
  3
ObjectDBX Classes
 90
        0
280
     0
281
     0
  0
ENDSEC
  0
SECTION
  2
TABLES
  0
TABLE
  2
VPORT
  5
8
330
0
100
AcDbSymbolTable
 70
     1
  0
VPORT
  5
29
330
8
100
AcDbSymbolTableRecord
100
AcDbViewportTableRecord
  2
*Active
 70
     0
 10
0.0
 20
0.0
 11
1.0
 21
1.0
 12
-179.5433742704
 22
101.5824337065
 13
0.0
 23
0.0
 14
10.0
 24
10.0
 15
10.0
 25
10.0
 16
0.0
 26
0.0
 36
1.0
 17
0.0
 27
0.0
 37
0.0
 40
177.1503165372
 41
1.9935880585
 42
50.0
 43
0.0
 44
0.0
 50
0.0
 51
0.0
 71
     0
 72
   100
 73
     1
 74
     3
 75
     0
 76
     0
 77
     0
 78
     0
281
     0
 65
     1
110
0.0
120
0.0
130
0.0
111
1.0
121
0.0
131
0.0
112
0.0
122
1.0
132
0.0
 79
     0
146
0.0
  0
ENDTAB
  0
TABLE
  2
LTYPE
  5
5
330
0
100
AcDbSymbolTable
 70
     6
  0
LTYPE
  5
14
330
5
100
AcDbSymbolTableRecord
100
AcDbLinetypeTableRecord
  2
ByBlock
 70
     0
  3

 72
    65
 73
     0
 40
0.0
  0
LTYPE
  5
15
330
5
100
AcDbSymbolTableRecord
100
AcDbLinetypeTableRecord
  2
ByLayer
 70
     0
  3

 72
    65
 73
     0
 40
0.0
  0
LTYPE
  5
16
330
5
100
AcDbSymbolTableRecord
100
AcDbLinetypeTableRecord
  2
Continuous
 70
     0
  3
Solid line
 72
    65
 73
     0
 40
0.0
  0
LTYPE
  5
6E
330
5
100
AcDbSymbolTableRecord
100
AcDbLinetypeTableRecord
  2
HIDDEN
 70
     0
  3
Hidden __ __ __ __ __ __ __ __ __ __ __ __ __ __
 72
    65
 73
     2
 40
1.905
 49
1.27
 74
     0
 49
-0.635
 74
     0
  0
LTYPE
  5
6F
330
5
100
AcDbSymbolTableRecord
100
AcDbLinetypeTableRecord
  2
PHANTOM
 70
     0
  3
Phantom ______  __  __  ______  __  __  ______
 72
    65
 73
     6
 40
12.7
 49
6.35
 74
     0
 49
-1.27
 74
     0
 49
1.27
 74
     0
 49
-1.27
 74
     0
 49
1.27
 74
     0
 49
-1.27
 74
     0
  0
LTYPE
  5
70
330
5
100
AcDbSymbolTableRecord
100
AcDbLinetypeTableRecord
  2
CENTER
 70
     0
  3
Center ____ _ ____ _ ____ _ ____ _ ____ _ ____
 72
    65
 73
     4
 40
10.16
 49
6.35
 74
     0
 49
-1.27
 74
     0
 49
1.27
 74
     0
 49
-1.27
 74
     0
  0
LTYPE
  5
71
330
5
100
AcDbSymbolTableRecord
100
AcDbLinetypeTableRecord
  2
CENTERX2
 70
     0
  3
Center (2x) ________  __  ________  __  _____
 72
    65
 73
     4
 40
20.32
 49
12.7
 74
     0
 49
-2.54
 74
     0
 49
2.54
 74
     0
 49
-2.54
 74
     0
  0
LTYPE
  5
72
330
5
100
AcDbSymbolTableRecord
100
AcDbLinetypeTableRecord
  2
DOT2
 70
     0
  3
Dot (.5x) ........................................
 72
    65
 73
     2
 40
0.635
 49
0.0
 74
     0
 49
-0.635
 74
     0
  0
ENDTAB
  0
TABLE
  2
LAYER
  5
2
330
0
100
AcDbSymbolTable
 70
     1
  0
LAYER
  5
10
330
2
100
AcDbSymbolTableRecord
100
AcDbLayerTableRecord
  2
0
 70
     0
 62
     7
  6
Continuous
370
    -3
390
F
  0
ENDTAB
  0
TABLE
  2
STYLE
  5
3
330
0
100
AcDbSymbolTable
 70
     1
  0
STYLE
  5
11
330
3
100
AcDbSymbolTableRecord
100
AcDbTextStyleTableRecord
  2
Standard
 70
     0
 40
0.0
 41
1.0
 50
0.0
 71
     0
 42
3.5
  3
txt
  4

  0
ENDTAB
  0
TABLE
  2
VIEW
  5
6
330
0
100
AcDbSymbolTable
 70
     0
  0
ENDTAB
  0
TABLE
  2
UCS
  5
7
330
0
100
AcDbSymbolTable
 70
     0
  0
ENDTAB
  0
TABLE
  2
APPID
  5
9
330
0
100
AcDbSymbolTable
 70
     1
  0
APPID
  5
12
330
9
100
AcDbSymbolTableRecord
100
AcDbRegAppTableRecord
  2
ACAD
 70
     0
  0
ENDTAB
  0
TABLE
  2
DIMSTYLE
  5
A
330
0
100
AcDbSymbolTable
 70
     1
100
AcDbDimStyleTable
  0
DIMSTYLE
105
27
330
A
100
AcDbSymbolTableRecord
100
AcDbDimStyleTableRecord
  2
ISO-25
 70
     0
 41
2.5
 42
0.625
 43
3.75
 44
1.25
 73
     0
 74
     0
 77
     1
 78
     8
140
2.5
141
2.5
143
0.0393700787
147
0.625
171
     3
172
     1
178
     0
271
     2
272
     2
274
     3
278
    44
283
     0
284
     8
340
11
  0
ENDTAB
  0
TABLE
  2
BLOCK_RECORD
  5
1
330
0
100
AcDbSymbolTable
 70
     9
  0
BLOCK_RECORD
  5
1F
330
1
100
AcDbSymbolTableRecord
100
AcDbBlockTableRecord
  2
*Model_Space
340
22
  0
BLOCK_RECORD
  5
1B
330
1
100
AcDbSymbolTableRecord
100
AcDbBlockTableRecord
  2
*Paper_Space
340
1E
  0
BLOCK_RECORD
  5
23
330
1
100
AcDbSymbolTableRecord
100
AcDbBlockTableRecord
  2
*Paper_Space0
340
26
  0
BLOCK_RECORD
  5
F3
330
1
100
AcDbSymbolTableRecord
100
AcDbBlockTableRecord
  2
*Paper_Space1
340
F4
  0
BLOCK_RECORD
  5
103
330
1
100
AcDbSymbolTableRecord
100
AcDbBlockTableRecord
  2
*Paper_Space2
340
104
  0
BLOCK_RECORD
  5
113
330
1
100
AcDbSymbolTableRecord
100
AcDbBlockTableRecord
  2
*Paper_Space3
340
114
  0
BLOCK_RECORD
  5
11F
330
1
100
AcDbSymbolTableRecord
100
AcDbBlockTableRecord
  2
*Paper_Space4
340
120
  0
BLOCK_RECORD
  5
147
330
1
100
AcDbSymbolTableRecord
100
AcDbBlockTableRecord
  2
*Paper_Space5
340
148
  0
BLOCK_RECORD
  5
169
330
1
100
AcDbSymbolTableRecord
100
AcDbBlockTableRecord
  2
*Paper_Space6
340
16A
  0
BLOCK_RECORD
  5
1C2
330
1
100
AcDbSymbolTableRecord
100
AcDbBlockTableRecord
  2
*Paper_Space7
340
1C3
  0
BLOCK_RECORD
  5
219
330
1
100
AcDbSymbolTableRecord
100
AcDbBlockTableRecord
  2
*Paper_Space8
340
21A
  0
ENDTAB
  0
ENDSEC
  0
SECTION
  2
BLOCKS
  0
BLOCK
  5
20
330
1F
100
AcDbEntity
  8
0
100
AcDbBlockBegin
  2
*Model_Space
 70
     0
 10
0.0
 20
0.0
 30
0.0
  3
*Model_Space
  1

  0
ENDBLK
  5
21
330
1F
100
AcDbEntity
  8
0
100
AcDbBlockEnd
  0
BLOCK
  5
1C
330
1B
100
AcDbEntity
 67
     1
  8
0
100
AcDbBlockBegin
  2
*Paper_Space
 70
     0
 10
0.0
 20
0.0
 30
0.0
  3
*Paper_Space
  1

  0
ENDBLK
  5
1D
330
1B
100
AcDbEntity
 67
     1
  8
0
100
AcDbBlockEnd
  0
BLOCK
  5
24
330
23
100
AcDbEntity
  8
0
100
AcDbBlockBegin
  2
*Paper_Space0
 70
     0
 10
0.0
 20
0.0
 30
0.0
  3
*Paper_Space0
  1

  0
LINE
  5
ED
330
23
100
AcDbEntity
  8
0
  6
Continuous
 62
     7
370
    25
100
AcDbLine
 10
20.4
 20
19.75
 30
0.0
 11
22.4
 21
19.75
 31
0.0
  0
LINE
  5
EE
330
23
100
AcDbEntity
  8
0
  6
Continuous
 62
     7
370
    25
100
AcDbLine
 10
22.4
 20
19.75
 30
0.0
 11
22.4
 21
-18.15
 31
0.0
  0
LINE
  5
EF
330
23
100
AcDbEntity
  8
0
  6
Continuous
 62
     7
370
    25
100
AcDbLine
 10
37.2
 20
-18.15
 30
0.0
 11
37.2
 21
-20.15
 31
0.0
  0
LINE
  5
F0
330
23
100
AcDbEntity
  8
0
  6
Continuous
 62
     7
370
    25
100
AcDbLine
 10
20.4
 20
-20.15
 30
0.0
 11
37.2
 21
-20.15
 31
0.0
  0
LINE
  5
F1
330
23
100
AcDbEntity
  8
0
  6
Continuous
 62
     7
370
    25
100
AcDbLine
 10
20.4
 20
19.75
 30
0.0
 11
20.4
 21
-20.15
 31
0.0
  0
LINE
  5
F2
330
23
100
AcDbEntity
  8
0
  6
Continuous
 62
     7
370
    25
100
AcDbLine
 10
37.2
 20
-18.15
 30
0.0
 11
22.4
 21
-18.15
 31
0.0
  0
VIEWPORT
  5
26E
330
23
100
AcDbEntity
  8
0
100
AcDbViewport
 10
0.0
 20
0.0
 30
0.0
 40
205.6
 41
156.0
 68
     1
 69
     1
 12
-179.5433742704
 22
101.5824337065
 13
0.0
 23
0.0
 14
10.0
 24
10.0
 15
10.0
 25
10.0
 16
0.0
 26
0.0
 36
1.0
 17
0.0
 27
0.0
 37
0.0
 42
50.0
 43
0.0
 44
0.0
 45
267.9654760427
 50
0.0
 51
0.0
 72
   100
 90
   557152
  1

281
     0
 71
     1
 74
     0
110
0.0
120
0.0
130
0.0
111
1.0
121
0.0
131
0.0
112
0.0
122
1.0
132
0.0
 79
     0
146
0.0
  0
ENDBLK
  5
25
330
23
100
AcDbEntity
  8
0
100
AcDbBlockEnd
  0
BLOCK
  5
F5
330
F3
100
AcDbEntity
  8
0
100
AcDbBlockBegin
  2
*Paper_Space1
 70
     0
 10
0.0
 20
0.0
 30
0.0
  3
*Paper_Space1
  1

  0
LINE
  5
FD
330
F3
100
AcDbEntity
  8
0
  6
Continuous
 62
     7
370
    25
100
AcDbLine
 10
20.4
 20
19.75
 30
0.0
 11
22.4
 21
19.75
 31
0.0
  0
LINE
  5
FE
330
F3
100
AcDbEntity
  8
0
  6
Continuous
 62
     7
370
    25
100
AcDbLine
 10
22.4
 20
19.75
 30
0.0
 11
22.4
 21
-18.15
 31
0.0
  0
LINE
  5
FF
330
F3
100
AcDbEntity
  8
0
  6
Continuous
 62
     7
370
    25
100
AcDbLine
 10
37.2
 20
-18.15
 30
0.0
 11
37.2
 21
-20.15
 31
0.0
  0
LINE
  5
100
330
F3
100
AcDbEntity
  8
0
  6
Continuous
 62
     7
370
    25
100
AcDbLine
 10
20.4
 20
-20.15
 30
0.0
 11
37.2
 21
-20.15
 31
0.0
  0
LINE
  5
101
330
F3
100
AcDbEntity
  8
0
  6
Continuous
 62
     7
370
    25
100
AcDbLine
 10
20.4
 20
19.75
 30
0.0
 11
20.4
 21
-20.15
 31
0.0
  0
LINE
  5
102
330
F3
100
AcDbEntity
  8
0
  6
Continuous
 62
     7
370
    25
100
AcDbLine
 10
37.2
 20
-18.15
 30
0.0
 11
22.4
 21
-18.15
 31
0.0
  0
VIEWPORT
  5
270
330
F3
100
AcDbEntity
  8
0
100
AcDbViewport
 10
0.0
 20
0.0
 30
0.0
 40
205.6
 41
156.0
 68
     1
 69
     1
 12
-179.5433742704
 22
101.5824337065
 13
0.0
 23
0.0
 14
10.0
 24
10.0
 15
10.0
 25
10.0
 16
0.0
 26
0.0
 36
1.0
 17
0.0
 27
0.0
 37
0.0
 42
50.0
 43
0.0
 44
0.0
 45
267.9654760427
 50
0.0
 51
0.0
 72
   100
 90
   557152
  1

281
     0
 71
     1
 74
     0
110
0.0
120
0.0
130
0.0
111
1.0
121
0.0
131
0.0
112
0.0
122
1.0
132
0.0
 79
     0
146
0.0
  0
ENDBLK
  5
F6
330
F3
100
AcDbEntity
  8
0
100
AcDbBlockEnd
  0
BLOCK
  5
105
330
103
100
AcDbEntity
  8
0
100
AcDbBlockBegin
  2
*Paper_Space2
 70
     0
 10
0.0
 20
0.0
 30
0.0
  3
*Paper_Space2
  1

  0
LINE
  5
10D
330
103
100
AcDbEntity
  8
0
  6
Continuous
 62
     7
370
    25
100
AcDbLine
 10
-22.4
 20
-18.15
 30
0.0
 11
-22.4
 21
19.75
 31
0.0
  0
LINE
  5
10E
330
103
100
AcDbEntity
  8
0
  6
Continuous
 62
     7
370
    25
100
AcDbLine
 10
-22.4
 20
19.75
 30
0.0
 11
-20.4
 21
19.75
 31
0.0
  0
LINE
  5
10F
330
103
100
AcDbEntity
  8
0
  6
Continuous
 62
     7
370
    25
100
AcDbLine
 10
-20.4
 20
19.75
 30
0.0
 11
-20.4
 21
-20.15
 31
0.0
  0
LINE
  5
110
330
103
100
AcDbEntity
  8
0
  6
Continuous
 62
     7
370
    25
100
AcDbLine
 10
-37.2
 20
-20.15
 30
0.0
 11
-20.4
 21
-20.15
 31
0.0
  0
LINE
  5
111
330
103
100
AcDbEntity
  8
0
  6
Continuous
 62
     7
370
    25
100
AcDbLine
 10
-37.2
 20
-20.15
 30
0.0
 11
-37.2
 21
-18.15
 31
0.0
  0
LINE
  5
112
330
103
100
AcDbEntity
  8
0
  6
Continuous
 62
     7
370
    25
100
AcDbLine
 10
-22.4
 20
-18.15
 30
0.0
 11
-37.2
 21
-18.15
 31
0.0
  0
VIEWPORT
  5
272
330
103
100
AcDbEntity
  8
0
100
AcDbViewport
 10
0.0
 20
0.0
 30
0.0
 40
205.6
 41
156.0
 68
     1
 69
     1
 12
-179.5433742704
 22
101.5824337065
 13
0.0
 23
0.0
 14
10.0
 24
10.0
 15
10.0
 25
10.0
 16
0.0
 26
0.0
 36
1.0
 17
0.0
 27
0.0
 37
0.0
 42
50.0
 43
0.0
 44
0.0
 45
267.9654760427
 50
0.0
 51
0.0
 72
   100
 90
   557152
  1

281
     0
 71
     1
 74
     0
110
0.0
120
0.0
130
0.0
111
1.0
121
0.0
131
0.0
112
0.0
122
1.0
132
0.0
 79
     0
146
0.0
  0
ENDBLK
  5
106
330
103
100
AcDbEntity
  8
0
100
AcDbBlockEnd
  0
BLOCK
  5
115
330
113
100
AcDbEntity
  8
0
100
AcDbBlockBegin
  2
*Paper_Space3
 70
     0
 10
0.0
 20
0.0
 30
0.0
  3
*Paper_Space3
  1

  0
LINE
  5
11B
330
113
100
AcDbEntity
  8
0
  6
Continuous
 62
     7
370
    25
100
AcDbLine
 10
27.0
 20
19.75
 30
0.0
 11
27.0
 21
-20.15
 31
0.0
  0
LINE
  5
11C
330
113
100
AcDbEntity
  8
0
  6
Continuous
 62
     7
370
    25
100
AcDbLine
 10
27.0
 20
19.75
 30
0.0
 11
410.0
 21
19.75
 31
0.0
  0
LINE
  5
11D
330
113
100
AcDbEntity
  8
0
  6
Continuous
 62
     7
370
    25
100
AcDbLine
 10
410.0
 20
19.75
 30
0.0
 11
410.0
 21
-20.15
 31
0.0
  0
LINE
  5
11E
330
113
100
AcDbEntity
  8
0
  6
Continuous
 62
     7
370
    25
100
AcDbLine
 10
27.0
 20
-20.15
 30
0.0
 11
410.0
 21
-20.15
 31
0.0
  0
VIEWPORT
  5
274
330
113
100
AcDbEntity
  8
0
100
AcDbViewport
 10
0.0
 20
0.0
 30
0.0
 40
205.6
 41
156.0
 68
     1
 69
     1
 12
-179.5433742704
 22
101.5824337065
 13
0.0
 23
0.0
 14
10.0
 24
10.0
 15
10.0
 25
10.0
 16
0.0
 26
0.0
 36
1.0
 17
0.0
 27
0.0
 37
0.0
 42
50.0
 43
0.0
 44
0.0
 45
267.9654760427
 50
0.0
 51
0.0
 72
   100
 90
   557152
  1

281
     0
 71
     1
 74
     0
110
0.0
120
0.0
130
0.0
111
1.0
121
0.0
131
0.0
112
0.0
122
1.0
132
0.0
 79
     0
146
0.0
  0
ENDBLK
  5
116
330
113
100
AcDbEntity
  8
0
100
AcDbBlockEnd
  0
BLOCK
  5
121
330
11F
100
AcDbEntity
  8
0
100
AcDbBlockBegin
  2
*Paper_Space4
 70
     0
 10
0.0
 20
0.0
 30
0.0
  3
*Paper_Space4
  1

  0
LINE
  5
13B
330
11F
100
AcDbEntity
  8
0
  6
Continuous
 62
     7
370
    25
100
AcDbLine
 10
-208.92
 20
-18.15
 30
0.0
 11
-208.92
 21
-20.15
 31
0.0
  0
LINE
  5
13C
330
11F
100
AcDbEntity
  8
0
  6
Continuous
 62
     7
370
    25
100
AcDbLine
 10
-374.0
 20
-18.15
 30
0.0
 11
-27.0
 21
-18.15
 31
0.0
  0
LINE
  5
13D
330
11F
100
AcDbEntity
  8
0
  6
Continuous
 62
     7
370
    25
100
AcDbLine
 10
-27.0
 20
-20.15
 30
0.0
 11
-27.0
 21
19.75
 31
0.0
  0
LINE
  5
13E
330
11F
100
AcDbEntity
  8
0
  6
Continuous
 62
     7
370
    25
100
AcDbLine
 10
-410.0
 20
19.75
 30
0.0
 11
-410.0
 21
-20.15
 31
0.0
  0
LINE
  5
13F
330
11F
100
AcDbEntity
  8
0
  6
Continuous
 62
     7
370
    25
100
AcDbLine
 10
-402.0
 20
-18.15
 30
0.0
 11
-410.0
 21
-18.15
 31
0.0
  0
LINE
  5
140
330
11F
100
AcDbEntity
  8
0
  6
Continuous
 62
     7
370
    25
100
AcDbLine
 10
-405.5
 20
-20.15
 30
0.0
 11
-405.5
 21
-18.15
 31
0.0
  0
LINE
  5
141
330
11F
100
AcDbEntity
  8
0
  6
Continuous
 62
     7
370
    25
100
AcDbLine
 10
-410.0
 20
-20.15
 30
0.0
 11
-27.0
 21
-20.15
 31
0.0
  0
LINE
  5
142
330
11F
100
AcDbEntity
  8
0
  6
Continuous
 62
     7
370
    25
100
AcDbLine
 10
-371.5
 20
-20.15
 30
0.0
 11
-371.5
 21
-18.15
 31
0.0
  0
LINE
  5
143
330
11F
100
AcDbEntity
  8
0
  6
Continuous
 62
     7
370
    25
100
AcDbLine
 10
-404.5
 20
-18.15
 30
0.0
 11
-404.5
 21
-20.15
 31
0.0
  0
LINE
  5
144
330
11F
100
AcDbEntity
  8
0
  6
Continuous
 62
     7
370
    25
100
AcDbLine
 10
-402.0
 20
-20.15
 30
0.0
 11
-402.0
 21
-18.15
 31
0.0
  0
LINE
  5
145
330
11F
100
AcDbEntity
  8
0
  6
Continuous
 62
     7
370
    25
100
AcDbLine
 10
-374.0
 20
-18.15
 30
0.0
 11
-374.0
 21
-20.15
 31
0.0
  0
LINE
  5
146
330
11F
100
AcDbEntity
  8
0
  6
Continuous
 62
     7
370
    25
100
AcDbLine
 10
-27.0
 20
19.75
 30
0.0
 11
-410.0
 21
19.75
 31
0.0
  0
VIEWPORT
  5
276
330
11F
100
AcDbEntity
  8
0
100
AcDbViewport
 10
0.0
 20
0.0
 30
0.0
 40
205.6
 41
156.0
 68
     1
 69
     1
 12
-179.5433742704
 22
101.5824337065
 13
0.0
 23
0.0
 14
10.0
 24
10.0
 15
10.0
 25
10.0
 16
0.0
 26
0.0
 36
1.0
 17
0.0
 27
0.0
 37
0.0
 42
50.0
 43
0.0
 44
0.0
 45
267.9654760427
 50
0.0
 51
0.0
 72
   100
 90
   557152
  1

281
     0
 71
     1
 74
     0
110
0.0
120
0.0
130
0.0
111
1.0
121
0.0
131
0.0
112
0.0
122
1.0
132
0.0
 79
     0
146
0.0
  0
ENDBLK
  5
122
330
11F
100
AcDbEntity
  8
0
100
AcDbBlockEnd
  0
BLOCK
  5
149
330
147
100
AcDbEntity
  8
0
100
AcDbBlockBegin
  2
*Paper_Space5
 70
     0
 10
0.0
 20
0.0
 30
0.0
  3
*Paper_Space5
  1

  0
CIRCLE
  5
14B
330
147
100
AcDbEntity
  8
0
  6
Continuous
 62
     7
370
    25
100
AcDbCircle
 10
28.9
 20
159.5
 30
0.0
 40
1.750000000000028
  0
CIRCLE
  5
14C
330
147
100
AcDbEntity
  8
0
  6
Continuous
 62
     7
370
    25
100
AcDbCircle
 10
28.9
 20
39.5
 30
0.0
 40
1.749999999999993
  0
LINE
  5
15B
330
147
100
AcDbEntity
  8
0
  6
Continuous
 62
     7
370
    25
100
AcDbLine
 10
20.4
 20
410.0
 30
0.0
 11
37.2
 21
410.0
 31
0.0
  0
LINE
  5
15C
330
147
100
AcDbEntity
  8
0
  6
Continuous
 62
     7
370
    25
100
AcDbLine
 10
37.2
 20
405.5
 30
0.0
 11
37.2
 21
410.0
 31
0.0
  0
LINE
  5
15D
330
147
100
AcDbEntity
  8
0
  6
Continuous
 62
     7
370
    25
100
AcDbLine
 10
37.2
 20
405.5
 30
0.0
 11
26.4
 21
405.5
 31
0.0
  0
LINE
  5
15E
330
147
100
AcDbEntity
  8
0
  6
Continuous
 62
     7
370
    25
100
AcDbLine
 10
26.4
 20
404.5
 30
0.0
 11
26.4
 21
405.5
 31
0.0
  0
LINE
  5
15F
330
147
100
AcDbEntity
  8
0
  6
Continuous
 62
     7
370
    25
100
AcDbLine
 10
22.4
 20
402.0
 30
0.0
 11
23.9
 21
402.0
 31
0.0
  0
LINE
  5
160
330
147
100
AcDbEntity
  8
0
  6
Continuous
 62
     7
370
    25
100
AcDbLine
 10
22.4
 20
374.0
 30
0.0
 11
22.4
 21
402.0
 31
0.0
  0
LINE
  5
161
330
147
100
AcDbEntity
  8
0
  6
Continuous
 62
     7
370
    25
100
AcDbLine
 10
23.9
 20
374.0
 30
0.0
 11
22.4
 21
374.0
 31
0.0
  0
LINE
  5
162
330
147
100
AcDbEntity
  8
0
  6
Continuous
 62
     7
370
    25
100
AcDbLine
 10
26.4
 20
208.92
 30
0.0
 11
26.4
 21
371.5
 31
0.0
  0
LINE
  5
163
330
147
100
AcDbEntity
  8
0
  6
Continuous
 62
     7
370
    25
100
AcDbLine
 10
37.2
 20
208.92
 30
0.0
 11
26.4
 21
208.92
 31
0.0
  0
LINE
  5
164
330
147
100
AcDbEntity
  8
0
  6
Continuous
 62
     7
370
    25
100
AcDbLine
 10
37.2
 20
208.92
 30
0.0
 11
37.2
 21
27.0
 31
0.0
  0
LINE
  5
165
330
147
100
AcDbEntity
  8
0
  6
Continuous
 62
     7
370
    25
100
AcDbLine
 10
37.2
 20
27.0
 30
0.0
 11
20.4
 21
27.0
 31
0.0
  0
LINE
  5
166
330
147
100
AcDbEntity
  8
0
  6
Continuous
 62
     7
370
    25
100
AcDbLine
 10
20.4
 20
27.0
 30
0.0
 11
20.4
 21
410.0
 31
0.0
  0
ARC
  5
167
330
147
100
AcDbEntity
  8
0
  6
Continuous
 62
     7
370
    25
100
AcDbCircle
 10
23.9
 20
404.5
 30
0.0
 40
2.5
100
AcDbArc
 50
270.0
 51
0.0
  0
ARC
  5
168
330
147
100
AcDbEntity
  8
0
  6
Continuous
 62
     7
370
    25
100
AcDbCircle
 10
23.9
 20
371.5
 30
0.0
 40
2.499999999999957
100
AcDbArc
 50
0.0
 51
90.0
  0
VIEWPORT
  5
278
330
147
100
AcDbEntity
  8
0
100
AcDbViewport
 10
0.0
 20
0.0
 30
0.0
 40
205.6
 41
156.0
 68
     1
 69
     1
 12
-179.5433742704
 22
101.5824337065
 13
0.0
 23
0.0
 14
10.0
 24
10.0
 15
10.0
 25
10.0
 16
0.0
 26
0.0
 36
1.0
 17
0.0
 27
0.0
 37
0.0
 42
50.0
 43
0.0
 44
0.0
 45
267.9654760427
 50
0.0
 51
0.0
 72
   100
 90
   557152
  1

281
     0
 71
     1
 74
     0
110
0.0
120
0.0
130
0.0
111
1.0
121
0.0
131
0.0
112
0.0
122
1.0
132
0.0
 79
     0
146
0.0
  0
ENDBLK
  5
14A
330
147
100
AcDbEntity
  8
0
100
AcDbBlockEnd
  0
BLOCK
  5
16B
330
169
100
AcDbEntity
  8
0
100
AcDbBlockBegin
  2
*Paper_Space6
 70
     0
 10
0.0
 20
0.0
 30
0.0
  3
*Paper_Space6
  1

  0
LWPOLYLINE
  5
183
330
169
100
AcDbEntity
  8
0
  6
Continuous
 62
     7
370
    25
100
AcDbPolyline
 90
        3
 70
   128
 43
0.0
 10
-266.7974194378
 20
-191.8548332223
 10
-266.6728777186
 20
-191.609473026
 10
-266.6248409196
 20
-191.3279149119
  0
LWPOLYLINE
  5
18A
330
169
100
AcDbEntity
  8
0
  6
Continuous
 62
     7
370
    25
100
AcDbPolyline
 90
       17
 70
   128
 43
0.0
 10
-93.58558249
 20
-91.0115027716
 10
-93.9649348049
 20
-91.339252594
 10
-94.098145623
 20
-91.7258598694
 10
-93.9649348049
 20
-92.1124671449
 10
-93.58558249
 20
-92.4402169673
 10
-93.0178416296
 20
-92.6592123972
 10
-92.348145623
 20
-92.7361133656
 10
-91.6784496163
 20
-92.6592123972
 10
-91.1107087559
 20
-92.4402169673
 10
-90.7313564411
 20
-92.1124671449
 10
-90.598145623
 20
-91.7258598694
 10
-90.7313564411
 20
-91.339252594
 10
-91.1107087559
 20
-91.0115027716
 10
-91.6784496163
 20
-90.7925073417
 10
-92.348145623
 20
-90.7156063733
 10
-93.0178416296
 20
-90.7925073417
 10
-93.58558249
 20
-91.0115027716
  0
LWPOLYLINE
  5
18B
330
169
100
AcDbEntity
  8
0
  6
Continuous
 62
     7
370
    25
100
AcDbPolyline
 90
       17
 70
   128
 43
0.0
 10
-8.7327687477
 20
-42.0270160622
 10
-9.1121210625
 20
-42.3547658846
 10
-9.2453318806
 20
-42.7413731601
 10
-9.1121210625
 20
-43.1279804355
 10
-8.7327687477
 20
-43.4557302579
 10
-8.1650278872
 20
-43.6747256878
 10
-7.4953318806
 20
-43.7516266562
 10
-6.8256358739
 20
-43.6747256878
 10
-6.2578950135
 20
-43.4557302579
 10
-5.8785426987
 20
-43.1279804355
 10
-5.7453318806
 20
-42.7413731601
 10
-5.8785426987
 20
-42.3547658846
 10
-6.2578950135
 20
-42.0270160622
 10
-6.8256358739
 20
-41.8080206323
 10
-7.4953318806
 20
-41.7311196639
 10
-8.1650278872
 20
-41.8080206323
 10
-8.7327687477
 20
-42.0270160622
  0
LINE
  5
199
330
169
100
AcDbEntity
  8
0
  6
Continuous
 62
     7
370
    25
100
AcDbLine
 10
-266.6248409196
 20
-191.3279149119
 30
0.0
 11
-266.6248409196
 21
-189.6948332882
 31
0.0
  0
LINE
  5
19A
330
169
100
AcDbEntity
  8
0
  6
Continuous
 62
     7
370
    25
100
AcDbLine
 10
-275.4888019503
 20
-159.5643446295
 30
0.0
 11
-274.0745883879
 21
-160.3807527413
 31
0.0
  0
LINE
  5
19B
330
169
100
AcDbEntity
  8
0
  6
Continuous
 62
     7
370
    25
100
AcDbLine
 10
-274.0745883879
 20
-160.3807527413
 30
0.0
 11
-274.0745883879
 21
-191.3276495118
 31
0.0
  0
LINE
  5
19C
330
169
100
AcDbEntity
  8
0
  6
Continuous
 62
     7
370
    25
100
AcDbLine
 10
-263.6094080263
 20
-197.3690695393
 30
0.0
 11
-274.0745883879
 21
-191.3276495118
 31
0.0
  0
LINE
  5
19D
330
169
100
AcDbEntity
  8
0
  6
Continuous
 62
     7
370
    25
100
AcDbLine
 10
-263.6094080263
 20
-197.3690695393
 30
0.0
 11
-263.6094080263
 21
-199.0021511631
 31
0.0
  0
LINE
  5
19E
330
169
100
AcDbEntity
  8
0
  6
Continuous
 62
     7
370
    25
100
AcDbLine
 10
-275.4888019503
 20
-192.1443230237
 30
0.0
 11
-263.6094080263
 21
-199.0021511631
 31
0.0
  0
LINE
  5
19F
330
169
100
AcDbEntity
  8
0
  6
Continuous
 62
     7
370
    25
100
AcDbLine
 10
-275.4888019503
 20
-159.5643446295
 30
0.0
 11
-275.4888019503
 21
-192.1443230237
 31
0.0
  0
LINE
  5
1A0
330
169
100
AcDbEntity
  8
0
  6
Continuous
 62
     7
370
    25
100
AcDbLine
 10
-248.6187442652
 20
-176.632303499
 30
0.0
 11
-3.2526911935
 21
-34.9854960977
 31
0.0
  0
LINE
  5
1A1
330
169
100
AcDbEntity
  8
0
  6
Continuous
 62
     7
370
    25
100
AcDbLine
 10
-248.6187442652
 20
-176.632303499
 30
0.0
 11
-248.6187442652
 21
-178.2653851228
 31
0.0
  0
LINE
  5
1A2
330
169
100
AcDbEntity
  8
0
  6
Continuous
 62
     7
370
    25
100
AcDbLine
 10
-248.6187442652
 20
-178.2653851228
 30
0.0
 11
-267.0390537908
 21
-188.8992034647
 31
0.0
  0
LINE
  5
1A3
330
169
100
AcDbEntity
  8
0
  6
Continuous
 62
     7
370
    25
100
AcDbLine
 10
-274.0745883879
 20
-191.3276495118
 30
0.0
 11
-268.4177341384
 21
-188.0620170645
 31
0.0
  0
LINE
  5
1A4
330
169
100
AcDbEntity
  8
0
  6
Continuous
 62
     7
370
    25
100
AcDbLine
 10
-3.2526911935
 20
-4.0385993273
 30
0.0
 11
-274.0745883879
 21
-160.3807527413
 31
0.0
  0
LINE
  5
1A5
330
169
100
AcDbEntity
  8
0
  6
Continuous
 62
     7
370
    25
100
AcDbLine
 10
-3.2526911935
 20
-34.9854960977
 30
0.0
 11
-3.2526911935
 21
-4.0385993273
 31
0.0
  0
LINE
  5
1A6
330
169
100
AcDbEntity
  8
0
  6
Continuous
 62
     7
370
    25
100
AcDbLine
 10
-4.6669047558
 20
-3.2221912155
 30
0.0
 11
-275.4888019503
 21
-159.5643446295
 31
0.0
  0
LINE
  5
1A7
330
169
100
AcDbEntity
  8
0
  6
Continuous
 62
     7
370
    25
100
AcDbLine
 10
-3.2526911935
 20
-4.0385993273
 30
0.0
 11
-4.6669047558
 21
-3.2221912155
 31
0.0
  0
LINE
  5
1A8
330
169
100
AcDbEntity
  8
0
  6
Continuous
 62
     7
370
    25
100
AcDbLine
 10
-268.0641807478
 20
-191.1235474838
 30
0.0
 11
-267.3570739666
 21
-190.7153434279
 31
0.0
  0
LINE
  5
1A9
330
169
100
AcDbEntity
  8
0
  6
Continuous
 62
     7
370
    25
100
AcDbLine
 10
-260.427427511
 20
-195.5321512877
 30
0.0
 11
-268.0641807478
 21
-191.1235474838
 31
0.0
  0
LINE
  5
1AA
330
169
100
AcDbEntity
  8
0
  6
Continuous
 62
     7
370
    25
100
AcDbLine
 10
-260.427427511
 20
-195.5321512877
 30
0.0
 11
-263.6094080263
 21
-197.3690695393
 31
0.0
  0
LINE
  5
1AB
330
169
100
AcDbEntity
  8
0
  6
Continuous
 62
     7
370
    25
100
AcDbLine
 10
-267.3570739666
 20
-188.6743231484
 30
0.0
 11
-268.4177341384
 21
-188.0620170645
 31
0.0
  0
LINE
  5
1AC
330
169
100
AcDbEntity
  8
0
  6
Continuous
 62
     7
370
    25
100
AcDbLine
 10
-260.427427511
 20
-197.1652329115
 30
0.0
 11
-263.6094080263
 21
-199.0021511631
 31
0.0
  0
LINE
  5
1AD
330
169
100
AcDbEntity
  8
0
  6
Continuous
 62
     7
370
    25
100
AcDbLine
 10
-260.427427511
 20
-197.1652329115
 30
0.0
 11
-260.427427511
 21
-195.5321512877
 31
0.0
  0
LINE
  5
1AE
330
169
100
AcDbEntity
  8
0
  6
Continuous
 62
     7
370
    25
100
AcDbLine
 10
-3.2526911935
 20
-34.9854960977
 30
0.0
 11
7.2124891681
 21
-41.0269161252
 31
0.0
  0
LINE
  5
1AF
330
169
100
AcDbEntity
  8
0
  6
Continuous
 62
     7
370
    25
100
AcDbLine
 10
-121.4243764654
 20
-115.2873979766
 30
0.0
 11
7.2124891681
 21
-41.0269161252
 31
0.0
  0
LINE
  5
1B0
330
169
100
AcDbEntity
  8
0
  6
Continuous
 62
     7
370
    25
100
AcDbLine
 10
-121.4243764654
 20
-115.2873979766
 30
0.0
 11
-129.0611297022
 21
-110.8787941728
 31
0.0
  0
LINE
  5
1B1
330
169
100
AcDbEntity
  8
0
  6
Continuous
 62
     7
370
    25
100
AcDbLine
 10
-244.0225501875
 20
-177.2446095829
 30
0.0
 11
-129.0611297022
 21
-110.8787941728
 31
0.0
  0
LINE
  5
1B2
330
169
100
AcDbEntity
  8
0
  6
Continuous
 62
     7
370
    25
100
AcDbLine
 10
-248.6187442652
 20
-176.632303499
 30
0.0
 11
-247.5580840934
 21
-177.2446095829
 31
0.0
  0
LINE
  5
1B3
330
169
100
AcDbEntity
  8
0
  6
Continuous
 62
     7
370
    25
100
AcDbLine
 10
-244.0225501875
 20
-178.8776912066
 30
0.0
 11
-244.0225501875
 21
-177.2446095829
 31
0.0
  0
LINE
  5
1B4
330
169
100
AcDbEntity
  8
0
  6
Continuous
 62
     7
370
    25
100
AcDbLine
 10
-247.5580840934
 20
-177.2446095829
 30
0.0
 11
-247.5580840934
 21
-178.8776912066
 31
0.0
  0
LINE
  5
1B5
330
169
100
AcDbEntity
  8
0
  6
Continuous
 62
     7
370
    25
100
AcDbLine
 10
-247.5580840934
 20
-178.8776912066
 30
0.0
 11
-248.6187442652
 21
-178.2653851228
 31
0.0
  0
LINE
  5
1B6
330
169
100
AcDbEntity
  8
0
  6
Continuous
 62
     7
370
    25
100
AcDbLine
 10
-129.0611297022
 20
-110.8787941728
 30
0.0
 11
-129.0611297022
 21
-112.5118757966
 31
0.0
  0
LINE
  5
1B7
330
169
100
AcDbEntity
  8
0
  6
Continuous
 62
     7
370
    25
100
AcDbLine
 10
-129.0611297022
 20
-112.5118757966
 30
0.0
 11
-244.0225501875
 21
-178.8776912066
 31
0.0
  0
LINE
  5
1B8
330
169
100
AcDbEntity
  8
0
  6
Continuous
 62
     7
370
    25
100
AcDbLine
 10
-121.4243764654
 20
-115.2873979766
 30
0.0
 11
-121.4243764654
 21
-116.9204796004
 31
0.0
  0
LINE
  5
1B9
330
169
100
AcDbEntity
  8
0
  6
Continuous
 62
     7
370
    25
100
AcDbLine
 10
-121.4243764654
 20
-116.9204796004
 30
0.0
 11
-129.0611297022
 21
-112.5118757966
 31
0.0
  0
LINE
  5
1BA
330
169
100
AcDbEntity
  8
0
  6
Continuous
 62
     7
370
    25
100
AcDbLine
 10
7.2124891681
 20
-42.659997749
 30
0.0
 11
7.2124891681
 21
-41.0269161252
 31
0.0
  0
LINE
  5
1BB
330
169
100
AcDbEntity
  8
0
  6
Continuous
 62
     7
370
    25
100
AcDbLine
 10
-121.4243764654
 20
-116.9204796004
 30
0.0
 11
7.2124891681
 21
-42.659997749
 31
0.0
  0
LINE
  5
1BC
330
169
100
AcDbEntity
  8
0
  6
Continuous
 62
     8
370
    25
100
AcDbLine
 10
-267.3570739666
 20
-190.7153434279
 30
0.0
 11
-267.3570739666
 21
-191.5317515398
 31
0.0
  0
ARC
  5
1BD
330
169
100
AcDbEntity
  8
0
  6
Continuous
 62
     7
370
    25
100
AcDbCircle
 10
-267.7443915336
 20
-189.6948332882
 30
0.0
 40
1.091538292085687
100
AcDbArc
 50
290.7834207995
 51
69.2165792005
  0
ARC
  5
1BE
330
169
100
AcDbEntity
  8
0
  6
Continuous
 62
     7
370
    25
100
AcDbCircle
 10
-245.7903171404
 20
-173.8328318705
 30
0.0
 40
3.842554769779253
100
AcDbArc
 50
242.6096722366
 51
297.3903277634
  0
ARC
  5
1BF
330
169
100
AcDbEntity
  8
0
  6
Continuous
 62
     7
370
    25
100
AcDbCircle
 10
-245.7903171404
 20
-175.4659134942
 30
0.0
 40
3.842554769779253
100
AcDbArc
 50
242.6096722366
 51
297.3903277634
  0
ARC
  5
1C0
330
169
100
AcDbEntity
  8
0
  6
Continuous
 62
     7
370
    25
100
AcDbCircle
 10
-92.348145623
 20
-95.1350457288
 30
0.0
 40
2.789920809656393
100
AcDbArc
 50
68.3243824274
 51
111.6756175729
  0
ARC
  5
1C1
330
169
100
AcDbEntity
  8
0
  6
Continuous
 62
     7
370
    25
100
AcDbCircle
 10
-7.4953318806
 20
-46.1505590196
 30
0.0
 40
2.789920809756399
100
AcDbArc
 50
68.3243824334
 51
111.6756175666
  0
VIEWPORT
  5
27A
330
169
100
AcDbEntity
  8
0
100
AcDbViewport
 10
0.0
 20
0.0
 30
0.0
 40
205.6
 41
156.0
 68
     1
 69
     1
 12
-179.5433742704
 22
101.5824337065
 13
0.0
 23
0.0
 14
10.0
 24
10.0
 15
10.0
 25
10.0
 16
0.0
 26
0.0
 36
1.0
 17
0.0
 27
0.0
 37
0.0
 42
50.0
 43
0.0
 44
0.0
 45
267.9654760427
 50
0.0
 51
0.0
 72
   100
 90
   557152
  1

281
     0
 71
     1
 74
     0
110
0.0
120
0.0
130
0.0
111
1.0
121
0.0
131
0.0
112
0.0
122
1.0
132
0.0
 79
     0
146
0.0
  0
ENDBLK
  5
16C
330
169
100
AcDbEntity
  8
0
100
AcDbBlockEnd
  0
BLOCK
  5
1C4
330
1C2
100
AcDbEntity
  8
0
100
AcDbBlockBegin
  2
*Paper_Space7
 70
     0
 10
0.0
 20
0.0
 30
0.0
  3
*Paper_Space7
  1

  0
LWPOLYLINE
  5
1D5
330
1C2
100
AcDbEntity
  8
0
  6
Continuous
 62
     7
370
    25
100
AcDbPolyline
 90
        9
 70
   128
 43
0.0
 10
-166.4739532418
 20
-204.416952126
 10
-166.065018254
 20
-204.5560659701
 10
-165.7166355136
 20
-204.7335961364
 10
-165.442193174
 20
-204.9427202401
 10
-165.2522379004
 20
-205.1754017593
 10
-165.1540695673
 20
-205.4226988735
 10
-165.1514607289
 20
-205.6751080936
 10
-165.2445116412
 20
-205.9229294745
 10
-165.4296464099
 20
-206.1566393797
  0
LWPOLYLINE
  5
1E2
330
1C2
100
AcDbEntity
  8
0
  6
Continuous
 62
     7
370
    25
100
AcDbPolyline
 90
       17
 70
   128
 43
0.0
 10
-50.4259625308
 20
-94.7372071337
 10
-50.6206925075
 20
-95.074279034
 10
-50.5501484875
 20
-95.424073468
 10
-50.2250701582
 20
-95.733337404
 10
-49.6949477485
 20
-95.9549882113
 10
-49.0404875896
 20
-96.0552815636
 10
-48.3613253081
 20
-96.0189487074
 10
-47.7608572047
 20
-95.8515209905
 10
-47.3304991049
 20
-95.5784877651
 10
-47.1357691282
 20
-95.2414158648
 10
-47.2063131482
 20
-94.8916214308
 10
-47.5313914775
 20
-94.5823574947
 10
-48.0615138872
 20
-94.3607066875
 10
-48.7159740461
 20
-94.2604133351
 10
-49.3951363276
 20
-94.2967461914
 10
-49.995604431
 20
-94.4641739083
 10
-50.4259625308
 20
-94.7372071337
  0
LWPOLYLINE
  5
1E3
330
1C2
100
AcDbEntity
  8
0
  6
Continuous
 62
     7
370
    25
100
AcDbPolyline
 90
       17
 70
   128
 43
0.0
 10
5.5774841408
 20
-40.0761263172
 10
5.3827541641
 20
-40.4131982175
 10
5.4532981841
 20
-40.7629926515
 10
5.7783765134
 20
-41.0722565875
 10
6.3084989231
 20
-41.2939073948
 10
6.962959082
 20
-41.3942007471
 10
7.6421213635
 20
-41.3578678909
 10
8.2425894669
 20
-41.1904401739
 10
8.6729475667
 20
-40.9174069486
 10
8.8676775434
 20
-40.5803350483
 10
8.7971335234
 20
-40.2305406142
 10
8.4720551941
 20
-39.9212766782
 10
7.9419327844
 20
-39.699625871
 10
7.2874726255
 20
-39.5993325186
 10
6.608310344
 20
-39.6356653749
 10
6.0078422406
 20
-39.8030930918
 10
5.5774841408
 20
-40.0761263172
  0
LINE
  5
1F1
330
1C2
100
AcDbEntity
  8
0
  6
Continuous
 62
     7
370
    25
100
AcDbLine
 10
-165.1406917141
 20
-206.8175178879
 30
0.0
 11
-165.1406917141
 21
-205.555724643
 31
0.0
  0
LINE
  5
1F2
330
1C2
100
AcDbEntity
  8
0
  6
Continuous
 62
     7
370
    25
100
AcDbLine
 10
-173.3029797791
 20
-174.7331028524
 30
0.0
 11
-171.5341435357
 21
-175.2138346418
 31
0.0
  0
LINE
  5
1F3
330
1C2
100
AcDbEntity
  8
0
  6
Continuous
 62
     7
370
    25
100
AcDbLine
 10
-171.5341435357
 20
-175.2138346418
 30
0.0
 11
-171.5341435358
 21
-207.7004753384
 31
0.0
  0
LINE
  5
1F4
330
1C2
100
AcDbEntity
  8
0
  6
Continuous
 62
     7
370
    25
100
AcDbLine
 10
-158.4447553349
 20
-211.2578905797
 30
0.0
 11
-171.5341435358
 21
-207.7004753384
 31
0.0
  0
LINE
  5
1F5
330
1C2
100
AcDbEntity
  8
0
  6
Continuous
 62
     7
370
    25
100
AcDbLine
 10
-158.4447553349
 20
-211.2578905797
 30
0.0
 11
-158.4447553349
 21
-212.9722251811
 31
0.0
  0
LINE
  5
1F6
330
1C2
100
AcDbEntity
  8
0
  6
Continuous
 62
     7
370
    25
100
AcDbLine
 10
-173.3029797791
 20
-208.9340781505
 30
0.0
 11
-158.4447553349
 21
-212.9722251811
 31
0.0
  0
LINE
  5
1F7
330
1C2
100
AcDbEntity
  8
0
  6
Continuous
 62
     7
370
    25
100
AcDbLine
 10
-173.3029797791
 20
-174.7331028524
 30
0.0
 11
-173.3029797791
 21
-208.9340781505
 31
0.0
  0
LINE
  5
1F8
330
1C2
100
AcDbEntity
  8
0
  6
Continuous
 62
     7
370
    25
100
AcDbLine
 10
-154.7331095343
 20
-191.3021510935
 30
0.0
 11
7.2101904245
 21
-33.2405257324
 31
0.0
  0
LINE
  5
1F9
330
1C2
100
AcDbEntity
  8
0
  6
Continuous
 62
     7
370
    25
100
AcDbLine
 10
-154.7331095343
 20
-191.3021510935
 30
0.0
 11
-154.7331095343
 21
-193.0164856949
 31
0.0
  0
LINE
  5
1FA
330
1C2
100
AcDbEntity
  8
0
  6
Continuous
 62
     7
370
    25
100
AcDbLine
 10
-154.7331095343
 20
-193.0164856949
 30
0.0
 11
-166.4269712887
 21
-204.4300532591
 31
0.0
  0
LINE
  5
1FB
330
1C2
100
AcDbEntity
  8
0
  6
Continuous
 62
     7
370
    25
100
AcDbLine
 10
-171.5341435358
 20
-207.7004753384
 30
0.0
 11
-167.8005804243
 21
-204.056403284
 31
0.0
  0
LINE
  5
1FC
330
1C2
100
AcDbEntity
  8
0
  6
Continuous
 62
     7
370
    25
100
AcDbLine
 10
7.2101904245
 20
-0.7538850358
 30
0.0
 11
-171.5341435357
 21
-175.2138346418
 31
0.0
  0
LINE
  5
1FD
330
1C2
100
AcDbEntity
  8
0
  6
Continuous
 62
     7
370
    25
100
AcDbLine
 10
7.2101904245
 20
-33.2405257324
 30
0.0
 11
7.2101904245
 21
-0.7538850358
 31
0.0
  0
LINE
  5
1FE
330
1C2
100
AcDbEntity
  8
0
  6
Continuous
 62
     7
370
    25
100
AcDbLine
 10
5.4413541811
 20
-0.2731532464
 30
0.0
 11
-173.3029797791
 21
-174.7331028524
 31
0.0
  0
LINE
  5
1FF
330
1C2
100
AcDbEntity
  8
0
  6
Continuous
 62
     7
370
    25
100
AcDbLine
 10
7.2101904245
 20
-0.7538850358
 30
0.0
 11
5.4413541811
 21
-0.2731532464
 31
0.0
  0
LINE
  5
200
330
1C2
100
AcDbEntity
  8
0
  6
Continuous
 62
     7
370
    25
100
AcDbLine
 10
-165.8963417989
 20
-206.6121483865
 30
0.0
 11
-165.4296464099
 21
-206.1566393797
 31
0.0
  0
LINE
  5
201
330
1C2
100
AcDbEntity
  8
0
  6
Continuous
 62
     7
370
    25
100
AcDbLine
 10
-156.3446260847
 20
-209.2081000491
 30
0.0
 11
-165.8963417989
 21
-206.6121483865
 31
0.0
  0
LINE
  5
202
330
1C2
100
AcDbEntity
  8
0
  6
Continuous
 62
     7
370
    25
100
AcDbLine
 10
-156.3446260847
 20
-209.2081000491
 30
0.0
 11
-158.4447553349
 21
-211.2578905797
 31
0.0
  0
LINE
  5
203
330
1C2
100
AcDbEntity
  8
0
  6
Continuous
 62
     7
370
    25
100
AcDbLine
 10
-166.4739532418
 20
-204.416952126
 30
0.0
 11
-167.8005804243
 21
-204.056403284
 31
0.0
  0
LINE
  5
204
330
1C2
100
AcDbEntity
  8
0
  6
Continuous
 62
     7
370
    25
100
AcDbLine
 10
-156.3446260847
 20
-210.9224346505
 30
0.0
 11
-158.4447553349
 21
-212.9722251811
 31
0.0
  0
LINE
  5
205
330
1C2
100
AcDbEntity
  8
0
  6
Continuous
 62
     7
370
    25
100
AcDbLine
 10
-156.3446260847
 20
-210.9224346505
 30
0.0
 11
-156.3446260847
 21
-209.2081000491
 31
0.0
  0
LINE
  5
206
330
1C2
100
AcDbEntity
  8
0
  6
Continuous
 62
     7
370
    25
100
AcDbLine
 10
7.2101904245
 20
-33.2405257324
 30
0.0
 11
20.2995786253
 21
-36.7979409737
 31
0.0
  0
LINE
  5
207
330
1C2
100
AcDbEntity
  8
0
  6
Continuous
 62
     7
370
    25
100
AcDbLine
 10
-64.6016465289
 20
-119.6641394915
 30
0.0
 11
20.2995786253
 21
-36.7979409737
 31
0.0
  0
LINE
  5
208
330
1C2
100
AcDbEntity
  8
0
  6
Continuous
 62
     7
370
    25
100
AcDbLine
 10
-64.6016465289
 20
-119.6641394915
 30
0.0
 11
-74.153362243
 21
-117.0681878289
 31
0.0
  0
LINE
  5
209
330
1C2
100
AcDbEntity
  8
0
  6
Continuous
 62
     7
370
    25
100
AcDbLine
 10
-150.0286985752
 20
-191.1248421552
 30
0.0
 11
-74.153362243
 21
-117.0681878289
 31
0.0
  0
LINE
  5
20A
330
1C2
100
AcDbEntity
  8
0
  6
Continuous
 62
     7
370
    25
100
AcDbLine
 10
-154.7331095343
 20
-191.3021510935
 30
0.0
 11
-153.4064823518
 21
-191.6626999355
 31
0.0
  0
LINE
  5
20B
330
1C2
100
AcDbEntity
  8
0
  6
Continuous
 62
     7
370
    25
100
AcDbLine
 10
-150.0286985752
 20
-192.8391767566
 30
0.0
 11
-150.0286985752
 21
-191.1248421552
 31
0.0
  0
LINE
  5
20C
330
1C2
100
AcDbEntity
  8
0
  6
Continuous
 62
     7
370
    25
100
AcDbLine
 10
-153.4064823518
 20
-191.6626999355
 30
0.0
 11
-153.4064823518
 21
-193.3770345369
 31
0.0
  0
LINE
  5
20D
330
1C2
100
AcDbEntity
  8
0
  6
Continuous
 62
     7
370
    25
100
AcDbLine
 10
-153.4064823518
 20
-193.3770345369
 30
0.0
 11
-154.7331095343
 21
-193.0164856949
 31
0.0
  0
LINE
  5
20E
330
1C2
100
AcDbEntity
  8
0
  6
Continuous
 62
     7
370
    25
100
AcDbLine
 10
-74.153362243
 20
-117.0681878289
 30
0.0
 11
-74.153362243
 21
-118.7825224304
 31
0.0
  0
LINE
  5
20F
330
1C2
100
AcDbEntity
  8
0
  6
Continuous
 62
     7
370
    25
100
AcDbLine
 10
-74.153362243
 20
-118.7825224304
 30
0.0
 11
-150.0286985752
 21
-192.8391767566
 31
0.0
  0
LINE
  5
210
330
1C2
100
AcDbEntity
  8
0
  6
Continuous
 62
     7
370
    25
100
AcDbLine
 10
-64.6016465289
 20
-119.6641394915
 30
0.0
 11
-64.6016465289
 21
-121.3784740929
 31
0.0
  0
LINE
  5
211
330
1C2
100
AcDbEntity
  8
0
  6
Continuous
 62
     7
370
    25
100
AcDbLine
 10
-64.6016465289
 20
-121.3784740929
 30
0.0
 11
-74.153362243
 21
-118.7825224304
 31
0.0
  0
LINE
  5
212
330
1C2
100
AcDbEntity
  8
0
  6
Continuous
 62
     7
370
    25
100
AcDbLine
 10
20.2995786253
 20
-38.5122755751
 30
0.0
 11
20.2995786253
 21
-36.7979409737
 31
0.0
  0
LINE
  5
213
330
1C2
100
AcDbEntity
  8
0
  6
Continuous
 62
     7
370
    25
100
AcDbLine
 10
-64.6016465289
 20
-121.3784740929
 30
0.0
 11
20.2995786253
 21
-38.5122755751
 31
0.0
  0
LINE
  5
214
330
1C2
100
AcDbEntity
  8
0
  6
Continuous
 62
     8
370
    25
100
AcDbLine
 10
-165.4296464099
 20
-206.1566393797
 30
0.0
 11
-165.4296464099
 21
-206.7389861932
 31
0.0
  0
ARC
  5
215
330
1C2
100
AcDbEntity
  8
0
  6
Continuous
 62
     7
370
    25
100
AcDbCircle
 10
-152.2604990525
 20
-187.9842678434
 30
0.0
 40
3.852809413696712
100
AcDbArc
 50
252.6960345908
 51
305.398914916
  0
ARC
  5
216
330
1C2
100
AcDbEntity
  8
0
  6
Continuous
 62
     7
370
    25
100
AcDbCircle
 10
-152.2604990525
 20
-189.6986024448
 30
0.0
 40
3.852809413696895
100
AcDbArc
 50
252.6960345908
 51
305.398914916
  0
ARC
  5
217
330
1C2
100
AcDbEntity
  8
0
  6
Continuous
 62
     7
370
    25
100
AcDbCircle
 10
-48.8782308179
 20
-99.2769936074
 30
0.0
 40
3.306535932034395
100
AcDbArc
 50
80.5833106245
 51
99.4166893752
  0
ARC
  5
218
330
1C2
100
AcDbEntity
  8
0
  6
Continuous
 62
     7
370
    25
100
AcDbCircle
 10
7.1252158537
 20
-44.6159127908
 30
0.0
 40
3.306535932003912
100
AcDbArc
 50
80.5833106222
 51
99.4166893778
  0
VIEWPORT
  5
27C
330
1C2
100
AcDbEntity
  8
0
100
AcDbViewport
 10
0.0
 20
0.0
 30
0.0
 40
205.6
 41
156.0
 68
     1
 69
     1
 12
-179.5433742704
 22
101.5824337065
 13
0.0
 23
0.0
 14
10.0
 24
10.0
 15
10.0
 25
10.0
 16
0.0
 26
0.0
 36
1.0
 17
0.0
 27
0.0
 37
0.0
 42
50.0
 43
0.0
 44
0.0
 45
267.9654760427
 50
0.0
 51
0.0
 72
   100
 90
   557152
  1

281
     0
 71
     1
 74
     0
110
0.0
120
0.0
130
0.0
111
1.0
121
0.0
131
0.0
112
0.0
122
1.0
132
0.0
 79
     0
146
0.0
  0
ENDBLK
  5
1C5
330
1C2
100
AcDbEntity
  8
0
100
AcDbBlockEnd
  0
BLOCK
  5
21B
330
219
100
AcDbEntity
  8
0
100
AcDbBlockBegin
  2
*Paper_Space8
 70
     0
 10
0.0
 20
0.0
 30
0.0
  3
*Paper_Space8
  1

  0
LWPOLYLINE
  5
22C
330
219
100
AcDbEntity
  8
0
  6
Continuous
 62
     7
370
    25
100
AcDbPolyline
 90
        9
 70
   128
 43
0.0
 10
-119.7720600992
 20
-145.2741485468
 10
-119.332817957
 20
-145.3466056878
 10
-118.9444227904
 20
-145.4462345488
 10
-118.6218004077
 20
-145.5692064485
 10
-118.3773490061
 20
-145.7107956458
 10
-118.2204627161
 20
-145.8655609473
 10
-118.1571705896
 20
-146.0275548091
 10
-118.1899049076
 20
-146.1905518982
 10
-118.3174077087
 20
-146.3482883276
  0
LWPOLYLINE
  5
239
330
219
100
AcDbEntity
  8
0
  6
Continuous
 62
     7
370
    25
100
AcDbPolyline
 90
       17
 70
   128
 43
0.0
 10
-30.9952662731
 20
-70.0445050443
 10
-31.1074322565
 20
-70.2690185072
 10
-30.9533073649
 20
-70.4907499215
 10
-30.5563557159
 20
-70.6759426894
 10
-29.9770095998
 20
-70.7964028908
 10
-29.3034692108
 20
-70.8337915519
 10
-28.6382749676
 20
-70.7824165881
 10
-28.0826966637
 20
-70.6500993718
 10
-27.7213160596
 20
-70.4569839998
 10
-27.6091500762
 20
-70.2324705368
 10
-27.7632749678
 20
-70.0107391225
 10
-28.1602266168
 20
-69.8255463546
 10
-28.739572733
 20
-69.7050861532
 10
-29.4131131219
 20
-69.6676974921
 10
-30.0783073651
 20
-69.719072456
 10
-30.633885669
 20
-69.8513896723
 10
-30.9952662731
 20
-70.0445050443
  0
LWPOLYLINE
  5
23A
330
219
100
AcDbEntity
  8
0
  6
Continuous
 62
     7
370
    25
100
AcDbPolyline
 90
       17
 70
   128
 43
0.0
 10
11.4311405883
 20
-32.6279311842
 10
11.318974605
 20
-32.8524446471
 10
11.4730994966
 20
-33.0741760615
 10
11.8700511455
 20
-33.2593688294
 10
12.4493972617
 20
-33.3798290307
 10
13.1229376507
 20
-33.4172176919
 10
13.7881318938
 20
-33.365842728
 10
14.3437101977
 20
-33.2335255117
 10
14.7050908019
 20
-33.0404101397
 10
14.8172567852
 20
-32.8158966768
 10
14.6631318936
 20
-32.5941652624
 10
14.2661802447
 20
-32.4089724945
 10
13.6868341285
 20
-32.2885122932
 10
13.0132937395
 20
-32.251123632
 10
12.3480994964
 20
-32.3024985959
 10
11.7925211925
 20
-32.4348158122
 10
11.4311405883
 20
-32.6279311842
  0
LINE
  5
246
330
219
100
AcDbEntity
  8
0
  6
Continuous
 62
     7
370
    25
100
AcDbLine
 10
-118.1559435755
 20
-146.7249792187
 30
0.0
 11
-118.1559435755
 21
-146.0536605023
 31
0.0
  0
LINE
  5
247
330
219
100
AcDbEntity
  8
0
  6
Continuous
 62
     7
370
    25
100
AcDbLine
 10
-125.8744374368
 20
-111.6236451717
 30
0.0
 11
-124.0036087434
 21
-111.8593474319
 31
0.0
  0
LINE
  5
248
330
219
100
AcDbEntity
  8
0
  6
Continuous
 62
     7
370
    25
100
AcDbLine
 10
-124.0036087434
 20
-111.8593474319
 30
0.0
 11
-124.0036087434
 21
-147.591810109
 31
0.0
  0
LINE
  5
249
330
219
100
AcDbEntity
  8
0
  6
Continuous
 62
     7
370
    25
100
AcDbLine
 10
-110.1594764118
 20
-149.3360068351
 30
0.0
 11
-124.0036087434
 21
-147.591810109
 31
0.0
  0
LINE
  5
24A
330
219
100
AcDbEntity
  8
0
  6
Continuous
 62
     7
370
    25
100
AcDbLine
 10
-110.1594764118
 20
-149.3360068351
 30
0.0
 11
-110.1594764118
 21
-151.2216249183
 31
0.0
  0
LINE
  5
24B
330
219
100
AcDbEntity
  8
0
  6
Continuous
 62
     7
370
    25
100
AcDbLine
 10
-125.8744374368
 20
-149.2417259319
 30
0.0
 11
-110.1594764118
 21
-151.2216249183
 31
0.0
  0
LINE
  5
24C
330
219
100
AcDbEntity
  8
0
  6
Continuous
 62
     7
370
    25
100
AcDbLine
 10
-125.8744374368
 20
-111.6236451717
 30
0.0
 11
-125.8744374368
 21
-149.2417259319
 31
0.0
  0
LINE
  5
24D
330
219
100
AcDbEntity
  8
0
  6
Continuous
 62
     7
370
    25
100
AcDbLine
 10
-111.2756866849
 20
-136.3668379509
 30
0.0
 11
11.4073398228
 21
-28.1705785389
 31
0.0
  0
LINE
  5
24E
330
219
100
AcDbEntity
  8
0
  6
Continuous
 62
     7
370
    25
100
AcDbLine
 10
-111.2756866849
 20
-136.3668379509
 30
0.0
 11
-111.2756866849
 21
-138.2524560342
 31
0.0
  0
LINE
  5
24F
330
219
100
AcDbEntity
  8
0
  6
Continuous
 62
     7
370
    25
100
AcDbLine
 10
-111.2756866849
 20
-138.2524560342
 30
0.0
 11
-119.3222109984
 21
-145.3488234517
 31
0.0
  0
LINE
  5
250
330
219
100
AcDbEntity
  8
0
  6
Continuous
 62
     7
370
    25
100
AcDbLine
 10
-124.0036087434
 20
-147.591810109
 30
0.0
 11
-121.1751816193
 21
-145.0973718516
 31
0.0
  0
LINE
  5
251
330
219
100
AcDbEntity
  8
0
  6
Continuous
 62
     7
370
    25
100
AcDbLine
 10
11.4073398228
 20
7.5618841381
 30
0.0
 11
-124.0036087434
 21
-111.8593474319
 31
0.0
  0
LINE
  5
252
330
219
100
AcDbEntity
  8
0
  6
Continuous
 62
     7
370
    25
100
AcDbLine
 10
11.4073398228
 20
-28.1705785389
 30
0.0
 11
11.4073398228
 21
7.5618841381
 31
0.0
  0
LINE
  5
253
330
219
100
AcDbEntity
  8
0
  6
Continuous
 62
     7
370
    25
100
AcDbLine
 10
9.5365111293
 20
7.7975863984
 30
0.0
 11
-125.8744374368
 21
-111.6236451717
 31
0.0
  0
LINE
  5
254
330
219
100
AcDbEntity
  8
0
  6
Continuous
 62
     7
370
    25
100
AcDbLine
 10
11.4073398228
 20
7.5618841381
 30
0.0
 11
9.5365111293
 21
7.7975863984
 31
0.0
  0
LINE
  5
255
330
219
100
AcDbEntity
  8
0
  6
Continuous
 62
     7
370
    25
100
AcDbLine
 10
-118.6709610992
 20
-146.6600931098
 30
0.0
 11
-118.3174077087
 21
-146.3482883276
 31
0.0
  0
LINE
  5
256
330
219
100
AcDbEntity
  8
0
  6
Continuous
 62
     7
370
    25
100
AcDbLine
 10
-108.5684861545
 20
-147.9328853153
 30
0.0
 11
-118.6709610992
 21
-146.6600931098
 31
0.0
  0
LINE
  5
257
330
219
100
AcDbEntity
  8
0
  6
Continuous
 62
     7
370
    25
100
AcDbLine
 10
-108.5684861545
 20
-147.9328853153
 30
0.0
 11
-110.1594764118
 21
-149.3360068351
 31
0.0
  0
LINE
  5
258
330
219
100
AcDbEntity
  8
0
  6
Continuous
 62
     7
370
    25
100
AcDbLine
 10
-119.7720600992
 20
-145.2741485468
 30
0.0
 11
-121.1751816193
 21
-145.0973718516
 31
0.0
  0
LINE
  5
259
330
219
100
AcDbEntity
  8
0
  6
Continuous
 62
     7
370
    25
100
AcDbLine
 10
-108.5684861545
 20
-149.8185033985
 30
0.0
 11
-110.1594764118
 21
-151.2216249183
 31
0.0
  0
LINE
  5
25A
330
219
100
AcDbEntity
  8
0
  6
Continuous
 62
     7
370
    25
100
AcDbLine
 10
-108.5684861545
 20
-149.8185033985
 30
0.0
 11
-108.5684861545
 21
-147.9328853153
 31
0.0
  0
LINE
  5
25B
330
219
100
AcDbEntity
  8
0
  6
Continuous
 62
     7
370
    25
100
AcDbLine
 10
11.4073398228
 20
-28.1705785389
 30
0.0
 11
25.2514721543
 21
-29.914775265
 31
0.0
  0
LINE
  5
25C
330
219
100
AcDbEntity
  8
0
  6
Continuous
 62
     7
370
    25
100
AcDbLine
 10
-39.0669606477
 20
-86.6383012369
 30
0.0
 11
25.2514721543
 21
-29.914775265
 31
0.0
  0
LINE
  5
25D
330
219
100
AcDbEntity
  8
0
  6
Continuous
 62
     7
370
    25
100
AcDbLine
 10
-39.0669606477
 20
-86.6383012369
 30
0.0
 11
-49.1694355923
 21
-85.3655090314
 31
0.0
  0
LINE
  5
25E
330
219
100
AcDbEntity
  8
0
  6
Continuous
 62
     7
370
    25
100
AcDbLine
 10
-106.6501458218
 20
-136.0587305161
 30
0.0
 11
-49.1694355923
 21
-85.3655090314
 31
0.0
  0
LINE
  5
25F
330
219
100
AcDbEntity
  8
0
  6
Continuous
 62
     7
370
    25
100
AcDbLine
 10
-111.2756866849
 20
-136.3668379509
 30
0.0
 11
-109.8725651648
 21
-136.5436146462
 31
0.0
  0
LINE
  5
260
330
219
100
AcDbEntity
  8
0
  6
Continuous
 62
     7
370
    25
100
AcDbLine
 10
-106.6501458218
 20
-137.9443485993
 30
0.0
 11
-106.6501458218
 21
-136.0587305161
 31
0.0
  0
LINE
  5
261
330
219
100
AcDbEntity
  8
0
  6
Continuous
 62
     7
370
    25
100
AcDbLine
 10
-109.8725651648
 20
-136.5436146462
 30
0.0
 11
-109.8725651648
 21
-138.4292327294
 31
0.0
  0
LINE
  5
262
330
219
100
AcDbEntity
  8
0
  6
Continuous
 62
     7
370
    25
100
AcDbLine
 10
-109.8725651648
 20
-138.4292327294
 30
0.0
 11
-111.2756866849
 21
-138.2524560342
 31
0.0
  0
LINE
  5
263
330
219
100
AcDbEntity
  8
0
  6
Continuous
 62
     7
370
    25
100
AcDbLine
 10
-49.1694355923
 20
-85.3655090314
 30
0.0
 11
-49.1694355923
 21
-87.2511271146
 31
0.0
  0
LINE
  5
264
330
219
100
AcDbEntity
  8
0
  6
Continuous
 62
     7
370
    25
100
AcDbLine
 10
-49.1694355923
 20
-87.2511271146
 30
0.0
 11
-106.6501458218
 21
-137.9443485993
 31
0.0
  0
LINE
  5
265
330
219
100
AcDbEntity
  8
0
  6
Continuous
 62
     7
370
    25
100
AcDbLine
 10
-39.0669606477
 20
-86.6383012369
 30
0.0
 11
-39.0669606477
 21
-88.5239193201
 31
0.0
  0
LINE
  5
266
330
219
100
AcDbEntity
  8
0
  6
Continuous
 62
     7
370
    25
100
AcDbLine
 10
25.2514721543
 20
-31.8003933483
 30
0.0
 11
25.2514721543
 21
-29.914775265
 31
0.0
  0
LINE
  5
267
330
219
100
AcDbEntity
  8
0
  6
Continuous
 62
     7
370
    25
100
AcDbLine
 10
-39.0669606477
 20
-88.5239193201
 30
0.0
 11
25.2514721543
 21
-31.8003933483
 31
0.0
  0
LINE
  5
268
330
219
100
AcDbEntity
  8
0
  6
Continuous
 62
     7
370
    25
100
AcDbLine
 10
-39.0669606477
 20
-88.5239193201
 30
0.0
 11
-49.1694355923
 21
-87.2511271146
 31
0.0
  0
LINE
  5
269
330
219
100
AcDbEntity
  8
0
  6
Continuous
 62
     8
370
    25
100
AcDbLine
 10
-118.3174077087
 20
-146.3482883276
 30
0.0
 11
-118.3174077087
 21
-146.7046366501
 31
0.0
  0
ARC
  5
26A
330
219
100
AcDbEntity
  8
0
  6
Continuous
 62
     7
370
    25
100
AcDbCircle
 10
-108.9524591938
 20
-131.7082692574
 30
0.0
 40
4.922109306609549
100
AcDbArc
 50
259.2261330329
 51
297.8883001309
  0
ARC
  5
26B
330
219
100
AcDbEntity
  8
0
  6
Continuous
 62
     7
370
    25
100
AcDbCircle
 10
-108.9524591938
 20
-133.5938873407
 30
0.0
 40
4.922109306609421
100
AcDbArc
 50
259.2261330329
 51
297.8883001309
  0
VIEWPORT
  5
27E
330
219
100
AcDbEntity
  8
0
100
AcDbViewport
 10
0.0
 20
0.0
 30
0.0
 40
205.6
 41
156.0
 68
     1
 69
     1
 12
-179.5433742704
 22
101.5824337065
 13
0.0
 23
0.0
 14
10.0
 24
10.0
 15
10.0
 25
10.0
 16
0.0
 26
0.0
 36
1.0
 17
0.0
 27
0.0
 37
0.0
 42
50.0
 43
0.0
 44
0.0
 45
267.9654760427
 50
0.0
 51
0.0
 72
   100
 90
   557152
  1

281
     0
 71
     1
 74
     0
110
0.0
120
0.0
130
0.0
111
1.0
121
0.0
131
0.0
112
0.0
122
1.0
132
0.0
 79
     0
146
0.0
  0
ENDBLK
  5
21C
330
219
100
AcDbEntity
  8
0
100
AcDbBlockEnd
  0
ENDSEC
  0
SECTION
  2
ENTITIES
  0
LWPOLYLINE
  5
7A
330
1F
100
AcDbEntity
  8
0
  6
Continuous
 62
     7
370
    25
100
AcDbPolyline
 90
       17
 70
   128
 43
0.0
 10
-125.8245521947
 20
72.4059279719
 10
-126.2559940779
 20
71.9620897617
 10
-126.8571260664
 20
71.6904840158
 10
-127.5364312642
 20
71.6324602468
 10
-128.1904916129
 20
71.7968520475
 10
-128.7197323534
 20
72.1586322566
 10
-129.0435813806
 20
72.6627231166
 10
-129.1127356158
 20
73.2323813639
 10
-128.9166669536
 20
73.7808816941
 10
-128.4852250704
 20
74.2247199042
 10
-127.8840930819
 20
74.4963256502
 10
-127.2047878841
 20
74.5543494192
 10
-126.5507275355
 20
74.3899576184
 10
-126.0214867949
 20
74.0281774094
 10
-125.6976377677
 20
73.5240865493
 10
-125.6284835325
 20
72.9544283021
 10
-125.8245521947
 20
72.4059279719
  0
LWPOLYLINE
  5
7B
330
1F
100
AcDbEntity
  8
0
  6
Continuous
 62
     7
370
    25
100
AcDbPolyline
 90
       17
 70
   128
 43
0.0
 10
-19.8091890329
 20
25.2646574947
 10
-20.240630916
 20
24.8208192846
 10
-20.8417629045
 20
24.5492135387
 10
-21.5210681023
 20
24.4911897696
 10
-22.175128451
 20
24.6555815704
 10
-22.7043691915
 20
25.0173617794
 10
-23.0282182187
 20
25.5214526395
 10
-23.097372454
 20
26.0911108867
 10
-22.9013037917
 20
26.639611217
 10
-22.4698619085
 20
27.0834494271
 10
-21.8687299201
 20
27.355055173
 10
-21.1894247223
 20
27.413078942
 10
-20.5353643736
 20
27.2486871413
 10
-20.0061236331
 20
26.8869069322
 10
-19.6822746059
 20
26.3828160722
 10
-19.6131203706
 20
25.8131578249
 10
-19.8091890329
 20
25.2646574947
  0
LWPOLYLINE
  5
9B
330
1F
100
AcDbEntity
  8
0
  6
Continuous
 62
     7
370
    25
100
AcDbPolyline
 90
        3
 70
   128
 43
0.0
 10
-128.1906614447
 20
72.8863650651
 10
-128.7199021852
 20
73.2481452742
 10
-128.9956594043
 20
73.6379080438
  0
LWPOLYLINE
  5
9D
330
1F
100
AcDbEntity
  8
0
  6
Continuous
 62
     7
370
    25
100
AcDbPolyline
 90
        3
 70
   128
 43
0.0
 10
-22.1752982829
 20
25.745094588
 10
-22.7045390234
 20
26.106874797
 10
-22.9802962427
 20
26.4966375672
  0
LINE
  5
9F
330
1F
100
AcDbEntity
  8
0
  6
Continuous
 62
     7
370
    25
100
AcDbLine
 10
-343.6611628372
 20
165.6361185574
 30
0.0
 11
-343.6613326691
 21
166.725631575
 31
0.0
  0
LINE
  5
A0
330
1F
100
AcDbEntity
  8
0
  6
Continuous
 62
     7
370
    25
100
AcDbLine
 10
-352.6633525082
 20
186.939049554
 30
0.0
 11
-351.7263444639
 21
188.4208241659
 31
0.0
  0
LINE
  5
A1
330
1F
100
AcDbEntity
  8
0
  6
Continuous
 62
     7
370
    25
100
AcDbLine
 10
-351.7263444639
 20
188.4208241659
 30
0.0
 11
-351.7231261501
 21
167.7745524828
 31
0.0
  0
LINE
  5
A2
330
1F
100
AcDbEntity
  8
0
  6
Continuous
 62
     7
370
    25
100
AcDbLine
 10
-344.7892666228
 20
178.7396846112
 30
0.0
 11
-351.7231261501
 21
167.7745524828
 31
0.0
  0
LINE
  5
A3
330
1F
100
AcDbEntity
  8
0
  6
Continuous
 62
     7
370
    25
100
AcDbLine
 10
-344.7892666228
 20
178.7396846112
 30
0.0
 11
-344.789096791
 21
177.6501715936
 31
0.0
  0
LINE
  5
A4
330
1F
100
AcDbEntity
  8
0
  6
Continuous
 62
     7
370
    25
100
AcDbLine
 10
-352.6599643625
 20
165.2032648533
 30
0.0
 11
-344.789096791
 21
177.6501715936
 31
0.0
  0
LINE
  5
A5
330
1F
100
AcDbEntity
  8
0
  6
Continuous
 62
     7
370
    25
100
AcDbLine
 10
-352.6633525082
 20
186.939049554
 30
0.0
 11
-352.6599643625
 21
165.2032648533
 31
0.0
  0
LINE
  5
A6
330
1F
100
AcDbEntity
  8
0
  6
Continuous
 62
     7
370
    25
100
AcDbLine
 10
-340.8135206724
 20
175.8823739507
 30
0.0
 11
-344.789096791
 21
177.6501715936
 31
0.0
  0
LINE
  5
A7
330
1F
100
AcDbEntity
  8
0
  6
Continuous
 62
     7
370
    25
100
AcDbLine
 10
-340.8135206724
 20
175.8823739507
 30
0.0
 11
-345.8733641112
 21
167.8807910462
 31
0.0
  0
LINE
  5
A8
330
1F
100
AcDbEntity
  8
0
  6
Continuous
 62
     7
370
    25
100
AcDbLine
 10
-344.9899027516
 20
167.4879471256
 30
0.0
 11
-345.8733641112
 21
167.8807910462
 31
0.0
  0
LINE
  5
A9
330
1F
100
AcDbEntity
  8
0
  6
Continuous
 62
     7
370
    25
100
AcDbLine
 10
-344.6552654408
 20
163.5422881001
 30
0.0
 11
-343.9525094076
 21
164.6536190591
 31
0.0
  0
LINE
  5
AA
330
1F
100
AcDbEntity
  8
0
  6
Continuous
 62
     7
370
    25
100
AcDbLine
 10
-319.9183473697
 20
152.5426583221
 30
0.0
 11
-344.6552654408
 21
163.5422881001
 31
0.0
  0
LINE
  5
AB
330
1F
100
AcDbEntity
  8
0
  6
Continuous
 62
     7
370
    25
100
AcDbLine
 10
-319.2155913365
 20
153.6539892811
 30
0.0
 11
-319.9183473697
 21
152.5426583221
 31
0.0
  0
LINE
  5
AC
330
1F
100
AcDbEntity
  8
0
  6
Continuous
 62
     7
370
    25
100
AcDbLine
 10
-172.2025300249
 20
90.6555331262
 30
0.0
 11
-315.8356778821
 21
154.5240977444
 31
0.0
  0
LINE
  5
AD
330
1F
100
AcDbEntity
  8
0
  6
Continuous
 62
     7
370
    25
100
AcDbLine
 10
-167.1426865861
 20
98.6571160307
 30
0.0
 11
-172.2025300249
 21
90.6555331262
 31
0.0
  0
LINE
  5
AE
330
1F
100
AcDbEntity
  8
0
  6
Continuous
 62
     7
370
    25
100
AcDbLine
 10
-167.1426865861
 20
98.6571160307
 30
0.0
 11
-6.4233960327
 21
27.1909499873
 31
0.0
  0
LINE
  5
AF
330
1F
100
AcDbEntity
  8
0
  6
Continuous
 62
     7
370
    25
100
AcDbLine
 10
-6.4233960327
 20
27.1909499873
 30
0.0
 11
-14.2942636042
 21
14.744043247
 31
0.0
  0
LINE
  5
B0
330
1F
100
AcDbEntity
  8
0
  6
Continuous
 62
     7
370
    25
100
AcDbLine
 10
-14.2942636042
 20
14.744043247
 30
0.0
 11
-352.6599643625
 21
165.2032648533
 31
0.0
  0
LINE
  5
B1
330
1F
100
AcDbEntity
  8
0
  6
Continuous
 62
     7
370
    25
100
AcDbLine
 10
-340.8136905043
 20
176.9718869683
 30
0.0
 11
-344.7892666228
 21
178.7396846112
 31
0.0
  0
LINE
  5
B2
330
1F
100
AcDbEntity
  8
0
  6
Continuous
 62
     7
370
    25
100
AcDbLine
 10
-340.8135206724
 20
175.8823739507
 30
0.0
 11
-340.8136905043
 21
176.9718869683
 31
0.0
  0
LINE
  5
B3
330
1F
100
AcDbEntity
  8
0
  6
Continuous
 62
     7
370
    25
100
AcDbLine
 10
-344.9900725834
 20
168.5774601432
 30
0.0
 11
-344.9899027516
 21
167.4879471256
 31
0.0
  0
LINE
  5
B4
330
1F
100
AcDbEntity
  8
0
  6
Continuous
 62
     7
370
    25
100
AcDbLine
 10
-345.3356501463
 20
168.731126224
 30
0.0
 11
-344.9900725834
 21
168.5774601432
 31
0.0
  0
LINE
  5
B5
330
1F
100
AcDbEntity
  8
0
  6
Continuous
 62
     7
370
    25
100
AcDbLine
 10
-319.9185172016
 20
153.6321713397
 30
0.0
 11
-319.9183473697
 21
152.5426583221
 31
0.0
  0
LINE
  5
B6
330
1F
100
AcDbEntity
  8
0
  6
Continuous
 62
     7
370
    25
100
AcDbLine
 10
-13.3606437057
 20
37.9616025596
 30
0.0
 11
-351.7263444639
 21
188.4208241659
 31
0.0
  0
LINE
  5
B7
330
1F
100
AcDbEntity
  8
0
  6
Continuous
 62
     7
370
    25
100
AcDbLine
 10
-13.3596153857
 20
31.3646781297
 30
0.0
 11
-13.3606437057
 21
37.9616025596
 31
0.0
  0
LINE
  5
B8
330
1F
100
AcDbEntity
  8
0
  6
Continuous
 62
     7
370
    25
100
AcDbLine
 10
-315.8356778821
 20
154.5240977444
 30
0.0
 11
-315.8358477139
 21
155.613610762
 31
0.0
  0
LINE
  5
B9
330
1F
100
AcDbEntity
  8
0
  6
Continuous
 62
     7
370
    25
100
AcDbLine
 10
-319.2157611684
 20
154.7435022986
 30
0.0
 11
-319.2155913365
 21
153.6539892811
 31
0.0
  0
LINE
  5
BA
330
1F
100
AcDbEntity
  8
0
  6
Continuous
 62
     7
370
    25
100
AcDbLine
 10
-172.2026998568
 20
91.7450461438
 30
0.0
 11
-172.2025300249
 21
90.6555331262
 31
0.0
  0
LINE
  5
BB
330
1F
100
AcDbEntity
  8
0
  6
Continuous
 62
     7
370
    25
100
AcDbLine
 10
-315.8358477139
 20
155.613610762
 30
0.0
 11
-172.2026998568
 21
91.7450461438
 31
0.0
  0
LINE
  5
BC
330
1F
100
AcDbEntity
  8
0
  6
Continuous
 62
     7
370
    25
100
AcDbLine
 10
-319.9185172016
 20
153.6321713397
 30
0.0
 11
-319.2157611684
 21
154.7435022986
 31
0.0
  0
LINE
  5
BD
330
1F
100
AcDbEntity
  8
0
  6
Continuous
 62
     7
370
    25
100
AcDbLine
 10
-167.142856418
 20
99.7466290483
 30
0.0
 11
-167.1426865861
 21
98.6571160307
 31
0.0
  0
LINE
  5
BE
330
1F
100
AcDbEntity
  8
0
  6
Continuous
 62
     7
370
    25
100
AcDbLine
 10
-167.142856418
 20
99.7466290483
 30
0.0
 11
-172.2026998568
 21
91.7450461438
 31
0.0
  0
LINE
  5
BF
330
1F
100
AcDbEntity
  8
0
  6
Continuous
 62
     7
370
    25
100
AcDbLine
 10
-6.4233960327
 20
27.1909499873
 30
0.0
 11
-6.4235658646
 21
28.2804630049
 31
0.0
  0
LINE
  5
C0
330
1F
100
AcDbEntity
  8
0
  6
Continuous
 62
     7
370
    25
100
AcDbLine
 10
-167.142856418
 20
99.7466290483
 30
0.0
 11
-6.4235658646
 21
28.2804630049
 31
0.0
  0
ARC
  5
C1
330
1F
100
AcDbEntity
  8
0
  6
Continuous
 62
     7
370
    25
100
AcDbCircle
 10
-345.6316759437
 20
165.6460391373
 30
0.0
 40
1.950512206419833
100
AcDbArc
 50
329.4160868091
 51
70.7902084031
  0
ARC
  5
C2
330
1F
100
AcDbEntity
  8
0
  6
Continuous
 62
     7
370
    25
100
AcDbCircle
 10
-316.9982625909
 20
152.0404807694
 30
0.0
 40
2.742253905765931
100
AcDbArc
 50
64.9156378469
 51
143.9573210929
  0
ARC
  5
C3
330
1F
100
AcDbEntity
  8
0
  6
Continuous
 62
     7
370
    25
100
AcDbCircle
 10
-345.7350240748
 20
166.6403174479
 30
0.0
 40
2.075445626029093
100
AcDbArc
 50
2.3558878225
 51
68.9651529988
  0
ARC
  5
C4
330
1F
100
AcDbEntity
  8
0
  6
Continuous
 62
     7
370
    25
100
AcDbCircle
 10
-316.9984324227
 20
153.129993787
 30
0.0
 40
2.742253905765806
100
AcDbArc
 50
64.9156378469
 51
143.9573210929
  0
ARC
  5
C5
330
1F
100
AcDbEntity
  8
0
  6
Continuous
 62
     7
370
    25
100
AcDbCircle
 10
-127.3677258484
 20
74.5612729183
 30
0.0
 40
1.866156293689583
100
AcDbArc
 50
243.8336429049
 51
330.3616608365
  0
ARC
  5
C6
330
1F
100
AcDbEntity
  8
0
  6
Continuous
 62
     7
370
    25
100
AcDbCircle
 10
-21.3523626865
 20
27.4200024411
 30
0.0
 40
1.866156293599011
100
AcDbArc
 50
243.8336429036
 51
330.3616608566
  0
CIRCLE
  5
CF
330
1B
100
AcDbEntity
 67
     1
  8
0
  6
Continuous
 62
     7
370
    25
100
AcDbCircle
 10
28.9
 20
-159.5
 30
0.0
 40
1.750000000000028
  0
CIRCLE
  5
D0
330
1B
100
AcDbEntity
 67
     1
  8
0
  6
Continuous
 62
     7
370
    25
100
AcDbCircle
 10
28.9
 20
-39.5
 30
0.0
 40
1.749999999999989
  0
LINE
  5
D9
330
1B
100
AcDbEntity
 67
     1
  8
0
  6
Continuous
 62
     7
370
    25
100
AcDbLine
 10
37.2
 20
-410.0
 30
0.0
 11
20.4
 21
-410.0
 31
0.0
  0
LINE
  5
DA
330
1B
100
AcDbEntity
 67
     1
  8
0
  6
Continuous
 62
     7
370
    25
100
AcDbLine
 10
20.4
 20
-27.0
 30
0.0
 11
37.2
 21
-27.0
 31
0.0
  0
LINE
  5
DB
330
1B
100
AcDbEntity
 67
     1
  8
0
  6
Continuous
 62
     7
370
    25
100
AcDbLine
 10
22.4
 20
-27.0
 30
0.0
 11
22.4
 21
-410.0
 31
0.0
  0
LINE
  5
DC
330
1B
100
AcDbEntity
 67
     1
  8
0
  6
Continuous
 62
     7
370
    25
100
AcDbLine
 10
20.4
 20
-27.0
 30
0.0
 11
20.4
 21
-410.0
 31
0.0
  0
LINE
  5
DD
330
1B
100
AcDbEntity
 67
     1
  8
0
  6
Continuous
 62
     7
370
    25
100
AcDbLine
 10
37.2
 20
-208.92
 30
0.0
 11
26.4
 21
-208.92
 31
0.0
  0
LINE
  5
DE
330
1B
100
AcDbEntity
 67
     1
  8
0
  6
Continuous
 62
     7
370
    25
100
AcDbLine
 10
26.4
 20
-371.5
 30
0.0
 11
26.4
 21
-208.92
 31
0.0
  0
LINE
  5
DF
330
1B
100
AcDbEntity
 67
     1
  8
0
  6
Continuous
 62
     7
370
    25
100
AcDbLine
 10
22.4
 20
-374.0
 30
0.0
 11
23.9
 21
-374.0
 31
0.0
  0
LINE
  5
E0
330
1B
100
AcDbEntity
 67
     1
  8
0
  6
Continuous
 62
     7
370
    25
100
AcDbLine
 10
37.2
 20
-208.92
 30
0.0
 11
37.2
 21
-27.0
 31
0.0
  0
LINE
  5
E1
330
1B
100
AcDbEntity
 67
     1
  8
0
  6
Continuous
 62
     7
370
    25
100
AcDbLine
 10
37.2
 20
-405.5
 30
0.0
 11
37.2
 21
-410.0
 31
0.0
  0
LINE
  5
E2
330
1B
100
AcDbEntity
 67
     1
  8
0
  6
Continuous
 62
     7
370
    25
100
AcDbLine
 10
23.9
 20
-402.0
 30
0.0
 11
22.4
 21
-402.0
 31
0.0
  0
LINE
  5
E3
330
1B
100
AcDbEntity
 67
     1
  8
0
  6
Continuous
 62
     7
370
    25
100
AcDbLine
 10
26.4
 20
-405.5
 30
0.0
 11
26.4
 21
-404.5
 31
0.0
  0
LINE
  5
E4
330
1B
100
AcDbEntity
 67
     1
  8
0
  6
Continuous
 62
     7
370
    25
100
AcDbLine
 10
37.2
 20
-405.5
 30
0.0
 11
26.4
 21
-405.5
 31
0.0
  0
ARC
  5
E5
330
1B
100
AcDbEntity
 67
     1
  8
0
  6
Continuous
 62
     7
370
    25
100
AcDbCircle
 10
23.9
 20
-371.5
 30
0.0
 40
2.499999999999961
100
AcDbArc
 50
270.0
 51
0.0
  0
ARC
  5
E6
330
1B
100
AcDbEntity
 67
     1
  8
0
  6
Continuous
 62
     7
370
    25
100
AcDbCircle
 10
23.9
 20
-404.5
 30
0.0
 40
2.5
100
AcDbArc
 50
0.0
 51
90.0
  0
VIEWPORT
  5
26C
330
1B
100
AcDbEntity
 67
     1
  8
0
100
AcDbViewport
 10
0.0
 20
0.0
 30
0.0
 40
205.6
 41
156.0
 68
     1
 69
     1
 12
-179.5433742704
 22
101.5824337065
 13
0.0
 23
0.0
 14
10.0
 24
10.0
 15
10.0
 25
10.0
 16
0.0
 26
0.0
 36
1.0
 17
0.0
 27
0.0
 37
0.0
 42
50.0
 43
0.0
 44
0.0
 45
267.9654760427
 50
0.0
 51
0.0
 72
   100
 90
   557152
  1

281
     0
 71
     1
 74
     0
110
0.0
120
0.0
130
0.0
111
1.0
121
0.0
131
0.0
112
0.0
122
1.0
132
0.0
 79
     0
146
0.0
  0
ENDSEC
  0
SECTION
  2
OBJECTS
  0
DICTIONARY
  5
C
330
0
100
AcDbDictionary
281
     1
  3
ACAD_GROUP
350
D
  3
ACAD_LAYOUT
350
1A
  3
ACAD_MLINESTYLE
350
17
  3
ACAD_PLOTSETTINGS
350
19
  3
ACAD_PLOTSTYLENAME
350
E
  3
ACAD_SCALELIST
350
47
  0
DICTIONARY
  5
D
102
{ACAD_REACTORS
330
C
102
}
330
C
100
AcDbDictionary
281
     1
  0
DICTIONARY
  5
1A
102
{ACAD_REACTORS
330
C
102
}
330
C
100
AcDbDictionary
281
     1
  3
_Arrière
350
104
  3
_Dessous
350
148
  3
_Dessus
350
1E
  3
_Dimétrique
350
21A
  3
_Droite
350
120
  3
_Face
350
26
  3
_Gauche
350
114
  3
_Isométrique
350
16A
  3
_Normal à
350
F4
  3
_Trimétrique
350
1C3
  3
Model
350
22
  0
DICTIONARY
  5
17
102
{ACAD_REACTORS
330
C
102
}
330
C
100
AcDbDictionary
281
     1
  3
Standard
350
18
  0
DICTIONARY
  5
19
102
{ACAD_REACTORS
330
C
102
}
330
C
100
AcDbDictionary
281
     1
  0
ACDBDICTIONARYWDFLT
  5
E
102
{ACAD_REACTORS
330
C
102
}
330
C
100
AcDbDictionary
281
     1
  3
Normal
350
F
100
AcDbDictionaryWithDefault
340
F
  0
DICTIONARY
  5
47
102
{ACAD_REACTORS
330
C
102
}
330
C
100
AcDbDictionary
281
     1
  3
A0
350
48
  3
A1
350
49
  3
A2
350
4A
  3
A3
350
4B
  3
A4
350
4C
  3
A5
350
4D
  3
A6
350
4E
  3
A7
350
4F
  3
A8
350
50
  3
A9
350
51
  3
B0
350
52
  3
B1
350
53
  3
B2
350
54
  3
B3
350
55
  3
B4
350
56
  3
B5
350
57
  3
B6
350
58
  3
B7
350
59
  3
B8
350
5A
  3
B9
350
5B
  3
C0
350
5C
  3
C1
350
5D
  3
C2
350
5E
  3
C3
350
5F
  3
C4
350
60
  3
C5
350
61
  3
C6
350
62
  3
C7
350
63
  3
C8
350
64
  3
C9
350
65
  3
D0
350
66
  3
D1
350
67
  3
D2
350
68
  0
LAYOUT
  5
104
102
{ACAD_REACTORS
330
1A
102
}
330
1A
100
AcDbPlotSettings
  1

  2
none_device
  4
ISO_A4_(210.00_x_297.00_MM)
  6

 40
7.5
 41
20.0
 42
7.5
 43
20.0
 44
210.0
 45
297.0
 46
0.0
 47
0.0
 48
0.0
 49
0.0
140
0.0
141
0.0
142
1.0
143
1.9641025641
 70
   688
 72
     1
 73
     1
 74
     1
  7

 75
     0
147
0.5091383812
148
-20.4
149
410.0
100
AcDbLayout
  1
_Arrière
 70
     1
 71
     4
 10
0.0
 20
0.0
 11
0.0
 21
0.0
 12
0.0
 22
0.0
 32
0.0
 14
0.0
 24
0.0
 34
0.0
 15
0.0
 25
0.0
 35
0.0
146
0.0
 13
0.0
 23
0.0
 33
0.0
 16
1.0
 26
0.0
 36
0.0
 17
0.0
 27
1.0
 37
0.0
 76
     0
330
103
331
272
  0
LAYOUT
  5
148
102
{ACAD_REACTORS
330
1A
102
}
330
1A
100
AcDbPlotSettings
  1

  2
none_device
  4
ISO_A4_(210.00_x_297.00_MM)
  6

 40
7.5
 41
20.0
 42
7.5
 43
20.0
 44
210.0
 45
297.0
 46
0.0
 47
0.0
 48
0.0
 49
0.0
140
0.0
141
0.0
142
1.0
143
1.9641025641
 70
   688
 72
     1
 73
     1
 74
     1
  7

 75
     0
147
0.5091383812
148
-20.4
149
410.0
100
AcDbLayout
  1
_Dessous
 70
     1
 71
     7
 10
0.0
 20
0.0
 11
0.0
 21
0.0
 12
0.0
 22
0.0
 32
0.0
 14
0.0
 24
0.0
 34
0.0
 15
0.0
 25
0.0
 35
0.0
146
0.0
 13
0.0
 23
0.0
 33
0.0
 16
1.0
 26
0.0
 36
0.0
 17
0.0
 27
1.0
 37
0.0
 76
     0
330
147
331
278
  0
LAYOUT
  5
1E
102
{ACAD_REACTORS
330
1A
102
}
330
1A
100
AcDbPlotSettings
  1

  2
none_device
  4
ISO_A4_(210.00_x_297.00_MM)
  6

 40
7.5
 41
20.0
 42
7.5
 43
20.0
 44
210.0
 45
297.0
 46
0.0
 47
0.0
 48
0.0
 49
0.0
140
0.0
141
0.0
142
1.0
143
1.9641025641
 70
   688
 72
     1
 73
     1
 74
     1
  7

 75
     0
147
0.5091383812
148
-20.4
149
410.0
100
AcDbLayout
  1
_Dessus
 70
     1
 71
     1
 10
-18.8820512821
 20
-424.7307692308
 11
564.4564102564
 21
-12.2692307692
 12
0.0
 22
0.0
 32
0.0
 14
20.4
 24
-410.0
 34
0.0
 15
37.2
 25
-27.0
 35
0.0
146
0.0
 13
0.0
 23
0.0
 33
0.0
 16
1.0
 26
0.0
 36
0.0
 17
0.0
 27
1.0
 37
0.0
 76
     0
330
1B
331
26C
  0
LAYOUT
  5
21A
102
{ACAD_REACTORS
330
1A
102
}
330
1A
100
AcDbPlotSettings
  1

  2
none_device
  4
ISO_A4_(210.00_x_297.00_MM)
  6

 40
7.5
 41
20.0
 42
7.5
 43
20.0
 44
210.0
 45
297.0
 46
0.0
 47
0.0
 48
0.0
 49
0.0
140
0.0
141
0.0
142
1.0
143
1.9641025641
 70
   688
 72
     1
 73
     1
 74
     1
  7

 75
     0
147
0.5091383812
148
-20.4
149
410.0
100
AcDbLayout
  1
_Dimétrique
 70
     1
 71
    10
 10
0.0
 20
0.0
 11
0.0
 21
0.0
 12
0.0
 22
0.0
 32
0.0
 14
0.0
 24
0.0
 34
0.0
 15
0.0
 25
0.0
 35
0.0
146
0.0
 13
0.0
 23
0.0
 33
0.0
 16
1.0
 26
0.0
 36
0.0
 17
0.0
 27
1.0
 37
0.0
 76
     0
330
219
331
27E
  0
LAYOUT
  5
120
102
{ACAD_REACTORS
330
1A
102
}
330
1A
100
AcDbPlotSettings
  1

  2
none_device
  4
ISO_A4_(210.00_x_297.00_MM)
  6

 40
7.5
 41
20.0
 42
7.5
 43
20.0
 44
210.0
 45
297.0
 46
0.0
 47
0.0
 48
0.0
 49
0.0
140
0.0
141
0.0
142
1.0
143
1.9641025641
 70
   688
 72
     1
 73
     1
 74
     1
  7

 75
     0
147
0.5091383812
148
-20.4
149
410.0
100
AcDbLayout
  1
_Droite
 70
     1
 71
     6
 10
0.0
 20
0.0
 11
0.0
 21
0.0
 12
0.0
 22
0.0
 32
0.0
 14
0.0
 24
0.0
 34
0.0
 15
0.0
 25
0.0
 35
0.0
146
0.0
 13
0.0
 23
0.0
 33
0.0
 16
1.0
 26
0.0
 36
0.0
 17
0.0
 27
1.0
 37
0.0
 76
     0
330
11F
331
276
  0
LAYOUT
  5
26
102
{ACAD_REACTORS
330
1A
102
}
330
1A
100
AcDbPlotSettings
  1

  2
none_device
  4
ISO_A4_(210.00_x_297.00_MM)
  6

 40
7.5
 41
20.0
 42
7.5
 43
20.0
 44
210.0
 45
297.0
 46
0.0
 47
0.0
 48
0.0
 49
0.0
140
0.0
141
0.0
142
1.0
143
1.9641025641
 70
   688
 72
     1
 73
     1
 74
     1
  7

 75
     0
147
0.5091383812
148
-20.4
149
410.0
100
AcDbLayout
  1
_Face
 70
     1
 71
     2
 10
0.0
 20
0.0
 11
0.0
 21
0.0
 12
0.0
 22
0.0
 32
0.0
 14
0.0
 24
0.0
 34
0.0
 15
0.0
 25
0.0
 35
0.0
146
0.0
 13
0.0
 23
0.0
 33
0.0
 16
1.0
 26
0.0
 36
0.0
 17
0.0
 27
1.0
 37
0.0
 76
     0
330
23
331
26E
  0
LAYOUT
  5
114
102
{ACAD_REACTORS
330
1A
102
}
330
1A
100
AcDbPlotSettings
  1

  2
none_device
  4
ISO_A4_(210.00_x_297.00_MM)
  6

 40
7.5
 41
20.0
 42
7.5
 43
20.0
 44
210.0
 45
297.0
 46
0.0
 47
0.0
 48
0.0
 49
0.0
140
0.0
141
0.0
142
1.0
143
1.9641025641
 70
   688
 72
     1
 73
     1
 74
     1
  7

 75
     0
147
0.5091383812
148
-20.4
149
410.0
100
AcDbLayout
  1
_Gauche
 70
     1
 71
     5
 10
0.0
 20
0.0
 11
0.0
 21
0.0
 12
0.0
 22
0.0
 32
0.0
 14
0.0
 24
0.0
 34
0.0
 15
0.0
 25
0.0
 35
0.0
146
0.0
 13
0.0
 23
0.0
 33
0.0
 16
1.0
 26
0.0
 36
0.0
 17
0.0
 27
1.0
 37
0.0
 76
     0
330
113
331
274
  0
LAYOUT
  5
16A
102
{ACAD_REACTORS
330
1A
102
}
330
1A
100
AcDbPlotSettings
  1

  2
none_device
  4
ISO_A4_(210.00_x_297.00_MM)
  6

 40
7.5
 41
20.0
 42
7.5
 43
20.0
 44
210.0
 45
297.0
 46
0.0
 47
0.0
 48
0.0
 49
0.0
140
0.0
141
0.0
142
1.0
143
1.9641025641
 70
   688
 72
     1
 73
     1
 74
     1
  7

 75
     0
147
0.5091383812
148
-20.4
149
410.0
100
AcDbLayout
  1
_Isométrique
 70
     1
 71
     8
 10
0.0
 20
0.0
 11
0.0
 21
0.0
 12
0.0
 22
0.0
 32
0.0
 14
0.0
 24
0.0
 34
0.0
 15
0.0
 25
0.0
 35
0.0
146
0.0
 13
0.0
 23
0.0
 33
0.0
 16
1.0
 26
0.0
 36
0.0
 17
0.0
 27
1.0
 37
0.0
 76
     0
330
169
331
27A
  0
LAYOUT
  5
F4
102
{ACAD_REACTORS
330
1A
102
}
330
1A
100
AcDbPlotSettings
  1

  2
none_device
  4
ISO_A4_(210.00_x_297.00_MM)
  6

 40
7.5
 41
20.0
 42
7.5
 43
20.0
 44
210.0
 45
297.0
 46
0.0
 47
0.0
 48
0.0
 49
0.0
140
0.0
141
0.0
142
1.0
143
1.9641025641
 70
   688
 72
     1
 73
     1
 74
     1
  7

 75
     0
147
0.5091383812
148
-20.4
149
410.0
100
AcDbLayout
  1
_Normal à
 70
     1
 71
     3
 10
0.0
 20
0.0
 11
0.0
 21
0.0
 12
0.0
 22
0.0
 32
0.0
 14
0.0
 24
0.0
 34
0.0
 15
0.0
 25
0.0
 35
0.0
146
0.0
 13
0.0
 23
0.0
 33
0.0
 16
1.0
 26
0.0
 36
0.0
 17
0.0
 27
1.0
 37
0.0
 76
     0
330
F3
331
270
  0
LAYOUT
  5
1C3
102
{ACAD_REACTORS
330
1A
102
}
330
1A
100
AcDbPlotSettings
  1

  2
none_device
  4
ISO_A4_(210.00_x_297.00_MM)
  6

 40
7.5
 41
20.0
 42
7.5
 43
20.0
 44
210.0
 45
297.0
 46
0.0
 47
0.0
 48
0.0
 49
0.0
140
0.0
141
0.0
142
1.0
143
1.9641025641
 70
   688
 72
     1
 73
     1
 74
     1
  7

 75
     0
147
0.5091383812
148
-20.4
149
410.0
100
AcDbLayout
  1
_Trimétrique
 70
     1
 71
     9
 10
0.0
 20
0.0
 11
0.0
 21
0.0
 12
0.0
 22
0.0
 32
0.0
 14
0.0
 24
0.0
 34
0.0
 15
0.0
 25
0.0
 35
0.0
146
0.0
 13
0.0
 23
0.0
 33
0.0
 16
1.0
 26
0.0
 36
0.0
 17
0.0
 27
1.0
 37
0.0
 76
     0
330
1C2
331
27C
  0
LAYOUT
  5
22
102
{ACAD_REACTORS
330
1A
102
}
330
1A
100
AcDbPlotSettings
  1

  2
none_device
  4
ANSI_A_(11.00_x_8.50_Inches)
  6

 40
6.35
 41
19.05
 42
6.35000508
 43
19.05000254
 44
279.4
 45
215.9
 46
276.7845539133
 47
7.7472890779
 48
0.0
 49
0.0
140
0.0
141
0.0
142
0.0314521759
143
1.0
 70
  1696
 72
     0
 73
     0
 74
     0
  7

 75
     0
147
0.0179189148
148
-1300.4909072572
149
0.0
100
AcDbLayout
  1
Model
 70
     1
 71
     0
 10
0.0
 20
0.0
 11
420.0
 21
297.0
 12
0.0
 22
0.0
 32
0.0
 14
-352.6633525082
 24
14.744043247
 34
0.0
 15
-6.4233960327
 25
188.4208241659
 35
0.0
146
0.0
 13
0.0
 23
0.0
 33
0.0
 16
1.0
 26
0.0
 36
0.0
 17
0.0
 27
1.0
 37
0.0
 76
     0
330
1F
331
29
  0
MLINESTYLE
  5
18
102
{ACAD_REACTORS
330
17
102
}
330
17
100
AcDbMlineStyle
  2
Standard
 70
     0
  3

 62
   256
 51
90.0
 52
90.0
 71
     2
 49
0.5
 62
   256
  6
BYLAYER
 49
-0.5
 62
   256
  6
BYLAYER
  0
ACDBPLACEHOLDER
  5
F
102
{ACAD_REACTORS
330
E
102
}
330
E
  0
SCALE
  5
48
102
{ACAD_REACTORS
330
47
102
}
330
47
100
AcDbScale
 70
     0
300
1:1
140
1.0
141
1.0
290
     1
  0
SCALE
  5
49
102
{ACAD_REACTORS
330
47
102
}
330
47
100
AcDbScale
 70
     0
300
1:2
140
1.0
141
2.0
290
     0
  0
SCALE
  5
4A
102
{ACAD_REACTORS
330
47
102
}
330
47
100
AcDbScale
 70
     0
300
1:4
140
1.0
141
4.0
290
     0
  0
SCALE
  5
4B
102
{ACAD_REACTORS
330
47
102
}
330
47
100
AcDbScale
 70
     0
300
1:5
140
1.0
141
5.0
290
     0
  0
SCALE
  5
4C
102
{ACAD_REACTORS
330
47
102
}
330
47
100
AcDbScale
 70
     0
300
1:8
140
1.0
141
8.0
290
     0
  0
SCALE
  5
4D
102
{ACAD_REACTORS
330
47
102
}
330
47
100
AcDbScale
 70
     0
300
1:10
140
1.0
141
10.0
290
     0
  0
SCALE
  5
4E
102
{ACAD_REACTORS
330
47
102
}
330
47
100
AcDbScale
 70
     0
300
1:16
140
1.0
141
16.0
290
     0
  0
SCALE
  5
4F
102
{ACAD_REACTORS
330
47
102
}
330
47
100
AcDbScale
 70
     0
300
1:20
140
1.0
141
20.0
290
     0
  0
SCALE
  5
50
102
{ACAD_REACTORS
330
47
102
}
330
47
100
AcDbScale
 70
     0
300
1:30
140
1.0
141
30.0
290
     0
  0
SCALE
  5
51
102
{ACAD_REACTORS
330
47
102
}
330
47
100
AcDbScale
 70
     0
300
1:40
140
1.0
141
40.0
290
     0
  0
SCALE
  5
52
102
{ACAD_REACTORS
330
47
102
}
330
47
100
AcDbScale
 70
     0
300
1:50
140
1.0
141
50.0
290
     0
  0
SCALE
  5
53
102
{ACAD_REACTORS
330
47
102
}
330
47
100
AcDbScale
 70
     0
300
1:100
140
1.0
141
100.0
290
     0
  0
SCALE
  5
54
102
{ACAD_REACTORS
330
47
102
}
330
47
100
AcDbScale
 70
     0
300
2:1
140
2.0
141
1.0
290
     0
  0
SCALE
  5
55
102
{ACAD_REACTORS
330
47
102
}
330
47
100
AcDbScale
 70
     0
300
4:1
140
4.0
141
1.0
290
     0
  0
SCALE
  5
56
102
{ACAD_REACTORS
330
47
102
}
330
47
100
AcDbScale
 70
     0
300
8:1
140
8.0
141
1.0
290
     0
  0
SCALE
  5
57
102
{ACAD_REACTORS
330
47
102
}
330
47
100
AcDbScale
 70
     0
300
10:1
140
10.0
141
1.0
290
     0
  0
SCALE
  5
58
102
{ACAD_REACTORS
330
47
102
}
330
47
100
AcDbScale
 70
     0
300
100:1
140
100.0
141
1.0
290
     0
  0
SCALE
  5
59
102
{ACAD_REACTORS
330
47
102
}
330
47
100
AcDbScale
 70
     0
300
1/128" = 1'-0"
140
0.0078125
141
12.0
290
     0
  0
SCALE
  5
5A
102
{ACAD_REACTORS
330
47
102
}
330
47
100
AcDbScale
 70
     0
300
1/64" = 1'-0"
140
0.015625
141
12.0
290
     0
  0
SCALE
  5
5B
102
{ACAD_REACTORS
330
47
102
}
330
47
100
AcDbScale
 70
     0
300
1/32" = 1'-0"
140
0.03125
141
12.0
290
     0
  0
SCALE
  5
5C
102
{ACAD_REACTORS
330
47
102
}
330
47
100
AcDbScale
 70
     0
300
1/16" = 1'-0"
140
0.0625
141
12.0
290
     0
  0
SCALE
  5
5D
102
{ACAD_REACTORS
330
47
102
}
330
47
100
AcDbScale
 70
     0
300
3/32" = 1'-0"
140
0.09375
141
12.0
290
     0
  0
SCALE
  5
5E
102
{ACAD_REACTORS
330
47
102
}
330
47
100
AcDbScale
 70
     0
300
1/8" = 1'-0"
140
0.125
141
12.0
290
     0
  0
SCALE
  5
5F
102
{ACAD_REACTORS
330
47
102
}
330
47
100
AcDbScale
 70
     0
300
3/16" = 1'-0"
140
0.1875
141
12.0
290
     0
  0
SCALE
  5
60
102
{ACAD_REACTORS
330
47
102
}
330
47
100
AcDbScale
 70
     0
300
1/4" = 1'-0"
140
0.25
141
12.0
290
     0
  0
SCALE
  5
61
102
{ACAD_REACTORS
330
47
102
}
330
47
100
AcDbScale
 70
     0
300
3/8" = 1'-0"
140
0.375
141
12.0
290
     0
  0
SCALE
  5
62
102
{ACAD_REACTORS
330
47
102
}
330
47
100
AcDbScale
 70
     0
300
1/2" = 1'-0"
140
0.5
141
12.0
290
     0
  0
SCALE
  5
63
102
{ACAD_REACTORS
330
47
102
}
330
47
100
AcDbScale
 70
     0
300
3/4" = 1'-0"
140
0.75
141
12.0
290
     0
  0
SCALE
  5
64
102
{ACAD_REACTORS
330
47
102
}
330
47
100
AcDbScale
 70
     0
300
1" = 1'-0"
140
1.0
141
12.0
290
     0
  0
SCALE
  5
65
102
{ACAD_REACTORS
330
47
102
}
330
47
100
AcDbScale
 70
     0
300
1-1/2" = 1'-0"
140
1.5
141
12.0
290
     0
  0
SCALE
  5
66
102
{ACAD_REACTORS
330
47
102
}
330
47
100
AcDbScale
 70
     0
300
3" = 1'-0"
140
3.0
141
12.0
290
     0
  0
SCALE
  5
67
102
{ACAD_REACTORS
330
47
102
}
330
47
100
AcDbScale
 70
     0
300
6" = 1'-0"
140
6.0
141
12.0
290
     0
  0
SCALE
  5
68
102
{ACAD_REACTORS
330
47
102
}
330
47
100
AcDbScale
 70
     0
300
1'-0" = 1'-0"
140
12.0
141
12.0
290
     0
  0
ENDSEC
  0
EOF
