ISO-10303-21;
HEADER;
/* Generated by software containing ST-Developer
 * from STEP Tools, Inc. (www.steptools.com) 
 */
/* OPTION: using custom renumber hook */

FILE_DESCRIPTION(
/* description */ ('STEP AP242',
'CAx-IF Rec.Pracs.---Representation and Presentation of Product Manufa
cturing Information (PMI)---4.0---2014-10-13',
'CAx-IF Rec.Pracs.---3D Tessellated Geometry---0.4---2014-09-14','2;1'),

/* implementation_level */ '2;1');

FILE_NAME(
/* name */ '65db58269547f820695d01e5',
/* time_stamp */ '2024-02-25T15:09:26Z',
/* author */ (''),
/* organization */ (''),
/* preprocessor_version */ 'ST-DEVELOPER v19.4',
/* originating_system */ '  ',
/* authorisation */ '  ');

FILE_SCHEMA (('AP242_MANAGED_MODEL_BASED_3D_ENGINEERING_MIM_LF { 1 0 10303 442 1 1 4 }'));
ENDSEC;

DATA;
#10=SHAPE_REPRESENTATION_RELATIONSHIP('','',#330,#11);
#11=ADVANCED_BREP_SHAPE_REPRESENTATION('',(#328),#586);
#12=VERTEX_LOOP('',#180);
#13=CONICAL_SURFACE('',#355,0.00475,1.02974425867665);
#14=B_SPLINE_CURVE_WITH_KNOTS('',3,(#465,#466,#467,#468,#469,#470,#471,
#472,#473,#474,#475),.UNSPECIFIED.,.T.,.F.,(1,1,1,1,1,1,1,1,1,1,1,1,1,1,
1),(-0.0038990222941549,-0.00259934819610327,-0.00129967409805164,0.,0.00129967409805163,
0.00259934819610327,0.0038990222941549,0.00519869639220654,0.00649837049025817,
0.00779804458830981,0.00909771868636144,0.0103973927844131,0.0116970668824647,
0.0129967409805163,0.014296415078568),.UNSPECIFIED.);
#15=B_SPLINE_CURVE_WITH_KNOTS('',3,(#477,#478,#479,#480,#481,#482,#483,
#484,#485,#486,#487),.UNSPECIFIED.,.T.,.F.,(1,1,1,1,1,1,1,1,1,1,1,1,1,1,
1),(-0.0038990222941549,-0.00259934819610327,-0.00129967409805163,0.,0.00129967409805163,
0.00259934819610327,0.0038990222941549,0.00519869639220654,0.00649837049025817,
0.00779804458830981,0.00909771868636144,0.0103973927844131,0.0116970668824647,
0.0129967409805163,0.014296415078568),.UNSPECIFIED.);
#16=B_SPLINE_CURVE_WITH_KNOTS('',3,(#489,#490,#491,#492,#493,#494,#495,
#496,#497,#498,#499),.UNSPECIFIED.,.T.,.F.,(1,1,1,1,1,1,1,1,1,1,1,1,1,1,
1),(-0.0038990222941549,-0.00259934819610327,-0.00129967409805163,0.,0.00129967409805163,
0.00259934819610327,0.0038990222941549,0.00519869639220654,0.00649837049025817,
0.00779804458830981,0.00909771868636144,0.0103973927844131,0.0116970668824647,
0.0129967409805163,0.014296415078568),.UNSPECIFIED.);
#17=B_SPLINE_CURVE_WITH_KNOTS('',3,(#501,#502,#503,#504,#505,#506,#507,
#508,#509,#510,#511),.UNSPECIFIED.,.T.,.F.,(1,1,1,1,1,1,1,1,1,1,1,1,1,1,
1),(-0.0038990222941549,-0.00259934819610327,-0.00129967409805164,0.,0.00129967409805163,
0.00259934819610327,0.0038990222941549,0.00519869639220654,0.00649837049025817,
0.00779804458830981,0.00909771868636144,0.0103973927844131,0.0116970668824647,
0.0129967409805163,0.014296415078568),.UNSPECIFIED.);
#18=B_SPLINE_CURVE_WITH_KNOTS('',3,(#541,#542,#543,#544,#545),
 .UNSPECIFIED.,.F.,.F.,(4,1,4),(0.,0.00314515522841604,0.00629031045683208),
 .UNSPECIFIED.);
#19=B_SPLINE_CURVE_WITH_KNOTS('',3,(#547,#548,#549,#550,#551),
 .UNSPECIFIED.,.F.,.F.,(4,1,4),(0.,0.00314524365635968,0.00629048731271936),
 .UNSPECIFIED.);
#20=CYLINDRICAL_SURFACE('',#334,0.00475);
#21=CYLINDRICAL_SURFACE('',#340,0.01);
#22=CYLINDRICAL_SURFACE('',#346,0.0125);
#23=CYLINDRICAL_SURFACE('',#356,0.00165);
#24=CYLINDRICAL_SURFACE('',#357,0.00165);
#25=CYLINDRICAL_SURFACE('',#358,0.00165);
#26=CYLINDRICAL_SURFACE('',#359,0.00165);
#27=CYLINDRICAL_SURFACE('',#364,0.004);
#28=CIRCLE('',#333,0.0125);
#29=CIRCLE('',#335,0.00475);
#30=CIRCLE('',#336,0.00475);
#31=CIRCLE('',#338,0.01);
#32=CIRCLE('',#339,0.01);
#33=CIRCLE('',#341,0.01);
#34=CIRCLE('',#342,0.01);
#35=CIRCLE('',#343,0.01);
#36=CIRCLE('',#345,0.0125);
#37=CIRCLE('',#349,0.00165);
#38=CIRCLE('',#350,0.00165);
#39=CIRCLE('',#353,0.00165);
#40=CIRCLE('',#354,0.00165);
#41=CIRCLE('',#363,0.004);
#42=ORIENTED_EDGE('',*,*,#116,.F.);
#43=ORIENTED_EDGE('',*,*,#117,.F.);
#44=ORIENTED_EDGE('',*,*,#118,.T.);
#45=ORIENTED_EDGE('',*,*,#119,.F.);
#46=ORIENTED_EDGE('',*,*,#120,.T.);
#47=ORIENTED_EDGE('',*,*,#121,.F.);
#48=ORIENTED_EDGE('',*,*,#122,.T.);
#49=ORIENTED_EDGE('',*,*,#123,.T.);
#50=ORIENTED_EDGE('',*,*,#124,.T.);
#51=ORIENTED_EDGE('',*,*,#125,.T.);
#52=ORIENTED_EDGE('',*,*,#121,.T.);
#53=ORIENTED_EDGE('',*,*,#126,.F.);
#54=ORIENTED_EDGE('',*,*,#127,.T.);
#55=ORIENTED_EDGE('',*,*,#128,.T.);
#56=ORIENTED_EDGE('',*,*,#129,.T.);
#57=ORIENTED_EDGE('',*,*,#130,.T.);
#58=ORIENTED_EDGE('',*,*,#127,.F.);
#59=ORIENTED_EDGE('',*,*,#131,.F.);
#60=ORIENTED_EDGE('',*,*,#132,.F.);
#61=ORIENTED_EDGE('',*,*,#133,.T.);
#62=ORIENTED_EDGE('',*,*,#129,.F.);
#63=ORIENTED_EDGE('',*,*,#134,.F.);
#64=ORIENTED_EDGE('',*,*,#135,.F.);
#65=ORIENTED_EDGE('',*,*,#136,.T.);
#66=ORIENTED_EDGE('',*,*,#130,.F.);
#67=ORIENTED_EDGE('',*,*,#137,.T.);
#68=ORIENTED_EDGE('',*,*,#137,.F.);
#69=ORIENTED_EDGE('',*,*,#117,.T.);
#70=ORIENTED_EDGE('',*,*,#138,.T.);
#71=ORIENTED_EDGE('',*,*,#139,.T.);
#72=ORIENTED_EDGE('',*,*,#140,.T.);
#73=ORIENTED_EDGE('',*,*,#141,.F.);
#74=ORIENTED_EDGE('',*,*,#135,.T.);
#75=ORIENTED_EDGE('',*,*,#142,.F.);
#76=ORIENTED_EDGE('',*,*,#143,.T.);
#77=ORIENTED_EDGE('',*,*,#144,.T.);
#78=ORIENTED_EDGE('',*,*,#128,.F.);
#79=ORIENTED_EDGE('',*,*,#136,.F.);
#80=ORIENTED_EDGE('',*,*,#142,.T.);
#81=ORIENTED_EDGE('',*,*,#134,.T.);
#82=ORIENTED_EDGE('',*,*,#132,.T.);
#83=ORIENTED_EDGE('',*,*,#145,.T.);
#84=ORIENTED_EDGE('',*,*,#146,.T.);
#85=ORIENTED_EDGE('',*,*,#147,.T.);
#86=ORIENTED_EDGE('',*,*,#126,.T.);
#87=ORIENTED_EDGE('',*,*,#133,.F.);
#88=ORIENTED_EDGE('',*,*,#145,.F.);
#89=ORIENTED_EDGE('',*,*,#131,.T.);
#90=ORIENTED_EDGE('',*,*,#120,.F.);
#91=ORIENTED_EDGE('',*,*,#122,.F.);
#92=ORIENTED_EDGE('',*,*,#147,.F.);
#93=ORIENTED_EDGE('',*,*,#123,.F.);
#94=ORIENTED_EDGE('',*,*,#146,.F.);
#95=ORIENTED_EDGE('',*,*,#124,.F.);
#96=ORIENTED_EDGE('',*,*,#144,.F.);
#97=ORIENTED_EDGE('',*,*,#125,.F.);
#98=ORIENTED_EDGE('',*,*,#143,.F.);
#99=ORIENTED_EDGE('',*,*,#148,.F.);
#100=ORIENTED_EDGE('',*,*,#149,.T.);
#101=ORIENTED_EDGE('',*,*,#138,.F.);
#102=ORIENTED_EDGE('',*,*,#116,.T.);
#103=ORIENTED_EDGE('',*,*,#141,.T.);
#104=ORIENTED_EDGE('',*,*,#150,.T.);
#105=ORIENTED_EDGE('',*,*,#151,.T.);
#106=ORIENTED_EDGE('',*,*,#118,.F.);
#107=ORIENTED_EDGE('',*,*,#151,.F.);
#108=ORIENTED_EDGE('',*,*,#152,.T.);
#109=ORIENTED_EDGE('',*,*,#148,.T.);
#110=ORIENTED_EDGE('',*,*,#119,.T.);
#111=ORIENTED_EDGE('',*,*,#152,.F.);
#112=ORIENTED_EDGE('',*,*,#150,.F.);
#113=ORIENTED_EDGE('',*,*,#140,.F.);
#114=ORIENTED_EDGE('',*,*,#139,.F.);
#115=ORIENTED_EDGE('',*,*,#149,.F.);
#116=EDGE_CURVE('',#153,#154,#183,.T.);
#117=EDGE_CURVE('',#155,#153,#28,.T.);
#118=EDGE_CURVE('',#155,#156,#184,.T.);
#119=EDGE_CURVE('',#154,#156,#185,.T.);
#120=EDGE_CURVE('',#157,#157,#29,.T.);
#121=EDGE_CURVE('',#158,#158,#30,.T.);
#122=EDGE_CURVE('',#159,#159,#14,.T.);
#123=EDGE_CURVE('',#160,#160,#15,.T.);
#124=EDGE_CURVE('',#161,#161,#16,.T.);
#125=EDGE_CURVE('',#162,#162,#17,.T.);
#126=EDGE_CURVE('',#163,#164,#186,.T.);
#127=EDGE_CURVE('',#163,#165,#31,.T.);
#128=EDGE_CURVE('',#165,#166,#187,.T.);
#129=EDGE_CURVE('',#166,#164,#32,.T.);
#130=EDGE_CURVE('',#167,#167,#33,.T.);
#131=EDGE_CURVE('',#168,#163,#188,.T.);
#132=EDGE_CURVE('',#169,#168,#34,.T.);
#133=EDGE_CURVE('',#169,#164,#189,.T.);
#134=EDGE_CURVE('',#170,#166,#190,.T.);
#135=EDGE_CURVE('',#171,#170,#35,.T.);
#136=EDGE_CURVE('',#171,#165,#191,.T.);
#137=EDGE_CURVE('',#172,#172,#36,.T.);
#138=EDGE_CURVE('',#153,#173,#192,.T.);
#139=EDGE_CURVE('',#173,#174,#18,.T.);
#140=EDGE_CURVE('',#174,#175,#19,.T.);
#141=EDGE_CURVE('',#155,#175,#193,.T.);
#142=EDGE_CURVE('',#171,#170,#194,.T.);
#143=EDGE_CURVE('',#176,#176,#37,.T.);
#144=EDGE_CURVE('',#177,#177,#38,.T.);
#145=EDGE_CURVE('',#168,#169,#195,.T.);
#146=EDGE_CURVE('',#178,#178,#39,.T.);
#147=EDGE_CURVE('',#179,#179,#40,.T.);
#148=EDGE_CURVE('',#181,#154,#196,.T.);
#149=EDGE_CURVE('',#181,#173,#197,.F.);
#150=EDGE_CURVE('',#175,#182,#198,.T.);
#151=EDGE_CURVE('',#182,#156,#199,.T.);
#152=EDGE_CURVE('',#182,#181,#41,.F.);
#153=VERTEX_POINT('',#453);
#154=VERTEX_POINT('',#454);
#155=VERTEX_POINT('',#456);
#156=VERTEX_POINT('',#458);
#157=VERTEX_POINT('',#462);
#158=VERTEX_POINT('',#464);
#159=VERTEX_POINT('',#476);
#160=VERTEX_POINT('',#488);
#161=VERTEX_POINT('',#500);
#162=VERTEX_POINT('',#512);
#163=VERTEX_POINT('',#515);
#164=VERTEX_POINT('',#516);
#165=VERTEX_POINT('',#518);
#166=VERTEX_POINT('',#520);
#167=VERTEX_POINT('',#524);
#168=VERTEX_POINT('',#526);
#169=VERTEX_POINT('',#528);
#170=VERTEX_POINT('',#531);
#171=VERTEX_POINT('',#533);
#172=VERTEX_POINT('',#537);
#173=VERTEX_POINT('',#540);
#174=VERTEX_POINT('',#546);
#175=VERTEX_POINT('',#552);
#176=VERTEX_POINT('',#558);
#177=VERTEX_POINT('',#560);
#178=VERTEX_POINT('',#565);
#179=VERTEX_POINT('',#567);
#180=VERTEX_POINT('',#569);
#181=VERTEX_POINT('',#576);
#182=VERTEX_POINT('',#580);
#183=LINE('',#452,#200);
#184=LINE('',#457,#201);
#185=LINE('',#459,#202);
#186=LINE('',#514,#203);
#187=LINE('',#519,#204);
#188=LINE('',#525,#205);
#189=LINE('',#529,#206);
#190=LINE('',#530,#207);
#191=LINE('',#534,#208);
#192=LINE('',#539,#209);
#193=LINE('',#553,#210);
#194=LINE('',#555,#211);
#195=LINE('',#562,#212);
#196=LINE('',#575,#213);
#197=LINE('',#577,#214);
#198=LINE('',#579,#215);
#199=LINE('',#581,#216);
#200=VECTOR('',#369,1.);
#201=VECTOR('',#372,1.);
#202=VECTOR('',#373,1.);
#203=VECTOR('',#382,1.);
#204=VECTOR('',#385,1.);
#205=VECTOR('',#392,1.);
#206=VECTOR('',#395,1.);
#207=VECTOR('',#396,1.);
#208=VECTOR('',#399,1.);
#209=VECTOR('',#406,1.);
#210=VECTOR('',#407,1.);
#211=VECTOR('',#410,1.);
#212=VECTOR('',#419,1.);
#213=VECTOR('',#438,1.);
#214=VECTOR('',#439,1.);
#215=VECTOR('',#442,1.);
#216=VECTOR('',#443,1.);
#217=EDGE_LOOP('',(#42,#43,#44,#45));
#218=EDGE_LOOP('',(#46));
#219=EDGE_LOOP('',(#47));
#220=EDGE_LOOP('',(#48));
#221=EDGE_LOOP('',(#49));
#222=EDGE_LOOP('',(#50));
#223=EDGE_LOOP('',(#51));
#224=EDGE_LOOP('',(#52));
#225=EDGE_LOOP('',(#53,#54,#55,#56));
#226=EDGE_LOOP('',(#57));
#227=EDGE_LOOP('',(#58,#59,#60,#61,#62,#63,#64,#65));
#228=EDGE_LOOP('',(#66));
#229=EDGE_LOOP('',(#67));
#230=EDGE_LOOP('',(#68));
#231=EDGE_LOOP('',(#69,#70,#71,#72,#73));
#232=EDGE_LOOP('',(#74,#75));
#233=EDGE_LOOP('',(#76));
#234=EDGE_LOOP('',(#77));
#235=EDGE_LOOP('',(#78,#79,#80,#81));
#236=EDGE_LOOP('',(#82,#83));
#237=EDGE_LOOP('',(#84));
#238=EDGE_LOOP('',(#85));
#239=EDGE_LOOP('',(#86,#87,#88,#89));
#240=EDGE_LOOP('',(#90));
#241=EDGE_LOOP('',(#91));
#242=EDGE_LOOP('',(#92));
#243=EDGE_LOOP('',(#93));
#244=EDGE_LOOP('',(#94));
#245=EDGE_LOOP('',(#95));
#246=EDGE_LOOP('',(#96));
#247=EDGE_LOOP('',(#97));
#248=EDGE_LOOP('',(#98));
#249=EDGE_LOOP('',(#99,#100,#101,#102));
#250=EDGE_LOOP('',(#103,#104,#105,#106));
#251=EDGE_LOOP('',(#107,#108,#109,#110));
#252=EDGE_LOOP('',(#111,#112,#113,#114,#115));
#253=FACE_BOUND('',#217,.T.);
#254=FACE_BOUND('',#218,.T.);
#255=FACE_BOUND('',#219,.T.);
#256=FACE_BOUND('',#220,.T.);
#257=FACE_BOUND('',#221,.T.);
#258=FACE_BOUND('',#222,.T.);
#259=FACE_BOUND('',#223,.T.);
#260=FACE_BOUND('',#224,.T.);
#261=FACE_BOUND('',#225,.T.);
#262=FACE_BOUND('',#226,.T.);
#263=FACE_BOUND('',#227,.T.);
#264=FACE_BOUND('',#228,.T.);
#265=FACE_BOUND('',#229,.T.);
#266=FACE_BOUND('',#230,.T.);
#267=FACE_BOUND('',#231,.T.);
#268=FACE_BOUND('',#232,.T.);
#269=FACE_BOUND('',#233,.T.);
#270=FACE_BOUND('',#234,.T.);
#271=FACE_BOUND('',#235,.T.);
#272=FACE_BOUND('',#236,.T.);
#273=FACE_BOUND('',#237,.T.);
#274=FACE_BOUND('',#238,.T.);
#275=FACE_BOUND('',#239,.T.);
#276=FACE_BOUND('',#12,.T.);
#277=FACE_BOUND('',#240,.T.);
#278=FACE_BOUND('',#241,.T.);
#279=FACE_BOUND('',#242,.T.);
#280=FACE_BOUND('',#243,.T.);
#281=FACE_BOUND('',#244,.T.);
#282=FACE_BOUND('',#245,.T.);
#283=FACE_BOUND('',#246,.T.);
#284=FACE_BOUND('',#247,.T.);
#285=FACE_BOUND('',#248,.T.);
#286=FACE_BOUND('',#249,.T.);
#287=FACE_BOUND('',#250,.T.);
#288=FACE_BOUND('',#251,.T.);
#289=FACE_BOUND('',#252,.T.);
#290=PLANE('',#332);
#291=PLANE('',#337);
#292=PLANE('',#344);
#293=PLANE('',#347);
#294=PLANE('',#348);
#295=PLANE('',#351);
#296=PLANE('',#352);
#297=PLANE('',#360);
#298=PLANE('',#361);
#299=PLANE('',#362);
#300=ADVANCED_FACE('',(#253),#290,.F.);
#301=ADVANCED_FACE('',(#254,#255,#256,#257,#258,#259),#20,.F.);
#302=ADVANCED_FACE('',(#260,#261),#291,.F.);
#303=ADVANCED_FACE('',(#262,#263),#21,.T.);
#304=ADVANCED_FACE('',(#264,#265),#292,.F.);
#305=ADVANCED_FACE('',(#266,#267),#22,.T.);
#306=ADVANCED_FACE('',(#268),#293,.T.);
#307=ADVANCED_FACE('',(#269,#270,#271),#294,.T.);
#308=ADVANCED_FACE('',(#272),#295,.T.);
#309=ADVANCED_FACE('',(#273,#274,#275),#296,.F.);
#310=ADVANCED_FACE('',(#276,#277),#13,.F.);
#311=ADVANCED_FACE('',(#278,#279),#23,.F.);
#312=ADVANCED_FACE('',(#280,#281),#24,.F.);
#313=ADVANCED_FACE('',(#282,#283),#25,.F.);
#314=ADVANCED_FACE('',(#284,#285),#26,.F.);
#315=ADVANCED_FACE('',(#286),#297,.F.);
#316=ADVANCED_FACE('',(#287),#298,.T.);
#317=ADVANCED_FACE('',(#288),#299,.F.);
#318=ADVANCED_FACE('',(#289),#27,.F.);
#319=CLOSED_SHELL('',(#300,#301,#302,#303,#304,#305,#306,#307,#308,#309,
#310,#311,#312,#313,#314,#315,#316,#317,#318));
#320=STYLED_ITEM('',(#321),#328);
#321=PRESENTATION_STYLE_ASSIGNMENT((#322));
#322=SURFACE_STYLE_USAGE(.BOTH.,#323);
#323=SURFACE_SIDE_STYLE('',(#324));
#324=SURFACE_STYLE_FILL_AREA(#325);
#325=FILL_AREA_STYLE('',(#326));
#326=FILL_AREA_STYLE_COLOUR('',#327);
#327=COLOUR_RGB('',0.615686274509804,0.811764705882353,0.929411764705882);
#328=MANIFOLD_SOLID_BREP('Part 1',#319);
#329=SHAPE_DEFINITION_REPRESENTATION(#591,#330);
#330=SHAPE_REPRESENTATION('Part 1',(#331),#586);
#331=AXIS2_PLACEMENT_3D('',#450,#365,#366);
#332=AXIS2_PLACEMENT_3D('',#451,#367,#368);
#333=AXIS2_PLACEMENT_3D('',#455,#370,#371);
#334=AXIS2_PLACEMENT_3D('',#460,#374,#375);
#335=AXIS2_PLACEMENT_3D('',#461,#376,#377);
#336=AXIS2_PLACEMENT_3D('',#463,#378,#379);
#337=AXIS2_PLACEMENT_3D('',#513,#380,#381);
#338=AXIS2_PLACEMENT_3D('',#517,#383,#384);
#339=AXIS2_PLACEMENT_3D('',#521,#386,#387);
#340=AXIS2_PLACEMENT_3D('',#522,#388,#389);
#341=AXIS2_PLACEMENT_3D('',#523,#390,#391);
#342=AXIS2_PLACEMENT_3D('',#527,#393,#394);
#343=AXIS2_PLACEMENT_3D('',#532,#397,#398);
#344=AXIS2_PLACEMENT_3D('',#535,#400,#401);
#345=AXIS2_PLACEMENT_3D('',#536,#402,#403);
#346=AXIS2_PLACEMENT_3D('',#538,#404,#405);
#347=AXIS2_PLACEMENT_3D('',#554,#408,#409);
#348=AXIS2_PLACEMENT_3D('',#556,#411,#412);
#349=AXIS2_PLACEMENT_3D('',#557,#413,#414);
#350=AXIS2_PLACEMENT_3D('',#559,#415,#416);
#351=AXIS2_PLACEMENT_3D('',#561,#417,#418);
#352=AXIS2_PLACEMENT_3D('',#563,#420,#421);
#353=AXIS2_PLACEMENT_3D('',#564,#422,#423);
#354=AXIS2_PLACEMENT_3D('',#566,#424,#425);
#355=AXIS2_PLACEMENT_3D('',#568,#426,#427);
#356=AXIS2_PLACEMENT_3D('',#570,#428,#429);
#357=AXIS2_PLACEMENT_3D('',#571,#430,#431);
#358=AXIS2_PLACEMENT_3D('',#572,#432,#433);
#359=AXIS2_PLACEMENT_3D('',#573,#434,#435);
#360=AXIS2_PLACEMENT_3D('',#574,#436,#437);
#361=AXIS2_PLACEMENT_3D('',#578,#440,#441);
#362=AXIS2_PLACEMENT_3D('',#582,#444,#445);
#363=AXIS2_PLACEMENT_3D('',#583,#446,#447);
#364=AXIS2_PLACEMENT_3D('',#584,#448,#449);
#365=DIRECTION('',(0.,0.,1.));
#366=DIRECTION('',(1.,0.,0.));
#367=DIRECTION('',(0.,1.,0.));
#368=DIRECTION('',(0.,0.,1.));
#369=DIRECTION('',(0.,0.,-1.));
#370=DIRECTION('',(0.,1.,0.));
#371=DIRECTION('',(0.,0.,1.));
#372=DIRECTION('',(1.0842021724855E-16,0.,-1.));
#373=DIRECTION('',(1.,0.,0.));
#374=DIRECTION('',(0.,-1.,0.));
#375=DIRECTION('',(0.,0.,-1.));
#376=DIRECTION('',(0.,-1.,0.));
#377=DIRECTION('',(0.,0.,-1.));
#378=DIRECTION('',(0.,-1.,0.));
#379=DIRECTION('',(0.,0.,-1.));
#380=DIRECTION('',(0.,-1.,0.));
#381=DIRECTION('',(0.,0.,-1.));
#382=DIRECTION('',(-1.,0.,0.));
#383=DIRECTION('',(0.,1.,0.));
#384=DIRECTION('',(0.,0.,1.));
#385=DIRECTION('',(-1.,0.,0.));
#386=DIRECTION('',(0.,1.,0.));
#387=DIRECTION('',(0.,0.,1.));
#388=DIRECTION('',(0.,1.,0.));
#389=DIRECTION('',(0.,0.,1.));
#390=DIRECTION('',(0.,1.,0.));
#391=DIRECTION('',(0.,0.,1.));
#392=DIRECTION('',(0.,1.,0.));
#393=DIRECTION('',(0.,1.,0.));
#394=DIRECTION('',(0.,0.,1.));
#395=DIRECTION('',(0.,1.,0.));
#396=DIRECTION('',(0.,1.,0.));
#397=DIRECTION('',(0.,1.,0.));
#398=DIRECTION('',(0.,0.,1.));
#399=DIRECTION('',(0.,1.,0.));
#400=DIRECTION('',(0.,-1.,0.));
#401=DIRECTION('',(0.,0.,-1.));
#402=DIRECTION('',(0.,1.,0.));
#403=DIRECTION('',(0.,0.,1.));
#404=DIRECTION('',(0.,1.,0.));
#405=DIRECTION('',(0.,0.,1.));
#406=DIRECTION('',(0.,1.,0.));
#407=DIRECTION('',(0.,1.,0.));
#408=DIRECTION('',(0.,1.,0.));
#409=DIRECTION('',(-1.,0.,0.));
#410=DIRECTION('',(-1.,0.,0.));
#411=DIRECTION('',(0.,0.,-1.));
#412=DIRECTION('',(-1.,0.,0.));
#413=DIRECTION('',(0.,0.,1.));
#414=DIRECTION('',(1.,0.,0.));
#415=DIRECTION('',(0.,0.,1.));
#416=DIRECTION('',(1.,0.,0.));
#417=DIRECTION('',(0.,1.,0.));
#418=DIRECTION('',(-1.,0.,0.));
#419=DIRECTION('',(-1.,0.,0.));
#420=DIRECTION('',(0.,0.,-1.));
#421=DIRECTION('',(-1.,0.,0.));
#422=DIRECTION('',(0.,0.,-1.));
#423=DIRECTION('',(-1.,0.,0.));
#424=DIRECTION('',(0.,0.,-1.));
#425=DIRECTION('',(-1.,0.,0.));
#426=DIRECTION('',(0.,1.,0.));
#427=DIRECTION('',(0.,0.,1.));
#428=DIRECTION('',(0.,0.,-1.));
#429=DIRECTION('',(-1.,0.,0.));
#430=DIRECTION('',(0.,0.,-1.));
#431=DIRECTION('',(-1.,0.,0.));
#432=DIRECTION('',(0.,0.,1.));
#433=DIRECTION('',(1.,0.,0.));
#434=DIRECTION('',(0.,0.,1.));
#435=DIRECTION('',(1.,0.,0.));
#436=DIRECTION('',(-1.,0.,0.));
#437=DIRECTION('',(0.,0.,1.));
#438=DIRECTION('',(0.,-1.,0.));
#439=DIRECTION('',(0.,0.,-1.));
#440=DIRECTION('',(-1.,0.,-1.0842021724855E-16));
#441=DIRECTION('',(-1.0842021724855E-16,0.,1.));
#442=DIRECTION('',(1.0842021724855E-16,0.,-1.));
#443=DIRECTION('',(0.,-1.,0.));
#444=DIRECTION('',(0.,0.,-1.));
#445=DIRECTION('',(-1.,0.,0.));
#446=DIRECTION('',(0.,0.,-1.));
#447=DIRECTION('',(-1.,0.,0.));
#448=DIRECTION('',(0.,0.,-1.));
#449=DIRECTION('',(-1.,0.,0.));
#450=CARTESIAN_POINT('',(0.,0.,0.));
#451=CARTESIAN_POINT('',(0.,-0.02,0.00625));
#452=CARTESIAN_POINT('',(-0.004,-0.02,0.0125));
#453=CARTESIAN_POINT('',(-0.004,-0.02,0.011842719282327));
#454=CARTESIAN_POINT('',(-0.004,-0.02,0.0085));
#455=CARTESIAN_POINT('',(0.,-0.02,0.));
#456=CARTESIAN_POINT('',(0.004,-0.02,0.011842719282327));
#457=CARTESIAN_POINT('',(0.004,-0.02,0.0125));
#458=CARTESIAN_POINT('',(0.004,-0.02,0.0085));
#459=CARTESIAN_POINT('',(0.,-0.02,0.0085));
#460=CARTESIAN_POINT('',(0.,0.045,0.));
#461=CARTESIAN_POINT('',(0.,6.93889390390723E-18,0.));
#462=CARTESIAN_POINT('',(0.,6.93889390390723E-18,-0.00475));
#463=CARTESIAN_POINT('',(0.,0.045,0.));
#464=CARTESIAN_POINT('',(0.,0.045,-0.00475));
#465=CARTESIAN_POINT('',(-0.00129320756101138,0.0212925643105305,0.00460675152381112));
#466=CARTESIAN_POINT('',(-0.00182862891347493,0.0200001177127179,0.00437791289483914));
#467=CARTESIAN_POINT('',(-0.00129227678508888,0.0187069648385979,0.0046068658384164));
#468=CARTESIAN_POINT('',(-2.17602636499725E-6,0.0181712207738851,0.00482162559515417));
#469=CARTESIAN_POINT('',(0.0012943766933279,0.0187081542686609,0.00460663101578409));
#470=CARTESIAN_POINT('',(0.00182800729324632,0.0199987871940471,0.00437798391654737));
#471=CARTESIAN_POINT('',(0.00129359335631716,0.0212927737016181,0.00460670254757616));
#472=CARTESIAN_POINT('',(-2.14413375246178E-7,0.0218286654941516,0.00482163648117664));
#473=CARTESIAN_POINT('',(-0.00129320756101138,0.0212925643105305,0.00460675152381112));
#474=CARTESIAN_POINT('',(-0.00182862891347493,0.0200001177127179,0.00437791289483914));
#475=CARTESIAN_POINT('',(-0.00129227678508888,0.0187069648385979,0.0046068658384164));
#476=CARTESIAN_POINT('',(-0.00165,0.02,0.00445421149026402));
#477=CARTESIAN_POINT('',(-0.00129320756101139,0.0112925643105305,0.00460675152381112));
#478=CARTESIAN_POINT('',(-0.00182862891347493,0.0100001177127179,0.00437791289483914));
#479=CARTESIAN_POINT('',(-0.00129227678508888,0.00870696483859792,0.0046068658384164));
#480=CARTESIAN_POINT('',(-2.17602636499892E-6,0.00817122077388511,0.00482162559515417));
#481=CARTESIAN_POINT('',(0.00129437669332789,0.0087081542686609,0.0046066310157841));
#482=CARTESIAN_POINT('',(0.00182800729324633,0.00999878719404709,0.00437798391654737));
#483=CARTESIAN_POINT('',(0.00129359335631716,0.0112927737016181,0.00460670254757616));
#484=CARTESIAN_POINT('',(-2.14413375244498E-7,0.0118286654941516,0.00482163648117664));
#485=CARTESIAN_POINT('',(-0.00129320756101139,0.0112925643105305,0.00460675152381112));
#486=CARTESIAN_POINT('',(-0.00182862891347493,0.0100001177127179,0.00437791289483914));
#487=CARTESIAN_POINT('',(-0.00129227678508888,0.00870696483859792,0.0046068658384164));
#488=CARTESIAN_POINT('',(-0.00165,0.01,0.00445421149026402));
#489=CARTESIAN_POINT('',(0.00129320756101139,0.0112925643105305,-0.00460675152381112));
#490=CARTESIAN_POINT('',(0.00182862891347493,0.0100001177127179,-0.00437791289483914));
#491=CARTESIAN_POINT('',(0.00129227678508888,0.00870696483859792,-0.0046068658384164));
#492=CARTESIAN_POINT('',(2.17602636499892E-6,0.00817122077388511,-0.00482162559515417));
#493=CARTESIAN_POINT('',(-0.00129437669332789,0.0087081542686609,-0.0046066310157841));
#494=CARTESIAN_POINT('',(-0.00182800729324633,0.00999878719404709,-0.00437798391654737));
#495=CARTESIAN_POINT('',(-0.00129359335631716,0.0112927737016181,-0.00460670254757616));
#496=CARTESIAN_POINT('',(2.14413375244498E-7,0.0118286654941516,-0.00482163648117664));
#497=CARTESIAN_POINT('',(0.00129320756101139,0.0112925643105305,-0.00460675152381112));
#498=CARTESIAN_POINT('',(0.00182862891347493,0.0100001177127179,-0.00437791289483914));
#499=CARTESIAN_POINT('',(0.00129227678508888,0.00870696483859792,-0.0046068658384164));
#500=CARTESIAN_POINT('',(0.00165,0.01,-0.00445421149026402));
#501=CARTESIAN_POINT('',(0.00129320756101139,0.0212925643105305,-0.00460675152381112));
#502=CARTESIAN_POINT('',(0.00182862891347493,0.0200001177127179,-0.00437791289483914));
#503=CARTESIAN_POINT('',(0.00129227678508888,0.0187069648385979,-0.0046068658384164));
#504=CARTESIAN_POINT('',(2.17602636499614E-6,0.0181712207738851,-0.00482162559515417));
#505=CARTESIAN_POINT('',(-0.0012943766933279,0.0187081542686609,-0.00460663101578409));
#506=CARTESIAN_POINT('',(-0.00182800729324632,0.0199987871940471,-0.00437798391654737));
#507=CARTESIAN_POINT('',(-0.00129359335631716,0.0212927737016181,-0.00460670254757616));
#508=CARTESIAN_POINT('',(2.14413375247696E-7,0.0218286654941516,-0.00482163648117664));
#509=CARTESIAN_POINT('',(0.00129320756101139,0.0212925643105305,-0.00460675152381112));
#510=CARTESIAN_POINT('',(0.00182862891347493,0.0200001177127179,-0.00437791289483914));
#511=CARTESIAN_POINT('',(0.00129227678508888,0.0187069648385979,-0.0046068658384164));
#512=CARTESIAN_POINT('',(0.00165,0.02,-0.00445421149026402));
#513=CARTESIAN_POINT('',(0.,0.045,0.005));
#514=CARTESIAN_POINT('',(0.,0.045,0.00953939201416945));
#515=CARTESIAN_POINT('',(0.003,0.045,0.00953939201416945));
#516=CARTESIAN_POINT('',(-0.003,0.045,0.00953939201416945));
#517=CARTESIAN_POINT('',(0.,0.045,0.));
#518=CARTESIAN_POINT('',(0.003,0.045,-0.00953939201416945));
#519=CARTESIAN_POINT('',(0.,0.045,-0.00953939201416945));
#520=CARTESIAN_POINT('',(-0.003,0.045,-0.00953939201416945));
#521=CARTESIAN_POINT('',(0.,0.045,0.));
#522=CARTESIAN_POINT('',(0.,-0.01,0.));
#523=CARTESIAN_POINT('',(0.,0.,0.));
#524=CARTESIAN_POINT('',(0.,0.,0.01));
#525=CARTESIAN_POINT('',(0.003,0.005,0.00953939201416945));
#526=CARTESIAN_POINT('',(0.003,0.005,0.00953939201416945));
#527=CARTESIAN_POINT('',(0.,0.005,0.));
#528=CARTESIAN_POINT('',(-0.003,0.005,0.00953939201416945));
#529=CARTESIAN_POINT('',(-0.003,0.005,0.00953939201416945));
#530=CARTESIAN_POINT('',(-0.003,0.005,-0.00953939201416945));
#531=CARTESIAN_POINT('',(-0.003,0.005,-0.00953939201416945));
#532=CARTESIAN_POINT('',(0.,0.005,0.));
#533=CARTESIAN_POINT('',(0.003,0.005,-0.00953939201416945));
#534=CARTESIAN_POINT('',(0.003,0.005,-0.00953939201416945));
#535=CARTESIAN_POINT('',(0.,-6.93889390390723E-18,0.01125));
#536=CARTESIAN_POINT('',(0.,-1.38777878078145E-17,0.));
#537=CARTESIAN_POINT('',(0.,-1.38777878078145E-17,0.0125));
#538=CARTESIAN_POINT('',(0.,-0.01,0.));
#539=CARTESIAN_POINT('',(-0.004,-0.01,0.011842719282327));
#540=CARTESIAN_POINT('',(-0.004,-0.006,0.011842719282327));
#541=CARTESIAN_POINT('',(-0.004,-0.006,0.011842719282327));
#542=CARTESIAN_POINT('',(-0.004,-0.00493592660254376,0.011842719282327));
#543=CARTESIAN_POINT('',(-0.00312666075176041,-0.00287699032527646,0.0121798117780083));
#544=CARTESIAN_POINT('',(-0.00106400159235502,-0.002,0.0125));
#545=CARTESIAN_POINT('',(-1.55629909039984E-19,-0.002,0.0125));
#546=CARTESIAN_POINT('',(4.81482486096809E-35,-0.002,0.0125));
#547=CARTESIAN_POINT('',(4.81482486096809E-35,-0.002,0.0125));
#548=CARTESIAN_POINT('',(0.00106401457370122,-0.002,0.0125));
#549=CARTESIAN_POINT('',(0.00312434330217843,-0.00287466391424088,0.0121803486770221));
#550=CARTESIAN_POINT('',(0.004,-0.00493595644128607,0.011842719282327));
#551=CARTESIAN_POINT('',(0.004,-0.006,0.011842719282327));
#552=CARTESIAN_POINT('',(0.004,-0.006,0.011842719282327));
#553=CARTESIAN_POINT('',(0.004,-0.01,0.011842719282327));
#554=CARTESIAN_POINT('',(0.,0.005,0.));
#555=CARTESIAN_POINT('',(0.,0.005,-0.00953939201416945));
#556=CARTESIAN_POINT('',(0.,0.005,-0.00953939201416945));
#557=CARTESIAN_POINT('',(0.,0.02,-0.00953939201416945));
#558=CARTESIAN_POINT('',(0.00165,0.02,-0.00953939201416945));
#559=CARTESIAN_POINT('',(0.,0.01,-0.00953939201416945));
#560=CARTESIAN_POINT('',(0.00165,0.01,-0.00953939201416945));
#561=CARTESIAN_POINT('',(0.,0.005,0.));
#562=CARTESIAN_POINT('',(0.,0.005,0.00953939201416945));
#563=CARTESIAN_POINT('',(0.,0.005,0.00953939201416945));
#564=CARTESIAN_POINT('',(0.,0.01,0.00953939201416945));
#565=CARTESIAN_POINT('',(-0.00165,0.01,0.00953939201416945));
#566=CARTESIAN_POINT('',(6.12323399573678E-19,0.02,0.00953939201416945));
#567=CARTESIAN_POINT('',(-0.00165,0.02,0.00953939201416945));
#568=CARTESIAN_POINT('',(0.,6.93889390390723E-18,0.));
#569=CARTESIAN_POINT('',(0.,-0.00285408794038091,0.));
#570=CARTESIAN_POINT('',(6.12323399573678E-19,0.02,0.00953939201416945));
#571=CARTESIAN_POINT('',(0.,0.01,0.00953939201416945));
#572=CARTESIAN_POINT('',(0.,0.01,-0.00953939201416945));
#573=CARTESIAN_POINT('',(0.,0.02,-0.00953939201416945));
#574=CARTESIAN_POINT('',(-0.004,-0.002,0.0125));
#575=CARTESIAN_POINT('',(-0.004,-0.002,0.0085));
#576=CARTESIAN_POINT('',(-0.004,-0.006,0.0085));
#577=CARTESIAN_POINT('',(-0.004,-0.006,0.0125));
#578=CARTESIAN_POINT('',(0.004,-0.002,0.0125));
#579=CARTESIAN_POINT('',(0.004,-0.006,0.0085));
#580=CARTESIAN_POINT('',(0.004,-0.006,0.0085));
#581=CARTESIAN_POINT('',(0.004,-0.002,0.0085));
#582=CARTESIAN_POINT('',(0.,-0.002,0.0085));
#583=CARTESIAN_POINT('',(0.,-0.006,0.0085));
#584=CARTESIAN_POINT('',(0.,-0.006,0.002));
#585=MECHANICAL_DESIGN_GEOMETRIC_PRESENTATION_REPRESENTATION('',(#320),
#586);
#586=(
GEOMETRIC_REPRESENTATION_CONTEXT(3)
GLOBAL_UNCERTAINTY_ASSIGNED_CONTEXT((#587))
GLOBAL_UNIT_ASSIGNED_CONTEXT((#590,#589,#588))
REPRESENTATION_CONTEXT('Part 1','TOP_LEVEL_ASSEMBLY_PART')
);
#587=UNCERTAINTY_MEASURE_WITH_UNIT(LENGTH_MEASURE(5.E-6),#590,
'DISTANCE_ACCURACY_VALUE','Maximum Tolerance applied to model');
#588=(
NAMED_UNIT(*)
SI_UNIT($,.STERADIAN.)
SOLID_ANGLE_UNIT()
);
#589=(
NAMED_UNIT(*)
PLANE_ANGLE_UNIT()
SI_UNIT($,.RADIAN.)
);
#590=(
LENGTH_UNIT()
NAMED_UNIT(*)
SI_UNIT($,.METRE.)
);
#591=PRODUCT_DEFINITION_SHAPE('','',#592);
#592=PRODUCT_DEFINITION('','',#594,#593);
#593=PRODUCT_DEFINITION_CONTEXT('',#600,'design');
#594=PRODUCT_DEFINITION_FORMATION_WITH_SPECIFIED_SOURCE('','',#596,
 .NOT_KNOWN.);
#595=PRODUCT_RELATED_PRODUCT_CATEGORY('','',(#596));
#596=PRODUCT('Part 1','Part 1','Part 1',(#598));
#597=PRODUCT_CATEGORY('','');
#598=PRODUCT_CONTEXT('',#600,'mechanical');
#599=APPLICATION_PROTOCOL_DEFINITION('international standard',
'ap242_managed_model_based_3d_engineering',2011,#600);
#600=APPLICATION_CONTEXT('managed model based 3d engineering');
ENDSEC;
END-ISO-10303-21;
