ISO-10303-21;
HEADER;
FILE_DESCRIPTION(('CATIA V5 STEP Exchange'),'2;1');

FILE_NAME('C:\\Documents and Settings\\MOI\\Bureau\\mitsu\\calle ressort.stp','2024-02-25T10:10:46+00:00',('none'),('none'),'CATIA Version 5 Release 19 SP 2 (IN-10)','CATIA V5 STEP AP203','none');

FILE_SCHEMA(('CONFIG_CONTROL_DESIGN'));

ENDSEC;
/* file written by CATIA V5R19 */
DATA;
#5=PRODUCT('Part1','','',(#2)) ;
#1=APPLICATION_CONTEXT('configuration controlled 3D design of mechanical parts and assemblies') ;
#14=PRODUCT_DEFINITION('',' ',#6,#3) ;
#16=SECURITY_CLASSIFICATION(' ',' ',#15) ;
#15=SECURITY_CLASSIFICATION_LEVEL('unclassified') ;
#47=CARTESIAN_POINT(' ',(0.,0.,0.)) ;
#52=CARTESIAN_POINT('Axis2P3D Location',(0.,-27.5,0.)) ;
#57=CARTESIAN_POINT('Axis2P3D Location',(0.,-15.,0.)) ;
#61=CARTESIAN_POINT('Vertex',(19.6564470828,-15.,35.9808850375)) ;
#63=CARTESIAN_POINT('Vertex',(-19.6564470828,-15.,-35.9808850375)) ;
#66=CARTESIAN_POINT('Line Origine',(19.6564470828,-27.5,35.9808850375)) ;
#70=CARTESIAN_POINT('Vertex',(19.6564470828,-40.,35.9808850375)) ;
#73=CARTESIAN_POINT('Axis2P3D Location',(0.,-40.,0.)) ;
#77=CARTESIAN_POINT('Vertex',(-19.6564470828,-40.,-35.9808850375)) ;
#80=CARTESIAN_POINT('Line Origine',(-19.6564470828,-27.5,-35.9808850375)) ;
#92=CARTESIAN_POINT('Axis2P3D Location',(0.,-15.,0.)) ;
#97=CARTESIAN_POINT('Axis2P3D Location',(0.,-40.,0.)) ;
#109=CARTESIAN_POINT('Axis2P3D Location',(0.,-15.,41.)) ;
#118=CARTESIAN_POINT('Axis2P3D Location',(0.,-15.,0.)) ;
#122=CARTESIAN_POINT('Vertex',(14.6224789274,-15.,26.7662681377)) ;
#124=CARTESIAN_POINT('Vertex',(-14.6224789274,-15.,-26.7662681377)) ;
#127=CARTESIAN_POINT('Axis2P3D Location',(0.,-15.,0.)) ;
#137=CARTESIAN_POINT('Axis2P3D Location',(0.,-40.,30.5)) ;
#146=CARTESIAN_POINT('Axis2P3D Location',(0.,-40.,0.)) ;
#150=CARTESIAN_POINT('Vertex',(-14.6224789274,-40.,-26.7662681377)) ;
#152=CARTESIAN_POINT('Vertex',(14.6224789274,-40.,26.7662681377)) ;
#155=CARTESIAN_POINT('Axis2P3D Location',(0.,-40.,0.)) ;
#165=CARTESIAN_POINT('Axis2P3D Location',(2.26041407814E-013,-26.25,-1.83852932878E-013)) ;
#170=CARTESIAN_POINT('Line Origine',(-12.3452077814,-0.5,-22.59775088)) ;
#174=CARTESIAN_POINT('Vertex',(-12.1054948498,-1.,-22.1589596877)) ;
#176=CARTESIAN_POINT('Vertex',(-12.5849203883,0.,-23.0365422497)) ;
#179=CARTESIAN_POINT('Axis2P3D Location',(-7.1054273576E-015,-1.35003119794E-013,2.6645352591E-015)) ;
#183=CARTESIAN_POINT('Vertex',(12.5849203884,0.,23.0365422496)) ;
#186=CARTESIAN_POINT('Line Origine',(12.3452076191,-0.5,22.5977509687)) ;
#190=CARTESIAN_POINT('Vertex',(12.1054948498,-1.,22.1589596877)) ;
#193=CARTESIAN_POINT('Axis2P3D Location',(1.7763568394E-015,-1.,-4.4408920985E-015)) ;
#205=CARTESIAN_POINT('Axis2P3D Location',(4.55635529306E-013,-26.25,-1.82076576039E-013)) ;
#210=CARTESIAN_POINT('Axis2P3D Location',(-1.06581410364E-014,-6.39488462184E-014,4.4408920985E-015)) ;
#215=CARTESIAN_POINT('Axis2P3D Location',(7.1054273576E-015,-1.,-2.6645352591E-015)) ;
#227=CARTESIAN_POINT('Axis2P3D Location',(0.,-27.5,0.)) ;
#232=CARTESIAN_POINT('Line Origine',(14.6224789274,-47.,26.7662681377)) ;
#236=CARTESIAN_POINT('Vertex',(14.6224789274,-1.,26.7662681377)) ;
#239=CARTESIAN_POINT('Line Origine',(-14.6224789274,-47.,-26.7662681377)) ;
#243=CARTESIAN_POINT('Vertex',(-14.6224789274,-1.,-26.7662681377)) ;
#246=CARTESIAN_POINT('Axis2P3D Location',(0.,-1.,0.)) ;
#258=CARTESIAN_POINT('Axis2P3D Location',(0.,-1.,0.)) ;
#270=CARTESIAN_POINT('Axis2P3D Location',(0.,0.,30.5)) ;
#275=CARTESIAN_POINT('Axis2P3D Location',(4.32986979604E-015,0.,1.06581410364E-014)) ;
#279=CARTESIAN_POINT('Vertex',(-14.1430530583,0.,-25.8886857563)) ;
#281=CARTESIAN_POINT('Vertex',(14.1430533888,0.,25.8886855758)) ;
#284=CARTESIAN_POINT('Axis2P3D Location',(9.99200722163E-015,0.,7.1054273576E-015)) ;
#298=CARTESIAN_POINT('Axis2P3D Location',(5.77315972805E-014,29.5,-5.41788836017E-014)) ;
#303=CARTESIAN_POINT('Line Origine',(-14.3827661581,-0.5,-26.3274768567)) ;
#308=CARTESIAN_POINT('Line Origine',(14.3827661581,-0.5,26.3274768567)) ;
#320=CARTESIAN_POINT('Axis2P3D Location',(5.27577981302E-013,29.5,-3.71258579435E-013)) ;
#332=CARTESIAN_POINT('Line Origine',(-14.6224789274,-47.,-26.7662681377)) ;
#336=CARTESIAN_POINT('Vertex',(-14.6224789274,-54.,-26.7662681377)) ;
#339=CARTESIAN_POINT('Line Origine',(14.6224789274,-47.,26.7662681377)) ;
#343=CARTESIAN_POINT('Vertex',(14.6224789274,-54.,26.7662681377)) ;
#346=CARTESIAN_POINT('Axis2P3D Location',(0.,-54.,0.)) ;
#358=CARTESIAN_POINT('Axis2P3D Location',(0.,-54.,0.)) ;
#370=CARTESIAN_POINT('Axis2P3D Location',(7.37188088351E-013,-84.5,5.95079541199E-014)) ;
#375=CARTESIAN_POINT('Line Origine',(-14.3827653342,-54.5,-26.3274773068)) ;
#379=CARTESIAN_POINT('Vertex',(-14.1430530583,-55.,-25.8886857563)) ;
#382=CARTESIAN_POINT('Axis2P3D Location',(3.55271367879E-015,-55.,7.1054273576E-015)) ;
#386=CARTESIAN_POINT('Vertex',(14.1430533888,-55.,25.8886855758)) ;
#389=CARTESIAN_POINT('Line Origine',(14.3827661581,-54.5,26.3274768567)) ;
#401=CARTESIAN_POINT('Axis2P3D Location',(4.26325641456E-013,-84.5,8.57092175011E-014)) ;
#406=CARTESIAN_POINT('Axis2P3D Location',(7.1054273576E-015,-55.,7.1054273576E-015)) ;
#418=CARTESIAN_POINT('Axis2P3D Location',(0.,-27.5,0.)) ;
#423=CARTESIAN_POINT('Axis2P3D Location',(0.,-54.,0.)) ;
#427=CARTESIAN_POINT('Vertex',(12.1054948498,-54.,22.1589596877)) ;
#429=CARTESIAN_POINT('Vertex',(-12.1054948498,-54.,-22.1589596877)) ;
#432=CARTESIAN_POINT('Line Origine',(12.1054948498,-27.5,22.1589596877)) ;
#437=CARTESIAN_POINT('Line Origine',(-12.1054948498,-27.5,-22.1589596877)) ;
#449=CARTESIAN_POINT('Axis2P3D Location',(0.,-54.,0.)) ;
#461=CARTESIAN_POINT('Axis2P3D Location',(0.,-55.,25.25)) ;
#470=CARTESIAN_POINT('Axis2P3D Location',(-3.99680288865E-015,-55.,-3.5527136788E-015)) ;
#474=CARTESIAN_POINT('Vertex',(-12.5849203883,-55.,-23.0365422497)) ;
#476=CARTESIAN_POINT('Vertex',(12.5849203884,-55.,23.0365422496)) ;
#479=CARTESIAN_POINT('Axis2P3D Location',(2.1371793224E-015,-55.,-3.5527136788E-015)) ;
#489=CARTESIAN_POINT('Axis2P3D Location',(4.13002965161E-014,-28.75,-8.881784197E-014)) ;
#494=CARTESIAN_POINT('Line Origine',(-12.3452076191,-54.5,-22.5977509687)) ;
#499=CARTESIAN_POINT('Line Origine',(12.3452076191,-54.5,22.5977509687)) ;
#511=CARTESIAN_POINT('Axis2P3D Location',(0.,-28.75,6.99440505514E-014)) ;
#53=DIRECTION('Axis2P3D Direction',(0.,1.,0.)) ;
#54=DIRECTION('Axis2P3D XDirection',(-0.479425538604,0.,-0.87758256189)) ;
#58=DIRECTION('Axis2P3D Direction',(0.,1.,0.)) ;
#67=DIRECTION('Vector Direction',(0.,1.,0.)) ;
#74=DIRECTION('Axis2P3D Direction',(0.,1.,0.)) ;
#81=DIRECTION('Vector Direction',(0.,1.,0.)) ;
#93=DIRECTION('Axis2P3D Direction',(0.,1.,0.)) ;
#98=DIRECTION('Axis2P3D Direction',(0.,1.,0.)) ;
#110=DIRECTION('Axis2P3D Direction',(0.,1.,0.)) ;
#111=DIRECTION('Axis2P3D XDirection',(1.,-0.,0.)) ;
#119=DIRECTION('Axis2P3D Direction',(0.,1.,0.)) ;
#128=DIRECTION('Axis2P3D Direction',(0.,1.,0.)) ;
#138=DIRECTION('Axis2P3D Direction',(0.,1.,0.)) ;
#139=DIRECTION('Axis2P3D XDirection',(1.,-0.,0.)) ;
#147=DIRECTION('Axis2P3D Direction',(0.,1.,0.)) ;
#156=DIRECTION('Axis2P3D Direction',(0.,1.,0.)) ;
#166=DIRECTION('Axis2P3D Direction',(-8.881784197E-015,1.,7.1054273576E-015)) ;
#167=DIRECTION('Axis2P3D XDirection',(-0.47942554491,1.97563352395E-015,-0.877582558445)) ;
#171=DIRECTION('Vector Direction',(-0.33900505388,0.707106781187,-0.620544578128)) ;
#180=DIRECTION('Axis2P3D Direction',(-9.82626852511E-015,1.,1.72486853826E-015)) ;
#187=DIRECTION('Vector Direction',(0.339005049421,0.707106781187,0.620544580564)) ;
#194=DIRECTION('Axis2P3D Direction',(-9.82626852511E-015,1.,1.72486853826E-015)) ;
#206=DIRECTION('Axis2P3D Direction',(-1.7763568394E-014,1.,7.1054273576E-015)) ;
#207=DIRECTION('Axis2P3D XDirection',(0.479425538604,2.37076022874E-015,0.87758256189)) ;
#211=DIRECTION('Axis2P3D Direction',(-1.66701381569E-014,1.,9.10693798116E-015)) ;
#216=DIRECTION('Axis2P3D Direction',(-1.66701381569E-014,1.,9.10693798116E-015)) ;
#228=DIRECTION('Axis2P3D Direction',(0.,1.,0.)) ;
#229=DIRECTION('Axis2P3D XDirection',(-0.479425538604,0.,-0.87758256189)) ;
#233=DIRECTION('Vector Direction',(0.,1.,0.)) ;
#240=DIRECTION('Vector Direction',(0.,1.,0.)) ;
#247=DIRECTION('Axis2P3D Direction',(0.,1.,0.)) ;
#259=DIRECTION('Axis2P3D Direction',(0.,1.,0.)) ;
#271=DIRECTION('Axis2P3D Direction',(0.,1.,0.)) ;
#272=DIRECTION('Axis2P3D XDirection',(1.,-0.,0.)) ;
#276=DIRECTION('Axis2P3D Direction',(0.,1.,0.)) ;
#285=DIRECTION('Axis2P3D Direction',(0.,1.,0.)) ;
#299=DIRECTION('Axis2P3D Direction',(-1.7763568394E-015,-1.,1.7763568394E-015)) ;
#300=DIRECTION('Axis2P3D XDirection',(-0.479425538604,-7.90253409579E-016,-0.87758256189)) ;
#304=DIRECTION('Vector Direction',(-0.339005049421,-0.707106781187,-0.620544580564)) ;
#309=DIRECTION('Vector Direction',(0.339005049421,-0.707106781187,0.620544580564)) ;
#321=DIRECTION('Axis2P3D Direction',(-1.7763568394E-014,-1.,1.24344978758E-014)) ;
#322=DIRECTION('Axis2P3D XDirection',(0.479425538604,2.37076022874E-015,0.87758256189)) ;
#333=DIRECTION('Vector Direction',(0.,1.,0.)) ;
#340=DIRECTION('Vector Direction',(0.,1.,0.)) ;
#347=DIRECTION('Axis2P3D Direction',(0.,1.,0.)) ;
#359=DIRECTION('Axis2P3D Direction',(0.,1.,0.)) ;
#371=DIRECTION('Axis2P3D Direction',(-2.48689957516E-014,1.,-1.7763568394E-015)) ;
#372=DIRECTION('Axis2P3D XDirection',(-0.479425511141,-1.35660168644E-014,-0.877582576894)) ;
#376=DIRECTION('Vector Direction',(-0.339005030001,0.707106781187,-0.620544591173)) ;
#383=DIRECTION('Axis2P3D Direction',(-2.10701473885E-014,1.,8.10243645489E-015)) ;
#390=DIRECTION('Vector Direction',(0.339005049421,0.707106781187,0.620544580564)) ;
#402=DIRECTION('Axis2P3D Direction',(-1.42108547152E-014,1.,-2.6645352591E-015)) ;
#403=DIRECTION('Axis2P3D XDirection',(0.479425538604,9.21962311176E-015,0.87758256189)) ;
#407=DIRECTION('Axis2P3D Direction',(-9.82344158883E-015,1.,5.36657059881E-015)) ;
#419=DIRECTION('Axis2P3D Direction',(0.,1.,0.)) ;
#420=DIRECTION('Axis2P3D XDirection',(-0.479425538604,0.,-0.87758256189)) ;
#424=DIRECTION('Axis2P3D Direction',(0.,1.,0.)) ;
#433=DIRECTION('Vector Direction',(0.,1.,0.)) ;
#438=DIRECTION('Vector Direction',(0.,1.,0.)) ;
#450=DIRECTION('Axis2P3D Direction',(0.,1.,0.)) ;
#462=DIRECTION('Axis2P3D Direction',(0.,1.,0.)) ;
#463=DIRECTION('Axis2P3D XDirection',(1.,-0.,0.)) ;
#471=DIRECTION('Axis2P3D Direction',(0.,1.,0.)) ;
#480=DIRECTION('Axis2P3D Direction',(0.,1.,0.)) ;
#490=DIRECTION('Axis2P3D Direction',(-1.7763568394E-015,-1.,3.5527136788E-015)) ;
#491=DIRECTION('Axis2P3D XDirection',(-0.479425538604,-2.37076022874E-015,-0.87758256189)) ;
#495=DIRECTION('Vector Direction',(-0.339005049421,-0.707106781187,-0.620544580564)) ;
#500=DIRECTION('Vector Direction',(0.339005049421,-0.707106781187,0.620544580564)) ;
#512=DIRECTION('Axis2P3D Direction',(0.,-1.,-2.6645352591E-015)) ;
#513=DIRECTION('Axis2P3D XDirection',(0.479425538604,-2.37076022874E-015,0.87758256189)) ;
#48=AXIS2_PLACEMENT_3D(' ',#47,$,$) ;
#55=AXIS2_PLACEMENT_3D('Cylinder Axis2P3D',#52,#53,#54) ;
#59=AXIS2_PLACEMENT_3D('Circle Axis2P3D',#57,#58,$) ;
#75=AXIS2_PLACEMENT_3D('Circle Axis2P3D',#73,#74,$) ;
#94=AXIS2_PLACEMENT_3D('Circle Axis2P3D',#92,#93,$) ;
#99=AXIS2_PLACEMENT_3D('Circle Axis2P3D',#97,#98,$) ;
#112=AXIS2_PLACEMENT_3D('Plane Axis2P3D',#109,#110,#111) ;
#120=AXIS2_PLACEMENT_3D('Circle Axis2P3D',#118,#119,$) ;
#129=AXIS2_PLACEMENT_3D('Circle Axis2P3D',#127,#128,$) ;
#140=AXIS2_PLACEMENT_3D('Plane Axis2P3D',#137,#138,#139) ;
#148=AXIS2_PLACEMENT_3D('Circle Axis2P3D',#146,#147,$) ;
#157=AXIS2_PLACEMENT_3D('Circle Axis2P3D',#155,#156,$) ;
#168=AXIS2_PLACEMENT_3D('Cone Axis2P3D',#165,#166,#167) ;
#181=AXIS2_PLACEMENT_3D('Circle Axis2P3D',#179,#180,$) ;
#195=AXIS2_PLACEMENT_3D('Circle Axis2P3D',#193,#194,$) ;
#208=AXIS2_PLACEMENT_3D('Cone Axis2P3D',#205,#206,#207) ;
#212=AXIS2_PLACEMENT_3D('Circle Axis2P3D',#210,#211,$) ;
#217=AXIS2_PLACEMENT_3D('Circle Axis2P3D',#215,#216,$) ;
#230=AXIS2_PLACEMENT_3D('Cylinder Axis2P3D',#227,#228,#229) ;
#248=AXIS2_PLACEMENT_3D('Circle Axis2P3D',#246,#247,$) ;
#260=AXIS2_PLACEMENT_3D('Circle Axis2P3D',#258,#259,$) ;
#273=AXIS2_PLACEMENT_3D('Plane Axis2P3D',#270,#271,#272) ;
#277=AXIS2_PLACEMENT_3D('Circle Axis2P3D',#275,#276,$) ;
#286=AXIS2_PLACEMENT_3D('Circle Axis2P3D',#284,#285,$) ;
#301=AXIS2_PLACEMENT_3D('Cone Axis2P3D',#298,#299,#300) ;
#323=AXIS2_PLACEMENT_3D('Cone Axis2P3D',#320,#321,#322) ;
#348=AXIS2_PLACEMENT_3D('Circle Axis2P3D',#346,#347,$) ;
#360=AXIS2_PLACEMENT_3D('Circle Axis2P3D',#358,#359,$) ;
#373=AXIS2_PLACEMENT_3D('Cone Axis2P3D',#370,#371,#372) ;
#384=AXIS2_PLACEMENT_3D('Circle Axis2P3D',#382,#383,$) ;
#404=AXIS2_PLACEMENT_3D('Cone Axis2P3D',#401,#402,#403) ;
#408=AXIS2_PLACEMENT_3D('Circle Axis2P3D',#406,#407,$) ;
#421=AXIS2_PLACEMENT_3D('Cylinder Axis2P3D',#418,#419,#420) ;
#425=AXIS2_PLACEMENT_3D('Circle Axis2P3D',#423,#424,$) ;
#451=AXIS2_PLACEMENT_3D('Circle Axis2P3D',#449,#450,$) ;
#464=AXIS2_PLACEMENT_3D('Plane Axis2P3D',#461,#462,#463) ;
#472=AXIS2_PLACEMENT_3D('Circle Axis2P3D',#470,#471,$) ;
#481=AXIS2_PLACEMENT_3D('Circle Axis2P3D',#479,#480,$) ;
#492=AXIS2_PLACEMENT_3D('Cone Axis2P3D',#489,#490,#491) ;
#514=AXIS2_PLACEMENT_3D('Cone Axis2P3D',#511,#512,#513) ;
#40=PRODUCT_DEFINITION_SHAPE(' ',' ',#14) ;
#31=APPROVAL_PERSON_ORGANIZATION(#25,#21,#19) ;
#25=PERSON_AND_ORGANIZATION(#22,#23) ;
#22=PERSON(' ',' ',' ',$,$,$) ;
#23=ORGANIZATION(' ',' ',' ') ;
#21=APPROVAL(#20,' ') ;
#20=APPROVAL_STATUS('not_yet_approved') ;
#19=APPROVAL_ROLE('APPROVER') ;
#13=DATE_AND_TIME(#11,#12) ;
#12=LOCAL_TIME(11,10,46.,#10) ;
#10=COORDINATED_UNIVERSAL_TIME_OFFSET(0,0,.AHEAD.) ;
#86=ORIENTED_EDGE('',*,*,#65,.F.) ;
#87=ORIENTED_EDGE('',*,*,#72,.T.) ;
#88=ORIENTED_EDGE('',*,*,#79,.T.) ;
#89=ORIENTED_EDGE('',*,*,#84,.F.) ;
#103=ORIENTED_EDGE('',*,*,#96,.F.) ;
#104=ORIENTED_EDGE('',*,*,#84,.T.) ;
#105=ORIENTED_EDGE('',*,*,#101,.T.) ;
#106=ORIENTED_EDGE('',*,*,#72,.F.) ;
#115=ORIENTED_EDGE('',*,*,#96,.T.) ;
#116=ORIENTED_EDGE('',*,*,#65,.T.) ;
#133=ORIENTED_EDGE('',*,*,#126,.F.) ;
#134=ORIENTED_EDGE('',*,*,#131,.F.) ;
#143=ORIENTED_EDGE('',*,*,#79,.F.) ;
#144=ORIENTED_EDGE('',*,*,#101,.F.) ;
#161=ORIENTED_EDGE('',*,*,#154,.T.) ;
#162=ORIENTED_EDGE('',*,*,#159,.T.) ;
#199=ORIENTED_EDGE('',*,*,#178,.T.) ;
#200=ORIENTED_EDGE('',*,*,#185,.T.) ;
#201=ORIENTED_EDGE('',*,*,#192,.F.) ;
#202=ORIENTED_EDGE('',*,*,#197,.F.) ;
#221=ORIENTED_EDGE('',*,*,#192,.T.) ;
#222=ORIENTED_EDGE('',*,*,#214,.T.) ;
#223=ORIENTED_EDGE('',*,*,#178,.F.) ;
#224=ORIENTED_EDGE('',*,*,#219,.F.) ;
#252=ORIENTED_EDGE('',*,*,#238,.T.) ;
#253=ORIENTED_EDGE('',*,*,#126,.T.) ;
#254=ORIENTED_EDGE('',*,*,#245,.F.) ;
#255=ORIENTED_EDGE('',*,*,#250,.F.) ;
#264=ORIENTED_EDGE('',*,*,#245,.T.) ;
#265=ORIENTED_EDGE('',*,*,#131,.T.) ;
#266=ORIENTED_EDGE('',*,*,#238,.F.) ;
#267=ORIENTED_EDGE('',*,*,#262,.F.) ;
#290=ORIENTED_EDGE('',*,*,#283,.T.) ;
#291=ORIENTED_EDGE('',*,*,#288,.T.) ;
#294=ORIENTED_EDGE('',*,*,#214,.F.) ;
#295=ORIENTED_EDGE('',*,*,#185,.F.) ;
#314=ORIENTED_EDGE('',*,*,#307,.T.) ;
#315=ORIENTED_EDGE('',*,*,#262,.T.) ;
#316=ORIENTED_EDGE('',*,*,#312,.F.) ;
#317=ORIENTED_EDGE('',*,*,#283,.F.) ;
#326=ORIENTED_EDGE('',*,*,#312,.T.) ;
#327=ORIENTED_EDGE('',*,*,#250,.T.) ;
#328=ORIENTED_EDGE('',*,*,#307,.F.) ;
#329=ORIENTED_EDGE('',*,*,#288,.F.) ;
#352=ORIENTED_EDGE('',*,*,#338,.F.) ;
#353=ORIENTED_EDGE('',*,*,#159,.F.) ;
#354=ORIENTED_EDGE('',*,*,#345,.T.) ;
#355=ORIENTED_EDGE('',*,*,#350,.T.) ;
#364=ORIENTED_EDGE('',*,*,#345,.F.) ;
#365=ORIENTED_EDGE('',*,*,#154,.F.) ;
#366=ORIENTED_EDGE('',*,*,#338,.T.) ;
#367=ORIENTED_EDGE('',*,*,#362,.T.) ;
#395=ORIENTED_EDGE('',*,*,#381,.T.) ;
#396=ORIENTED_EDGE('',*,*,#388,.T.) ;
#397=ORIENTED_EDGE('',*,*,#393,.F.) ;
#398=ORIENTED_EDGE('',*,*,#362,.F.) ;
#412=ORIENTED_EDGE('',*,*,#393,.T.) ;
#413=ORIENTED_EDGE('',*,*,#410,.T.) ;
#414=ORIENTED_EDGE('',*,*,#381,.F.) ;
#415=ORIENTED_EDGE('',*,*,#350,.F.) ;
#443=ORIENTED_EDGE('',*,*,#431,.F.) ;
#444=ORIENTED_EDGE('',*,*,#436,.T.) ;
#445=ORIENTED_EDGE('',*,*,#219,.T.) ;
#446=ORIENTED_EDGE('',*,*,#441,.F.) ;
#455=ORIENTED_EDGE('',*,*,#453,.F.) ;
#456=ORIENTED_EDGE('',*,*,#441,.T.) ;
#457=ORIENTED_EDGE('',*,*,#197,.T.) ;
#458=ORIENTED_EDGE('',*,*,#436,.F.) ;
#467=ORIENTED_EDGE('',*,*,#410,.F.) ;
#468=ORIENTED_EDGE('',*,*,#388,.F.) ;
#485=ORIENTED_EDGE('',*,*,#478,.T.) ;
#486=ORIENTED_EDGE('',*,*,#483,.T.) ;
#505=ORIENTED_EDGE('',*,*,#498,.T.) ;
#506=ORIENTED_EDGE('',*,*,#453,.T.) ;
#507=ORIENTED_EDGE('',*,*,#503,.F.) ;
#508=ORIENTED_EDGE('',*,*,#478,.F.) ;
#517=ORIENTED_EDGE('',*,*,#503,.T.) ;
#518=ORIENTED_EDGE('',*,*,#431,.T.) ;
#519=ORIENTED_EDGE('',*,*,#498,.F.) ;
#520=ORIENTED_EDGE('',*,*,#483,.F.) ;
#135=FACE_BOUND('',#132,.T.) ;
#163=FACE_BOUND('',#160,.T.) ;
#296=FACE_BOUND('',#293,.T.) ;
#487=FACE_BOUND('',#484,.T.) ;
#51=CLOSED_SHELL('Closed Shell',(#91,#108,#136,#164,#204,#226,#257,#269,#297,#319,#331,#357,#369,#400,#417,#448,#460,#488,#510,#522)) ;
#68=VECTOR('Line Direction',#67,1.) ;
#82=VECTOR('Line Direction',#81,1.) ;
#172=VECTOR('Line Direction',#171,1.) ;
#188=VECTOR('Line Direction',#187,1.) ;
#234=VECTOR('Line Direction',#233,1.) ;
#241=VECTOR('Line Direction',#240,1.) ;
#305=VECTOR('Line Direction',#304,1.) ;
#310=VECTOR('Line Direction',#309,1.) ;
#334=VECTOR('Line Direction',#333,1.) ;
#341=VECTOR('Line Direction',#340,1.) ;
#377=VECTOR('Line Direction',#376,1.) ;
#391=VECTOR('Line Direction',#390,1.) ;
#434=VECTOR('Line Direction',#433,1.) ;
#439=VECTOR('Line Direction',#438,1.) ;
#496=VECTOR('Line Direction',#495,1.) ;
#501=VECTOR('Line Direction',#500,1.) ;
#524=ADVANCED_BREP_SHAPE_REPRESENTATION('NONE',(#523),#46) ;
#49=SHAPE_REPRESENTATION(' ',(#48),#46) ;
#91=ADVANCED_FACE('Corps principal',(#90),#56,.T.) ;
#108=ADVANCED_FACE('Corps principal',(#107),#56,.T.) ;
#136=ADVANCED_FACE('Corps principal',(#117,#135),#113,.T.) ;
#164=ADVANCED_FACE('Corps principal',(#145,#163),#141,.F.) ;
#204=ADVANCED_FACE('Corps principal',(#203),#169,.F.) ;
#226=ADVANCED_FACE('Corps principal',(#225),#209,.F.) ;
#257=ADVANCED_FACE('Corps principal',(#256),#231,.T.) ;
#269=ADVANCED_FACE('Corps principal',(#268),#231,.T.) ;
#297=ADVANCED_FACE('Corps principal',(#292,#296),#274,.T.) ;
#319=ADVANCED_FACE('Corps principal',(#318),#302,.T.) ;
#331=ADVANCED_FACE('Corps principal',(#330),#324,.T.) ;
#357=ADVANCED_FACE('Corps principal',(#356),#231,.T.) ;
#369=ADVANCED_FACE('Corps principal',(#368),#231,.T.) ;
#400=ADVANCED_FACE('Corps principal',(#399),#374,.T.) ;
#417=ADVANCED_FACE('Corps principal',(#416),#405,.T.) ;
#448=ADVANCED_FACE('Corps principal',(#447),#422,.F.) ;
#460=ADVANCED_FACE('Corps principal',(#459),#422,.F.) ;
#488=ADVANCED_FACE('Corps principal',(#469,#487),#465,.F.) ;
#510=ADVANCED_FACE('Corps principal',(#509),#493,.F.) ;
#522=ADVANCED_FACE('Corps principal',(#521),#515,.F.) ;
#4=APPLICATION_PROTOCOL_DEFINITION('international standard','config_control_design',1994,#1) ;
#32=APPROVAL_DATE_TIME(#13,#21) ;
#523=MANIFOLD_SOLID_BREP('Corps principal',#51) ;
#11=CALENDAR_DATE(2024,25,2) ;
#30=CC_DESIGN_APPROVAL(#21,(#16,#6,#14)) ;
#18=CC_DESIGN_DATE_AND_TIME_ASSIGNMENT(#13,#17,(#16)) ;
#29=CC_DESIGN_DATE_AND_TIME_ASSIGNMENT(#13,#28,(#14)) ;
#17=DATE_TIME_ROLE('classification_date') ;
#28=DATE_TIME_ROLE('creation_date') ;
#27=CC_DESIGN_PERSON_AND_ORGANIZATION_ASSIGNMENT(#25,#26,(#16)) ;
#33=CC_DESIGN_PERSON_AND_ORGANIZATION_ASSIGNMENT(#25,#34,(#6)) ;
#35=CC_DESIGN_PERSON_AND_ORGANIZATION_ASSIGNMENT(#25,#36,(#6,#14)) ;
#37=CC_DESIGN_PERSON_AND_ORGANIZATION_ASSIGNMENT(#25,#38,(#5)) ;
#26=PERSON_AND_ORGANIZATION_ROLE('classification_officer') ;
#34=PERSON_AND_ORGANIZATION_ROLE('design_supplier') ;
#36=PERSON_AND_ORGANIZATION_ROLE('creator') ;
#38=PERSON_AND_ORGANIZATION_ROLE('design_owner') ;
#39=CC_DESIGN_SECURITY_CLASSIFICATION(#16,(#6)) ;
#60=CIRCLE('generated circle',#59,41.) ;
#76=CIRCLE('generated circle',#75,41.) ;
#95=CIRCLE('generated circle',#94,41.) ;
#100=CIRCLE('generated circle',#99,41.) ;
#121=CIRCLE('generated circle',#120,30.5) ;
#130=CIRCLE('generated circle',#129,30.5) ;
#149=CIRCLE('generated circle',#148,30.5) ;
#158=CIRCLE('generated circle',#157,30.5) ;
#182=CIRCLE('generated circle',#181,26.25) ;
#196=CIRCLE('generated circle',#195,25.25) ;
#213=CIRCLE('generated circle',#212,26.25) ;
#218=CIRCLE('generated circle',#217,25.25) ;
#249=CIRCLE('generated circle',#248,30.5) ;
#261=CIRCLE('generated circle',#260,30.5) ;
#278=CIRCLE('generated circle',#277,29.5) ;
#287=CIRCLE('generated circle',#286,29.5) ;
#349=CIRCLE('generated circle',#348,30.5) ;
#361=CIRCLE('generated circle',#360,30.5) ;
#385=CIRCLE('generated circle',#384,29.5) ;
#409=CIRCLE('generated circle',#408,29.5) ;
#426=CIRCLE('generated circle',#425,25.25) ;
#452=CIRCLE('generated circle',#451,25.25) ;
#473=CIRCLE('generated circle',#472,26.25) ;
#482=CIRCLE('generated circle',#481,26.25) ;
#169=CONICAL_SURFACE('Cone',#168,0.,0.785398163397) ;
#209=CONICAL_SURFACE('Cone',#208,0.,0.785398163397) ;
#302=CONICAL_SURFACE('Cone',#301,0.,0.785398163397) ;
#324=CONICAL_SURFACE('Cone',#323,0.,0.785398163397) ;
#374=CONICAL_SURFACE('Cone',#373,0.,0.785398163397) ;
#405=CONICAL_SURFACE('Cone',#404,0.,0.785398163397) ;
#493=CONICAL_SURFACE('Cone',#492,0.,0.785398163397) ;
#515=CONICAL_SURFACE('Cone',#514,0.,0.785398163397) ;
#525=SHAPE_REPRESENTATION_RELATIONSHIP(' ',' ',#49,#524) ;
#56=CYLINDRICAL_SURFACE('generated cylinder',#55,41.) ;
#231=CYLINDRICAL_SURFACE('generated cylinder',#230,30.5) ;
#422=CYLINDRICAL_SURFACE('generated cylinder',#421,25.25) ;
#3=DESIGN_CONTEXT(' ',#1,'design') ;
#65=EDGE_CURVE('',#62,#64,#60,.T.) ;
#72=EDGE_CURVE('',#62,#71,#69,.F.) ;
#79=EDGE_CURVE('',#71,#78,#76,.T.) ;
#84=EDGE_CURVE('',#64,#78,#83,.F.) ;
#96=EDGE_CURVE('',#64,#62,#95,.T.) ;
#101=EDGE_CURVE('',#78,#71,#100,.T.) ;
#126=EDGE_CURVE('',#123,#125,#121,.T.) ;
#131=EDGE_CURVE('',#125,#123,#130,.T.) ;
#154=EDGE_CURVE('',#151,#153,#149,.T.) ;
#159=EDGE_CURVE('',#153,#151,#158,.T.) ;
#178=EDGE_CURVE('',#175,#177,#173,.T.) ;
#185=EDGE_CURVE('',#177,#184,#182,.T.) ;
#192=EDGE_CURVE('',#191,#184,#189,.T.) ;
#197=EDGE_CURVE('',#175,#191,#196,.T.) ;
#214=EDGE_CURVE('',#184,#177,#213,.T.) ;
#219=EDGE_CURVE('',#191,#175,#218,.T.) ;
#238=EDGE_CURVE('',#237,#123,#235,.F.) ;
#245=EDGE_CURVE('',#244,#125,#242,.F.) ;
#250=EDGE_CURVE('',#237,#244,#249,.T.) ;
#262=EDGE_CURVE('',#244,#237,#261,.T.) ;
#283=EDGE_CURVE('',#280,#282,#278,.T.) ;
#288=EDGE_CURVE('',#282,#280,#287,.T.) ;
#307=EDGE_CURVE('',#280,#244,#306,.T.) ;
#312=EDGE_CURVE('',#282,#237,#311,.T.) ;
#338=EDGE_CURVE('',#151,#337,#335,.F.) ;
#345=EDGE_CURVE('',#153,#344,#342,.F.) ;
#350=EDGE_CURVE('',#344,#337,#349,.T.) ;
#362=EDGE_CURVE('',#337,#344,#361,.T.) ;
#381=EDGE_CURVE('',#337,#380,#378,.F.) ;
#388=EDGE_CURVE('',#380,#387,#385,.T.) ;
#393=EDGE_CURVE('',#344,#387,#392,.F.) ;
#410=EDGE_CURVE('',#387,#380,#409,.T.) ;
#431=EDGE_CURVE('',#428,#430,#426,.T.) ;
#436=EDGE_CURVE('',#428,#191,#435,.T.) ;
#441=EDGE_CURVE('',#430,#175,#440,.T.) ;
#453=EDGE_CURVE('',#430,#428,#452,.T.) ;
#478=EDGE_CURVE('',#475,#477,#473,.T.) ;
#483=EDGE_CURVE('',#477,#475,#482,.T.) ;
#498=EDGE_CURVE('',#475,#430,#497,.F.) ;
#503=EDGE_CURVE('',#477,#428,#502,.F.) ;
#85=EDGE_LOOP('',(#86,#87,#88,#89)) ;
#102=EDGE_LOOP('',(#103,#104,#105,#106)) ;
#114=EDGE_LOOP('',(#115,#116)) ;
#132=EDGE_LOOP('',(#133,#134)) ;
#142=EDGE_LOOP('',(#143,#144)) ;
#160=EDGE_LOOP('',(#161,#162)) ;
#198=EDGE_LOOP('',(#199,#200,#201,#202)) ;
#220=EDGE_LOOP('',(#221,#222,#223,#224)) ;
#251=EDGE_LOOP('',(#252,#253,#254,#255)) ;
#263=EDGE_LOOP('',(#264,#265,#266,#267)) ;
#289=EDGE_LOOP('',(#290,#291)) ;
#293=EDGE_LOOP('',(#294,#295)) ;
#313=EDGE_LOOP('',(#314,#315,#316,#317)) ;
#325=EDGE_LOOP('',(#326,#327,#328,#329)) ;
#351=EDGE_LOOP('',(#352,#353,#354,#355)) ;
#363=EDGE_LOOP('',(#364,#365,#366,#367)) ;
#394=EDGE_LOOP('',(#395,#396,#397,#398)) ;
#411=EDGE_LOOP('',(#412,#413,#414,#415)) ;
#442=EDGE_LOOP('',(#443,#444,#445,#446)) ;
#454=EDGE_LOOP('',(#455,#456,#457,#458)) ;
#466=EDGE_LOOP('',(#467,#468)) ;
#484=EDGE_LOOP('',(#485,#486)) ;
#504=EDGE_LOOP('',(#505,#506,#507,#508)) ;
#516=EDGE_LOOP('',(#517,#518,#519,#520)) ;
#90=FACE_OUTER_BOUND('',#85,.T.) ;
#107=FACE_OUTER_BOUND('',#102,.T.) ;
#117=FACE_OUTER_BOUND('',#114,.T.) ;
#145=FACE_OUTER_BOUND('',#142,.T.) ;
#203=FACE_OUTER_BOUND('',#198,.T.) ;
#225=FACE_OUTER_BOUND('',#220,.T.) ;
#256=FACE_OUTER_BOUND('',#251,.T.) ;
#268=FACE_OUTER_BOUND('',#263,.T.) ;
#292=FACE_OUTER_BOUND('',#289,.T.) ;
#318=FACE_OUTER_BOUND('',#313,.T.) ;
#330=FACE_OUTER_BOUND('',#325,.T.) ;
#356=FACE_OUTER_BOUND('',#351,.T.) ;
#368=FACE_OUTER_BOUND('',#363,.T.) ;
#399=FACE_OUTER_BOUND('',#394,.T.) ;
#416=FACE_OUTER_BOUND('',#411,.T.) ;
#447=FACE_OUTER_BOUND('',#442,.T.) ;
#459=FACE_OUTER_BOUND('',#454,.T.) ;
#469=FACE_OUTER_BOUND('',#466,.T.) ;
#509=FACE_OUTER_BOUND('',#504,.T.) ;
#521=FACE_OUTER_BOUND('',#516,.T.) ;
#45=UNCERTAINTY_MEASURE_WITH_UNIT(LENGTH_MEASURE(0.005),#41,'distance_accuracy_value','CONFUSED CURVE UNCERTAINTY') ;
#69=LINE('Line',#66,#68) ;
#83=LINE('Line',#80,#82) ;
#173=LINE('Line',#170,#172) ;
#189=LINE('Line',#186,#188) ;
#235=LINE('Line',#232,#234) ;
#242=LINE('Line',#239,#241) ;
#306=LINE('Line',#303,#305) ;
#311=LINE('Line',#308,#310) ;
#335=LINE('Line',#332,#334) ;
#342=LINE('Line',#339,#341) ;
#378=LINE('Line',#375,#377) ;
#392=LINE('Line',#389,#391) ;
#435=LINE('Line',#432,#434) ;
#440=LINE('Line',#437,#439) ;
#497=LINE('Line',#494,#496) ;
#502=LINE('Line',#499,#501) ;
#2=MECHANICAL_CONTEXT(' ',#1,'mechanical') ;
#24=PERSONAL_ADDRESS(' ',' ',' ',' ',' ',' ',' ',' ',' ',' ',' ',' ',(#22),' ') ;
#113=PLANE('Plane',#112) ;
#141=PLANE('Plane',#140) ;
#274=PLANE('Plane',#273) ;
#465=PLANE('Plane',#464) ;
#43=PLANE_ANGLE_MEASURE_WITH_UNIT(PLANE_ANGLE_MEASURE(0.0174532925199),#42) ;
#7=PRODUCT_CATEGORY('part',$) ;
#9=PRODUCT_CATEGORY_RELATIONSHIP(' ',' ',#7,#8) ;
#6=PRODUCT_DEFINITION_FORMATION_WITH_SPECIFIED_SOURCE('',' ',#5,.NOT_KNOWN.) ;
#8=PRODUCT_RELATED_PRODUCT_CATEGORY('detail',$,(#5)) ;
#50=SHAPE_DEFINITION_REPRESENTATION(#40,#49) ;
#62=VERTEX_POINT('',#61) ;
#64=VERTEX_POINT('',#63) ;
#71=VERTEX_POINT('',#70) ;
#78=VERTEX_POINT('',#77) ;
#123=VERTEX_POINT('',#122) ;
#125=VERTEX_POINT('',#124) ;
#151=VERTEX_POINT('',#150) ;
#153=VERTEX_POINT('',#152) ;
#175=VERTEX_POINT('',#174) ;
#177=VERTEX_POINT('',#176) ;
#184=VERTEX_POINT('',#183) ;
#191=VERTEX_POINT('',#190) ;
#237=VERTEX_POINT('',#236) ;
#244=VERTEX_POINT('',#243) ;
#280=VERTEX_POINT('',#279) ;
#282=VERTEX_POINT('',#281) ;
#337=VERTEX_POINT('',#336) ;
#344=VERTEX_POINT('',#343) ;
#380=VERTEX_POINT('',#379) ;
#387=VERTEX_POINT('',#386) ;
#428=VERTEX_POINT('',#427) ;
#430=VERTEX_POINT('',#429) ;
#475=VERTEX_POINT('',#474) ;
#477=VERTEX_POINT('',#476) ;
#41=(LENGTH_UNIT()NAMED_UNIT(*)SI_UNIT(.MILLI.,.METRE.)) ;
#42=(NAMED_UNIT(*)PLANE_ANGLE_UNIT()SI_UNIT($,.RADIAN.)) ;
#44=(NAMED_UNIT(*)SI_UNIT($,.STERADIAN.)SOLID_ANGLE_UNIT()) ;
#46=(GEOMETRIC_REPRESENTATION_CONTEXT(3)GLOBAL_UNCERTAINTY_ASSIGNED_CONTEXT((#45))GLOBAL_UNIT_ASSIGNED_CONTEXT((#41,#42,#44))REPRESENTATION_CONTEXT(' ',' ')) ;
ENDSEC;
END-ISO-10303-21;
