ISO-10303-21;
HEADER;
/* Generated by software containing ST-Developer
 * from STEP Tools, Inc. (www.steptools.com) 
 */

FILE_DESCRIPTION(
/* description */ (''),
/* implementation_level */ '2;1');

FILE_NAME(
/* name */ 'support_canne_bras_droit v1.step',
/* time_stamp */ '2024-02-18T11:15:49+01:00',
/* author */ (''),
/* organization */ (''),
/* preprocessor_version */ 'ST-DEVELOPER v20',
/* originating_system */ 'Autodesk Translation Framework v12.14.0.127',

/* authorisation */ '');

FILE_SCHEMA (('AUTOMOTIVE_DESIGN { 1 0 10303 214 3 1 1 }'));
ENDSEC;

DATA;
#10=MECHANICAL_DESIGN_GEOMETRIC_PRESENTATION_REPRESENTATION('',(#13),#241);
#11=SHAPE_REPRESENTATION_RELATIONSHIP('SRR','None',#248,#12);
#12=ADVANCED_BREP_SHAPE_REPRESENTATION('',(#14),#240);
#13=STYLED_ITEM('',(#258),#14);
#14=MANIFOLD_SOLID_BREP('Corps1',#128);
#15=TOROIDAL_SURFACE('',#149,82.1365079365078,69.4365079365078);
#16=LINE('',#214,#20);
#17=LINE('',#225,#21);
#18=LINE('',#232,#22);
#19=LINE('',#237,#23);
#20=VECTOR('',#173,6.25);
#21=VECTOR('',#188,19.);
#22=VECTOR('',#197,7.00000000000001);
#23=VECTOR('',#204,4.);
#24=CYLINDRICAL_SURFACE('',#145,6.25);
#25=CYLINDRICAL_SURFACE('',#152,19.);
#26=CYLINDRICAL_SURFACE('',#156,7.00000000000001);
#27=CYLINDRICAL_SURFACE('',#160,4.);
#28=FACE_BOUND('',#42,.T.);
#29=FACE_BOUND('',#45,.T.);
#30=FACE_BOUND('',#49,.T.);
#31=FACE_BOUND('',#52,.T.);
#32=FACE_OUTER_BOUND('',#41,.T.);
#33=FACE_OUTER_BOUND('',#43,.T.);
#34=FACE_OUTER_BOUND('',#44,.T.);
#35=FACE_OUTER_BOUND('',#46,.T.);
#36=FACE_OUTER_BOUND('',#47,.T.);
#37=FACE_OUTER_BOUND('',#48,.T.);
#38=FACE_OUTER_BOUND('',#50,.T.);
#39=FACE_OUTER_BOUND('',#51,.T.);
#40=FACE_OUTER_BOUND('',#53,.T.);
#41=EDGE_LOOP('',(#87));
#42=EDGE_LOOP('',(#88));
#43=EDGE_LOOP('',(#89,#90,#91,#92));
#44=EDGE_LOOP('',(#93));
#45=EDGE_LOOP('',(#94));
#46=EDGE_LOOP('',(#95,#96,#97,#98));
#47=EDGE_LOOP('',(#99,#100,#101,#102));
#48=EDGE_LOOP('',(#103));
#49=EDGE_LOOP('',(#104));
#50=EDGE_LOOP('',(#105,#106,#107,#108));
#51=EDGE_LOOP('',(#109));
#52=EDGE_LOOP('',(#110));
#53=EDGE_LOOP('',(#111,#112,#113,#114));
#54=CIRCLE('',#143,6.25);
#55=CIRCLE('',#144,4.);
#56=CIRCLE('',#146,6.25000000000001);
#57=CIRCLE('',#148,12.7);
#58=CIRCLE('',#150,69.4365079365078);
#59=CIRCLE('',#151,19.);
#60=CIRCLE('',#153,19.);
#61=CIRCLE('',#155,7.00000000000001);
#62=CIRCLE('',#157,7.00000000000001);
#63=CIRCLE('',#159,4.);
#64=VERTEX_POINT('',#207);
#65=VERTEX_POINT('',#209);
#66=VERTEX_POINT('',#212);
#67=VERTEX_POINT('',#216);
#68=VERTEX_POINT('',#219);
#69=VERTEX_POINT('',#223);
#70=VERTEX_POINT('',#227);
#71=VERTEX_POINT('',#230);
#72=VERTEX_POINT('',#234);
#73=EDGE_CURVE('',#64,#64,#54,.T.);
#74=EDGE_CURVE('',#65,#65,#55,.T.);
#75=EDGE_CURVE('',#66,#66,#56,.T.);
#76=EDGE_CURVE('',#66,#64,#16,.T.);
#77=EDGE_CURVE('',#67,#67,#57,.T.);
#78=EDGE_CURVE('',#67,#68,#58,.T.);
#79=EDGE_CURVE('',#68,#68,#59,.T.);
#80=EDGE_CURVE('',#69,#69,#60,.T.);
#81=EDGE_CURVE('',#69,#68,#17,.T.);
#82=EDGE_CURVE('',#70,#70,#61,.T.);
#83=EDGE_CURVE('',#71,#71,#62,.T.);
#84=EDGE_CURVE('',#71,#70,#18,.T.);
#85=EDGE_CURVE('',#72,#72,#63,.T.);
#86=EDGE_CURVE('',#72,#65,#19,.T.);
#87=ORIENTED_EDGE('',*,*,#73,.F.);
#88=ORIENTED_EDGE('',*,*,#74,.T.);
#89=ORIENTED_EDGE('',*,*,#75,.F.);
#90=ORIENTED_EDGE('',*,*,#76,.T.);
#91=ORIENTED_EDGE('',*,*,#73,.T.);
#92=ORIENTED_EDGE('',*,*,#76,.F.);
#93=ORIENTED_EDGE('',*,*,#77,.F.);
#94=ORIENTED_EDGE('',*,*,#75,.T.);
#95=ORIENTED_EDGE('',*,*,#77,.T.);
#96=ORIENTED_EDGE('',*,*,#78,.T.);
#97=ORIENTED_EDGE('',*,*,#79,.F.);
#98=ORIENTED_EDGE('',*,*,#78,.F.);
#99=ORIENTED_EDGE('',*,*,#80,.F.);
#100=ORIENTED_EDGE('',*,*,#81,.T.);
#101=ORIENTED_EDGE('',*,*,#79,.T.);
#102=ORIENTED_EDGE('',*,*,#81,.F.);
#103=ORIENTED_EDGE('',*,*,#80,.T.);
#104=ORIENTED_EDGE('',*,*,#82,.F.);
#105=ORIENTED_EDGE('',*,*,#83,.F.);
#106=ORIENTED_EDGE('',*,*,#84,.T.);
#107=ORIENTED_EDGE('',*,*,#82,.T.);
#108=ORIENTED_EDGE('',*,*,#84,.F.);
#109=ORIENTED_EDGE('',*,*,#83,.T.);
#110=ORIENTED_EDGE('',*,*,#85,.F.);
#111=ORIENTED_EDGE('',*,*,#85,.T.);
#112=ORIENTED_EDGE('',*,*,#86,.T.);
#113=ORIENTED_EDGE('',*,*,#74,.F.);
#114=ORIENTED_EDGE('',*,*,#86,.F.);
#115=PLANE('',#142);
#116=PLANE('',#147);
#117=PLANE('',#154);
#118=PLANE('',#158);
#119=ADVANCED_FACE('',(#32,#28),#115,.T.);
#120=ADVANCED_FACE('',(#33),#24,.T.);
#121=ADVANCED_FACE('',(#34,#29),#116,.T.);
#122=ADVANCED_FACE('',(#35),#15,.F.);
#123=ADVANCED_FACE('',(#36),#25,.T.);
#124=ADVANCED_FACE('',(#37,#30),#117,.T.);
#125=ADVANCED_FACE('',(#38),#26,.T.);
#126=ADVANCED_FACE('',(#39,#31),#118,.T.);
#127=ADVANCED_FACE('',(#40),#27,.F.);
#128=CLOSED_SHELL('',(#119,#120,#121,#122,#123,#124,#125,#126,#127));
#129=DERIVED_UNIT_ELEMENT(#131,1.);
#130=DERIVED_UNIT_ELEMENT(#243,-3.);
#131=(
MASS_UNIT()
NAMED_UNIT(*)
SI_UNIT(.KILO.,.GRAM.)
);
#132=DERIVED_UNIT((#129,#130));
#133=MEASURE_REPRESENTATION_ITEM('density measure',
POSITIVE_RATIO_MEASURE(7850.),#132);
#134=PROPERTY_DEFINITION_REPRESENTATION(#139,#136);
#135=PROPERTY_DEFINITION_REPRESENTATION(#140,#137);
#136=REPRESENTATION('material name',(#138),#240);
#137=REPRESENTATION('density',(#133),#240);
#138=DESCRIPTIVE_REPRESENTATION_ITEM('Acier','Acier');
#139=PROPERTY_DEFINITION('material property','material name',#250);
#140=PROPERTY_DEFINITION('material property','density of part',#250);
#141=AXIS2_PLACEMENT_3D('',#205,#161,#162);
#142=AXIS2_PLACEMENT_3D('',#206,#163,#164);
#143=AXIS2_PLACEMENT_3D('',#208,#165,#166);
#144=AXIS2_PLACEMENT_3D('',#210,#167,#168);
#145=AXIS2_PLACEMENT_3D('',#211,#169,#170);
#146=AXIS2_PLACEMENT_3D('',#213,#171,#172);
#147=AXIS2_PLACEMENT_3D('',#215,#174,#175);
#148=AXIS2_PLACEMENT_3D('',#217,#176,#177);
#149=AXIS2_PLACEMENT_3D('',#218,#178,#179);
#150=AXIS2_PLACEMENT_3D('',#220,#180,#181);
#151=AXIS2_PLACEMENT_3D('',#221,#182,#183);
#152=AXIS2_PLACEMENT_3D('',#222,#184,#185);
#153=AXIS2_PLACEMENT_3D('',#224,#186,#187);
#154=AXIS2_PLACEMENT_3D('',#226,#189,#190);
#155=AXIS2_PLACEMENT_3D('',#228,#191,#192);
#156=AXIS2_PLACEMENT_3D('',#229,#193,#194);
#157=AXIS2_PLACEMENT_3D('',#231,#195,#196);
#158=AXIS2_PLACEMENT_3D('',#233,#198,#199);
#159=AXIS2_PLACEMENT_3D('',#235,#200,#201);
#160=AXIS2_PLACEMENT_3D('',#236,#202,#203);
#161=DIRECTION('axis',(0.,0.,1.));
#162=DIRECTION('refdir',(1.,0.,0.));
#163=DIRECTION('center_axis',(0.,-1.,2.11874623020068E-17));
#164=DIRECTION('ref_axis',(0.,-2.11874623020068E-17,-1.));
#165=DIRECTION('center_axis',(0.,1.,-2.11874623020068E-17));
#166=DIRECTION('ref_axis',(1.,0.,0.));
#167=DIRECTION('center_axis',(0.,1.,-2.11874623020068E-17));
#168=DIRECTION('ref_axis',(1.,0.,0.));
#169=DIRECTION('center_axis',(0.,1.,-2.11874623020068E-17));
#170=DIRECTION('ref_axis',(0.,0.,1.));
#171=DIRECTION('center_axis',(0.,1.,-2.11874623020068E-17));
#172=DIRECTION('ref_axis',(1.,0.,0.));
#173=DIRECTION('',(0.,-1.,2.11874623020068E-17));
#174=DIRECTION('center_axis',(0.,-1.,2.11874623020068E-17));
#175=DIRECTION('ref_axis',(0.,-2.11874623020068E-17,-1.));
#176=DIRECTION('center_axis',(0.,1.,-2.11874623020068E-17));
#177=DIRECTION('ref_axis',(1.,0.,0.));
#178=DIRECTION('center_axis',(0.,1.,-2.11874623020068E-17));
#179=DIRECTION('ref_axis',(0.,0.,1.));
#180=DIRECTION('center_axis',(-1.,2.59471578902078E-33,1.22464679914735E-16));
#181=DIRECTION('ref_axis',(-1.22464679914735E-16,-1.46493492688075E-17,
-1.));
#182=DIRECTION('center_axis',(0.,1.,-2.11874623020068E-17));
#183=DIRECTION('ref_axis',(1.,0.,0.));
#184=DIRECTION('center_axis',(0.,1.,-2.11874623020068E-17));
#185=DIRECTION('ref_axis',(0.,0.,1.));
#186=DIRECTION('center_axis',(0.,1.,-2.11874623020068E-17));
#187=DIRECTION('ref_axis',(1.,0.,0.));
#188=DIRECTION('',(0.,-1.,2.11874623020068E-17));
#189=DIRECTION('center_axis',(0.,1.,-2.11874623020068E-17));
#190=DIRECTION('ref_axis',(0.,2.11874623020068E-17,1.));
#191=DIRECTION('center_axis',(0.,1.,-2.11874623020068E-17));
#192=DIRECTION('ref_axis',(1.,0.,0.));
#193=DIRECTION('center_axis',(0.,1.,-2.11874623020068E-17));
#194=DIRECTION('ref_axis',(0.,0.,1.));
#195=DIRECTION('center_axis',(0.,1.,-2.11874623020068E-17));
#196=DIRECTION('ref_axis',(1.,0.,0.));
#197=DIRECTION('',(0.,-1.,2.11874623020068E-17));
#198=DIRECTION('center_axis',(0.,1.,-2.11874623020068E-17));
#199=DIRECTION('ref_axis',(0.,2.11874623020068E-17,1.));
#200=DIRECTION('center_axis',(0.,1.,-2.11874623020068E-17));
#201=DIRECTION('ref_axis',(1.,0.,0.));
#202=DIRECTION('center_axis',(0.,1.,-2.11874623020068E-17));
#203=DIRECTION('ref_axis',(0.,0.,1.));
#204=DIRECTION('',(0.,-1.,2.11874623020068E-17));
#205=CARTESIAN_POINT('',(0.,0.,0.));
#206=CARTESIAN_POINT('Origin',(0.,-1.16980902568158E-15,6.25));
#207=CARTESIAN_POINT('',(-7.65404249467096E-16,0.,-6.25));
#208=CARTESIAN_POINT('Origin',(0.,0.,0.));
#209=CARTESIAN_POINT('',(-4.89858719658941E-16,0.,-4.));
#210=CARTESIAN_POINT('Origin',(0.,0.,0.));
#211=CARTESIAN_POINT('Origin',(0.,9.,-1.90687160718061E-16));
#212=CARTESIAN_POINT('',(-7.65404249467096E-16,18.,-6.25));
#213=CARTESIAN_POINT('Origin',(0.,18.,-3.81374321436122E-16));
#214=CARTESIAN_POINT('',(-7.65404249467096E-16,9.,-6.25));
#215=CARTESIAN_POINT('Origin',(0.,18.,12.7));
#216=CARTESIAN_POINT('',(-1.55530143491714E-15,18.,-12.7));
#217=CARTESIAN_POINT('Origin',(0.,18.,-3.81374321436122E-16));
#218=CARTESIAN_POINT('Origin',(0.,18.,-3.81374321436122E-16));
#219=CARTESIAN_POINT('',(-2.32682891837998E-15,46.9,-19.));
#220=CARTESIAN_POINT('Origin',(-1.00588211537585E-14,18.,-82.1365079365078));
#221=CARTESIAN_POINT('Origin',(0.,46.9,-9.9369198196412E-16));
#222=CARTESIAN_POINT('Origin',(0.,47.65,-1.00958257869062E-15));
#223=CARTESIAN_POINT('',(-2.32682891837997E-15,48.4,-19.));
#224=CARTESIAN_POINT('Origin',(0.,48.4,-1.02547317541713E-15));
#225=CARTESIAN_POINT('',(-2.32682891837997E-15,47.65,-19.));
#226=CARTESIAN_POINT('Origin',(0.,48.4,7.00000000000001));
#227=CARTESIAN_POINT('',(-8.57252759403148E-16,48.4,-7.00000000000001));
#228=CARTESIAN_POINT('Origin',(0.,48.4,-1.02547317541713E-15));
#229=CARTESIAN_POINT('Origin',(0.,50.4,-1.06784810002114E-15));
#230=CARTESIAN_POINT('',(-8.57252759403148E-16,52.4,-7.00000000000001));
#231=CARTESIAN_POINT('Origin',(0.,52.4,-1.11022302462516E-15));
#232=CARTESIAN_POINT('',(-8.57252759403148E-16,50.4,-7.00000000000001));
#233=CARTESIAN_POINT('Origin',(0.,52.4,4.));
#234=CARTESIAN_POINT('',(-4.89858719658941E-16,52.4,-4.));
#235=CARTESIAN_POINT('Origin',(0.,52.4,-1.11022302462516E-15));
#236=CARTESIAN_POINT('Origin',(0.,26.2,-5.55111512312578E-16));
#237=CARTESIAN_POINT('',(-4.89858719658941E-16,26.2,-4.));
#238=UNCERTAINTY_MEASURE_WITH_UNIT(LENGTH_MEASURE(0.01),#242,
'DISTANCE_ACCURACY_VALUE',
'Maximum model space distance between geometric entities at asserted c
onnectivities');
#239=UNCERTAINTY_MEASURE_WITH_UNIT(LENGTH_MEASURE(0.01),#242,
'DISTANCE_ACCURACY_VALUE',
'Maximum model space distance between geometric entities at asserted c
onnectivities');
#240=(
GEOMETRIC_REPRESENTATION_CONTEXT(3)
GLOBAL_UNCERTAINTY_ASSIGNED_CONTEXT((#238))
GLOBAL_UNIT_ASSIGNED_CONTEXT((#242,#244,#245))
REPRESENTATION_CONTEXT('','3D')
);
#241=(
GEOMETRIC_REPRESENTATION_CONTEXT(3)
GLOBAL_UNCERTAINTY_ASSIGNED_CONTEXT((#239))
GLOBAL_UNIT_ASSIGNED_CONTEXT((#242,#244,#245))
REPRESENTATION_CONTEXT('','3D')
);
#242=(
LENGTH_UNIT()
NAMED_UNIT(*)
SI_UNIT(.MILLI.,.METRE.)
);
#243=(
LENGTH_UNIT()
NAMED_UNIT(*)
SI_UNIT($,.METRE.)
);
#244=(
NAMED_UNIT(*)
PLANE_ANGLE_UNIT()
SI_UNIT($,.RADIAN.)
);
#245=(
NAMED_UNIT(*)
SI_UNIT($,.STERADIAN.)
SOLID_ANGLE_UNIT()
);
#246=SHAPE_DEFINITION_REPRESENTATION(#247,#248);
#247=PRODUCT_DEFINITION_SHAPE('',$,#250);
#248=SHAPE_REPRESENTATION('',(#141),#240);
#249=PRODUCT_DEFINITION_CONTEXT('part definition',#254,'design');
#250=PRODUCT_DEFINITION('support_canne_bras_droit',
'support_canne_bras_droit v1',#251,#249);
#251=PRODUCT_DEFINITION_FORMATION('',$,#256);
#252=PRODUCT_RELATED_PRODUCT_CATEGORY('support_canne_bras_droit v1',
'support_canne_bras_droit v1',(#256));
#253=APPLICATION_PROTOCOL_DEFINITION('international standard',
'automotive_design',2009,#254);
#254=APPLICATION_CONTEXT(
'Core Data for Automotive Mechanical Design Process');
#255=PRODUCT_CONTEXT('part definition',#254,'mechanical');
#256=PRODUCT('support_canne_bras_droit','support_canne_bras_droit v1',$,
(#255));
#257=PRESENTATION_STYLE_ASSIGNMENT((#259));
#258=PRESENTATION_STYLE_ASSIGNMENT((#260));
#259=SURFACE_STYLE_USAGE(.BOTH.,#261);
#260=SURFACE_STYLE_USAGE(.BOTH.,#262);
#261=SURFACE_SIDE_STYLE('',(#263));
#262=SURFACE_SIDE_STYLE('',(#264));
#263=SURFACE_STYLE_FILL_AREA(#265);
#264=SURFACE_STYLE_FILL_AREA(#266);
#265=FILL_AREA_STYLE('Acier - Satin\X\E9',(#267));
#266=FILL_AREA_STYLE('Acier inoxydable - Satin\X\E9',(#268));
#267=FILL_AREA_STYLE_COLOUR('Acier - Satin\X\E9',#269);
#268=FILL_AREA_STYLE_COLOUR('Acier inoxydable - Satin\X\E9',#270);
#269=COLOUR_RGB('Acier - Satin\X\E9',0.627450980392157,0.627450980392157,
0.627450980392157);
#270=COLOUR_RGB('Acier inoxydable - Satin\X\E9',0.796078431372549,0.796078431372549,
0.796078431372549);
ENDSEC;
END-ISO-10303-21;
