ISO-10303-21;
HEADER;
/* Generated by software containing ST-Developer
 * from STEP Tools, Inc. (www.steptools.com) 
 */

FILE_DESCRIPTION(
/* description */ ('ENTRETOISE PLASTIQUE \X\D850/60'),
/* implementation_level */ '2;1');

FILE_NAME(
/* name */ 
'C:\\Users\\Public\\Documents\\Autodesk\\Inventor 2022\\Espace de trav
ail\\Perso\\F007.stp',
/* time_stamp */ '2024-02-08T13:54:12+01:00',
/* author */ ('vvernier'),
/* organization */ (''),
/* preprocessor_version */ 'ST-DEVELOPER v18.1',
/* originating_system */ 'Autodesk Inventor 2022',
/* authorisation */ '');

FILE_SCHEMA (('AUTOMOTIVE_DESIGN { 1 0 10303 214 3 1 1 }'));
ENDSEC;

DATA;
#10=MECHANICAL_DESIGN_GEOMETRIC_PRESENTATION_REPRESENTATION('',(#13),#254);
#11=SHAPE_REPRESENTATION_RELATIONSHIP('SRR','None',#261,#12);
#12=ADVANCED_BREP_SHAPE_REPRESENTATION('',(#14),#253);
#13=STYLED_ITEM('',(#270),#14);
#14=MANIFOLD_SOLID_BREP('Solide1',#131);
#15=FACE_BOUND('',#32,.T.);
#16=FACE_BOUND('',#35,.T.);
#17=PLANE('',#159);
#18=PLANE('',#163);
#19=CYLINDRICAL_SURFACE('',#157,20.);
#20=CYLINDRICAL_SURFACE('',#168,25.);
#21=FACE_OUTER_BOUND('',#29,.T.);
#22=FACE_OUTER_BOUND('',#30,.T.);
#23=FACE_OUTER_BOUND('',#31,.T.);
#24=FACE_OUTER_BOUND('',#33,.T.);
#25=FACE_OUTER_BOUND('',#34,.T.);
#26=FACE_OUTER_BOUND('',#36,.T.);
#27=FACE_OUTER_BOUND('',#37,.T.);
#28=FACE_OUTER_BOUND('',#38,.T.);
#29=EDGE_LOOP('',(#87,#88,#89,#90));
#30=EDGE_LOOP('',(#91,#92,#93,#94));
#31=EDGE_LOOP('',(#95));
#32=EDGE_LOOP('',(#96));
#33=EDGE_LOOP('',(#97,#98,#99,#100));
#34=EDGE_LOOP('',(#101));
#35=EDGE_LOOP('',(#102));
#36=EDGE_LOOP('',(#103,#104,#105,#106,#107));
#37=EDGE_LOOP('',(#108,#109,#110,#111,#112,#113));
#38=EDGE_LOOP('',(#114,#115,#116,#117,#118));
#39=LINE('',#221,#45);
#40=LINE('',#226,#46);
#41=LINE('',#233,#47);
#42=LINE('',#239,#48);
#43=LINE('',#248,#49);
#44=LINE('',#250,#50);
#45=VECTOR('',#178,20.5);
#46=VECTOR('',#185,20.);
#47=VECTOR('',#194,20.5);
#48=VECTOR('',#201,24.5);
#49=VECTOR('',#212,25.);
#50=VECTOR('',#215,24.5);
#51=CIRCLE('',#155,21.);
#52=CIRCLE('',#156,20.);
#53=CIRCLE('',#158,20.);
#54=CIRCLE('',#160,24.);
#55=CIRCLE('',#162,21.);
#56=CIRCLE('',#164,24.);
#57=CIRCLE('',#166,25.);
#58=CIRCLE('',#167,25.);
#59=CIRCLE('',#169,25.);
#60=CIRCLE('',#170,25.);
#61=VERTEX_POINT('',#218);
#62=VERTEX_POINT('',#220);
#63=VERTEX_POINT('',#224);
#64=VERTEX_POINT('',#228);
#65=VERTEX_POINT('',#231);
#66=VERTEX_POINT('',#235);
#67=VERTEX_POINT('',#238);
#68=VERTEX_POINT('',#240);
#69=VERTEX_POINT('',#244);
#70=VERTEX_POINT('',#245);
#71=EDGE_CURVE('',#61,#61,#51,.T.);
#72=EDGE_CURVE('',#61,#62,#39,.T.);
#73=EDGE_CURVE('',#62,#62,#52,.T.);
#74=EDGE_CURVE('',#63,#63,#53,.T.);
#75=EDGE_CURVE('',#63,#62,#40,.T.);
#76=EDGE_CURVE('',#64,#64,#54,.T.);
#77=EDGE_CURVE('',#65,#65,#55,.T.);
#78=EDGE_CURVE('',#65,#63,#41,.T.);
#79=EDGE_CURVE('',#66,#66,#56,.T.);
#80=EDGE_CURVE('',#64,#67,#42,.T.);
#81=EDGE_CURVE('',#67,#68,#57,.T.);
#82=EDGE_CURVE('',#68,#67,#58,.T.);
#83=EDGE_CURVE('',#69,#70,#59,.T.);
#84=EDGE_CURVE('',#70,#69,#60,.T.);
#85=EDGE_CURVE('',#70,#68,#43,.T.);
#86=EDGE_CURVE('',#66,#69,#44,.T.);
#87=ORIENTED_EDGE('',*,*,#71,.T.);
#88=ORIENTED_EDGE('',*,*,#72,.T.);
#89=ORIENTED_EDGE('',*,*,#73,.T.);
#90=ORIENTED_EDGE('',*,*,#72,.F.);
#91=ORIENTED_EDGE('',*,*,#74,.F.);
#92=ORIENTED_EDGE('',*,*,#75,.T.);
#93=ORIENTED_EDGE('',*,*,#73,.F.);
#94=ORIENTED_EDGE('',*,*,#75,.F.);
#95=ORIENTED_EDGE('',*,*,#76,.F.);
#96=ORIENTED_EDGE('',*,*,#71,.F.);
#97=ORIENTED_EDGE('',*,*,#77,.T.);
#98=ORIENTED_EDGE('',*,*,#78,.T.);
#99=ORIENTED_EDGE('',*,*,#74,.T.);
#100=ORIENTED_EDGE('',*,*,#78,.F.);
#101=ORIENTED_EDGE('',*,*,#79,.F.);
#102=ORIENTED_EDGE('',*,*,#77,.F.);
#103=ORIENTED_EDGE('',*,*,#76,.T.);
#104=ORIENTED_EDGE('',*,*,#80,.T.);
#105=ORIENTED_EDGE('',*,*,#81,.T.);
#106=ORIENTED_EDGE('',*,*,#82,.T.);
#107=ORIENTED_EDGE('',*,*,#80,.F.);
#108=ORIENTED_EDGE('',*,*,#83,.F.);
#109=ORIENTED_EDGE('',*,*,#84,.F.);
#110=ORIENTED_EDGE('',*,*,#85,.T.);
#111=ORIENTED_EDGE('',*,*,#81,.F.);
#112=ORIENTED_EDGE('',*,*,#82,.F.);
#113=ORIENTED_EDGE('',*,*,#85,.F.);
#114=ORIENTED_EDGE('',*,*,#79,.T.);
#115=ORIENTED_EDGE('',*,*,#86,.T.);
#116=ORIENTED_EDGE('',*,*,#83,.T.);
#117=ORIENTED_EDGE('',*,*,#84,.T.);
#118=ORIENTED_EDGE('',*,*,#86,.F.);
#119=CONICAL_SURFACE('',#154,20.5,0.785398163397448);
#120=CONICAL_SURFACE('',#161,20.5,0.785398163397448);
#121=CONICAL_SURFACE('',#165,24.5,0.785398163397448);
#122=CONICAL_SURFACE('',#171,24.5,0.785398163397448);
#123=ADVANCED_FACE('',(#21),#119,.F.);
#124=ADVANCED_FACE('',(#22),#19,.F.);
#125=ADVANCED_FACE('',(#23,#15),#17,.F.);
#126=ADVANCED_FACE('',(#24),#120,.F.);
#127=ADVANCED_FACE('',(#25,#16),#18,.T.);
#128=ADVANCED_FACE('',(#26),#121,.T.);
#129=ADVANCED_FACE('',(#27),#20,.T.);
#130=ADVANCED_FACE('',(#28),#122,.T.);
#131=CLOSED_SHELL('',(#123,#124,#125,#126,#127,#128,#129,#130));
#132=DERIVED_UNIT_ELEMENT(#135,1.);
#133=DERIVED_UNIT_ELEMENT(#256,-3.);
#134=DIMENSIONAL_EXPONENTS(1.,0.,0.,0.,0.,0.,0.);
#135=(
CONVERSION_BASED_UNIT('gram',#137)
MASS_UNIT()
NAMED_UNIT(#134)
);
#136=(
MASS_UNIT()
NAMED_UNIT(*)
SI_UNIT(.KILO.,.GRAM.)
);
#137=MASS_MEASURE_WITH_UNIT(MASS_MEASURE(0.001),#136);
#138=DERIVED_UNIT((#132,#133));
#139=MEASURE_REPRESENTATION_ITEM('density measure',
POSITIVE_RATIO_MEASURE(1.06),#138);
#140=PROPERTY_DEFINITION_REPRESENTATION(#145,#142);
#141=PROPERTY_DEFINITION_REPRESENTATION(#146,#143);
#142=REPRESENTATION('material name',(#144),#253);
#143=REPRESENTATION('density',(#139),#253);
#144=DESCRIPTIVE_REPRESENTATION_ITEM('Plastique ABS','Plastique ABS');
#145=PROPERTY_DEFINITION('material property','material name',#263);
#146=PROPERTY_DEFINITION('material property','density of part',#263);
#147=DATE_TIME_ROLE('creation_date');
#148=APPLIED_DATE_AND_TIME_ASSIGNMENT(#149,#147,(#263));
#149=DATE_AND_TIME(#150,#151);
#150=CALENDAR_DATE(2024,2,1);
#151=LOCAL_TIME(0,0,0.,#152);
#152=COORDINATED_UNIVERSAL_TIME_OFFSET(0,0,.BEHIND.);
#153=AXIS2_PLACEMENT_3D('placement',#216,#172,#173);
#154=AXIS2_PLACEMENT_3D('',#217,#174,#175);
#155=AXIS2_PLACEMENT_3D('',#219,#176,#177);
#156=AXIS2_PLACEMENT_3D('',#222,#179,#180);
#157=AXIS2_PLACEMENT_3D('',#223,#181,#182);
#158=AXIS2_PLACEMENT_3D('',#225,#183,#184);
#159=AXIS2_PLACEMENT_3D('',#227,#186,#187);
#160=AXIS2_PLACEMENT_3D('',#229,#188,#189);
#161=AXIS2_PLACEMENT_3D('',#230,#190,#191);
#162=AXIS2_PLACEMENT_3D('',#232,#192,#193);
#163=AXIS2_PLACEMENT_3D('',#234,#195,#196);
#164=AXIS2_PLACEMENT_3D('',#236,#197,#198);
#165=AXIS2_PLACEMENT_3D('',#237,#199,#200);
#166=AXIS2_PLACEMENT_3D('',#241,#202,#203);
#167=AXIS2_PLACEMENT_3D('',#242,#204,#205);
#168=AXIS2_PLACEMENT_3D('',#243,#206,#207);
#169=AXIS2_PLACEMENT_3D('',#246,#208,#209);
#170=AXIS2_PLACEMENT_3D('',#247,#210,#211);
#171=AXIS2_PLACEMENT_3D('',#249,#213,#214);
#172=DIRECTION('axis',(0.,0.,1.));
#173=DIRECTION('refdir',(1.,0.,0.));
#174=DIRECTION('center_axis',(0.,0.,-1.));
#175=DIRECTION('ref_axis',(-1.,0.,0.));
#176=DIRECTION('center_axis',(0.,0.,-1.));
#177=DIRECTION('ref_axis',(-1.,0.,0.));
#178=DIRECTION('',(-0.707106781186548,8.65956056235493E-17,0.707106781186548));
#179=DIRECTION('center_axis',(0.,0.,1.));
#180=DIRECTION('ref_axis',(-1.,0.,0.));
#181=DIRECTION('center_axis',(0.,0.,1.));
#182=DIRECTION('ref_axis',(-1.,0.,0.));
#183=DIRECTION('center_axis',(0.,0.,-1.));
#184=DIRECTION('ref_axis',(-1.,0.,0.));
#185=DIRECTION('',(0.,0.,-1.));
#186=DIRECTION('center_axis',(0.,0.,1.));
#187=DIRECTION('ref_axis',(1.,0.,0.));
#188=DIRECTION('center_axis',(0.,0.,1.));
#189=DIRECTION('ref_axis',(-1.,0.,0.));
#190=DIRECTION('center_axis',(0.,0.,1.));
#191=DIRECTION('ref_axis',(-1.,0.,0.));
#192=DIRECTION('center_axis',(0.,0.,1.));
#193=DIRECTION('ref_axis',(-1.,0.,0.));
#194=DIRECTION('',(-0.707106781186548,-8.65956056235493E-17,-0.707106781186548));
#195=DIRECTION('center_axis',(0.,0.,1.));
#196=DIRECTION('ref_axis',(1.,0.,0.));
#197=DIRECTION('center_axis',(0.,0.,-1.));
#198=DIRECTION('ref_axis',(-1.,0.,0.));
#199=DIRECTION('center_axis',(0.,0.,1.));
#200=DIRECTION('ref_axis',(-1.,0.,0.));
#201=DIRECTION('',(0.707106781186548,-8.65956056235493E-17,0.707106781186548));
#202=DIRECTION('center_axis',(0.,0.,-1.));
#203=DIRECTION('ref_axis',(-1.,0.,0.));
#204=DIRECTION('center_axis',(0.,0.,-1.));
#205=DIRECTION('ref_axis',(-1.,0.,0.));
#206=DIRECTION('center_axis',(0.,0.,1.));
#207=DIRECTION('ref_axis',(1.,0.,0.));
#208=DIRECTION('center_axis',(0.,0.,1.));
#209=DIRECTION('ref_axis',(-1.,0.,0.));
#210=DIRECTION('center_axis',(0.,0.,1.));
#211=DIRECTION('ref_axis',(-1.,0.,0.));
#212=DIRECTION('',(0.,0.,-1.));
#213=DIRECTION('center_axis',(0.,0.,-1.));
#214=DIRECTION('ref_axis',(-1.,0.,0.));
#215=DIRECTION('',(0.707106781186548,8.65956056235493E-17,-0.707106781186548));
#216=CARTESIAN_POINT('',(0.,0.,0.));
#217=CARTESIAN_POINT('Origin',(0.,0.,-19.5));
#218=CARTESIAN_POINT('',(21.,-2.57175827820944E-15,-20.));
#219=CARTESIAN_POINT('Origin',(0.,0.,-20.));
#220=CARTESIAN_POINT('',(20.,2.44929359829471E-15,-19.));
#221=CARTESIAN_POINT('',(20.5,-2.51052593825207E-15,-19.5));
#222=CARTESIAN_POINT('Origin',(0.,0.,-19.));
#223=CARTESIAN_POINT('Origin',(0.,0.,0.));
#224=CARTESIAN_POINT('',(20.,-2.44929359829471E-15,19.));
#225=CARTESIAN_POINT('Origin',(0.,0.,19.));
#226=CARTESIAN_POINT('',(20.,2.44929359829471E-15,0.));
#227=CARTESIAN_POINT('Origin',(0.,0.,-20.));
#228=CARTESIAN_POINT('',(24.,2.93915231795365E-15,-20.));
#229=CARTESIAN_POINT('Origin',(0.,0.,-20.));
#230=CARTESIAN_POINT('Origin',(0.,0.,19.5));
#231=CARTESIAN_POINT('',(21.,2.57175827820944E-15,20.));
#232=CARTESIAN_POINT('Origin',(0.,0.,20.));
#233=CARTESIAN_POINT('',(20.5,2.51052593825207E-15,19.5));
#234=CARTESIAN_POINT('Origin',(0.,0.,20.));
#235=CARTESIAN_POINT('',(24.,-2.93915231795365E-15,20.));
#236=CARTESIAN_POINT('Origin',(0.,0.,20.));
#237=CARTESIAN_POINT('Origin',(0.,0.,-19.5));
#238=CARTESIAN_POINT('',(25.,-3.06161699786838E-15,-19.));
#239=CARTESIAN_POINT('',(24.5,-3.00038465791102E-15,-19.5));
#240=CARTESIAN_POINT('',(-25.,-3.06161699786838E-15,-19.));
#241=CARTESIAN_POINT('Origin',(0.,0.,-19.));
#242=CARTESIAN_POINT('Origin',(0.,0.,-19.));
#243=CARTESIAN_POINT('Origin',(0.,0.,0.));
#244=CARTESIAN_POINT('',(25.,3.06161699786838E-15,19.));
#245=CARTESIAN_POINT('',(-25.,-3.06161699786838E-15,19.));
#246=CARTESIAN_POINT('Origin',(0.,0.,19.));
#247=CARTESIAN_POINT('Origin',(0.,0.,19.));
#248=CARTESIAN_POINT('',(-25.,-3.06161699786838E-15,0.));
#249=CARTESIAN_POINT('Origin',(0.,0.,19.5));
#250=CARTESIAN_POINT('',(24.5,3.00038465791102E-15,19.5));
#251=UNCERTAINTY_MEASURE_WITH_UNIT(LENGTH_MEASURE(0.01),#255,
'DISTANCE_ACCURACY_VALUE',
'Maximum model space distance between geometric entities at asserted c
onnectivities');
#252=UNCERTAINTY_MEASURE_WITH_UNIT(LENGTH_MEASURE(0.01),#255,
'DISTANCE_ACCURACY_VALUE',
'Maximum model space distance between geometric entities at asserted c
onnectivities');
#253=(
GEOMETRIC_REPRESENTATION_CONTEXT(3)
GLOBAL_UNCERTAINTY_ASSIGNED_CONTEXT((#251))
GLOBAL_UNIT_ASSIGNED_CONTEXT((#255,#257,#258))
REPRESENTATION_CONTEXT('','3D')
);
#254=(
GEOMETRIC_REPRESENTATION_CONTEXT(3)
GLOBAL_UNCERTAINTY_ASSIGNED_CONTEXT((#252))
GLOBAL_UNIT_ASSIGNED_CONTEXT((#255,#257,#258))
REPRESENTATION_CONTEXT('','3D')
);
#255=(
LENGTH_UNIT()
NAMED_UNIT(*)
SI_UNIT(.MILLI.,.METRE.)
);
#256=(
LENGTH_UNIT()
NAMED_UNIT(*)
SI_UNIT(.CENTI.,.METRE.)
);
#257=(
NAMED_UNIT(*)
PLANE_ANGLE_UNIT()
SI_UNIT($,.RADIAN.)
);
#258=(
NAMED_UNIT(*)
SI_UNIT($,.STERADIAN.)
SOLID_ANGLE_UNIT()
);
#259=SHAPE_DEFINITION_REPRESENTATION(#260,#261);
#260=PRODUCT_DEFINITION_SHAPE('',$,#263);
#261=SHAPE_REPRESENTATION('',(#153),#253);
#262=PRODUCT_DEFINITION_CONTEXT('part definition',#267,'design');
#263=PRODUCT_DEFINITION('F007','F007',#264,#262);
#264=PRODUCT_DEFINITION_FORMATION('',$,#269);
#265=PRODUCT_RELATED_PRODUCT_CATEGORY('F007','F007',(#269));
#266=APPLICATION_PROTOCOL_DEFINITION('international standard',
'automotive_design',2009,#267);
#267=APPLICATION_CONTEXT(
'Core Data for Automotive Mechanical Design Process');
#268=PRODUCT_CONTEXT('part definition',#267,'mechanical');
#269=PRODUCT('F007','F007','ENTRETOISE PLASTIQUE \X\D850/60',(#268));
#270=PRESENTATION_STYLE_ASSIGNMENT((#271));
#271=SURFACE_STYLE_USAGE(.BOTH.,#274);
#272=SURFACE_STYLE_RENDERING_WITH_PROPERTIES($,#278,(#273));
#273=SURFACE_STYLE_TRANSPARENT(0.);
#274=SURFACE_SIDE_STYLE('',(#275,#272));
#275=SURFACE_STYLE_FILL_AREA(#276);
#276=FILL_AREA_STYLE('',(#277));
#277=FILL_AREA_STYLE_COLOUR('',#278);
#278=COLOUR_RGB('',0.87843137254902,0.874509803921569,0.858823529411765);
ENDSEC;
END-ISO-10303-21;
