ISO-10303-21;
HEADER;
FILE_DESCRIPTION (( 'STEP AP203' ),
    '1' );
FILE_NAME ('Bague 8mm.STEP',
    '2024-01-16T21:11:36',
    ( '' ),
    ( '' ),
    'SwSTEP 2.0',
    'SolidWorks 2018',
    '' );
FILE_SCHEMA (( 'CONFIG_CONTROL_DESIGN' ));
ENDSEC;

DATA;
#1 = DIRECTION ( 'NONE',  ( 1.000000000000000000, 0.000000000000000000, 0.000000000000000000 ) ) ;
#2 = DIRECTION ( 'NONE',  ( 0.000000000000000000, 0.000000000000000000, 1.000000000000000000 ) ) ;
#3 = CARTESIAN_POINT ( 'NONE',  ( 0.000000000000000000, 0.000000000000000000, 0.000000000000000000 ) ) ;
#4 = AXIS2_PLACEMENT_3D ( 'NONE', #190, #216, #220 ) ;
#5 = DATE_AND_TIME ( #29, #57 ) ;
#6 = CARTESIAN_POINT ( 'NONE',  ( 0.000000000000000000, 0.000000000000000000, 5.000000000000000000 ) ) ;
#7 = PRODUCT_DEFINITION ( 'UNKNOWN', '', #133, #126 ) ;
#8 = VECTOR ( 'NONE', #297, 1000.000000000000000 ) ;
#9 = CIRCLE ( 'NONE', #242, 10.00000000000000000 ) ;
#10 = PERSON_AND_ORGANIZATION_ROLE ( 'design_supplier' ) ;
#11 = ORIENTED_EDGE ( 'NONE', *, *, #69, .F. ) ;
#12 = VECTOR ( 'NONE', #191, 1000.000000000000000 ) ;
#13 = PLANE ( 'NONE',  #295 ) ;
#14 = EDGE_CURVE ( 'NONE', #16, #109, #53, .T. ) ;
#15 = ORIENTED_EDGE ( 'NONE', *, *, #20, .T. ) ;
#16 = VERTEX_POINT ( 'NONE', #281 ) ;
#17 = ORIENTED_EDGE ( 'NONE', *, *, #167, .F. ) ;
#18 = DIRECTION ( 'NONE',  ( 1.000000000000000000, 0.000000000000000000, -0.000000000000000000 ) ) ;
#19 = APPROVAL ( #246, 'UNSPECIFIED' ) ;
#20 = EDGE_CURVE ( 'NONE', #28, #16, #48, .T. ) ;
#21 = ADVANCED_FACE ( 'NONE', ( #110, #40 ), #47, .T. ) ;
#22 = EDGE_LOOP ( 'NONE', ( #114, #266, #93, #56 ) ) ;
#23 = DIRECTION ( 'NONE',  ( 1.000000000000000000, 0.000000000000000000, 0.000000000000000000 ) ) ;
#24 = PERSON_AND_ORGANIZATION ( #85, #152 ) ;
#25 = DIRECTION ( 'NONE',  ( 0.000000000000000000, 0.000000000000000000, 1.000000000000000000 ) ) ;
#26 = DIRECTION ( 'NONE',  ( 1.000000000000000000, 0.000000000000000000, 0.000000000000000000 ) ) ;
#27 = CARTESIAN_POINT ( 'NONE',  ( 0.000000000000000000, 0.000000000000000000, 1.999999999999992228 ) ) ;
#28 = VERTEX_POINT ( 'NONE', #239 ) ;
#29 = CALENDAR_DATE ( 2024, 16, 1 ) ;
#30 = CARTESIAN_POINT ( 'NONE',  ( 4.000000000000000000, 0.000000000000000000, 0.000000000000000000 ) ) ;
#31 =( NAMED_UNIT ( * ) PLANE_ANGLE_UNIT ( ) SI_UNIT ( $, .RADIAN. ) );
#32 = DIRECTION ( 'NONE',  ( 0.000000000000000000, 0.000000000000000000, 1.000000000000000000 ) ) ;
#33 = DIRECTION ( 'NONE',  ( 0.000000000000000000, 0.000000000000000000, 1.000000000000000000 ) ) ;
#34 = CC_DESIGN_PERSON_AND_ORGANIZATION_ASSIGNMENT ( #24, #10, ( #133 ) ) ;
#35 = ORIENTED_EDGE ( 'NONE', *, *, #95, .T. ) ;
#36 = CALENDAR_DATE ( 2024, 16, 1 ) ;
#37 = LOCAL_TIME ( 22, 11, 35.00000000000000000, #203 ) ;
#38 = APPROVAL_STATUS ( 'not_yet_approved' ) ;
#39 = AXIS2_PLACEMENT_3D ( 'NONE', #140, #71, #18 ) ;
#40 = FACE_BOUND ( 'NONE', #293, .T. ) ;
#41 = ORIENTED_EDGE ( 'NONE', *, *, #280, .F. ) ;
#42 = PERSON_AND_ORGANIZATION ( #85, #152 ) ;
#43 = AXIS2_PLACEMENT_3D ( 'NONE', #27, #241, #199 ) ;
#44 = ORIENTED_EDGE ( 'NONE', *, *, #280, .T. ) ;
#45 = CARTESIAN_POINT ( 'NONE',  ( 0.000000000000000000, 0.000000000000000000, 0.000000000000000000 ) ) ;
#46 = COORDINATED_UNIVERSAL_TIME_OFFSET ( 1, 0, .AHEAD. ) ;
#47 = PLANE ( 'NONE',  #39 ) ;
#48 = LINE ( 'NONE', #214, #12 ) ;
#49 = DIRECTION ( 'NONE',  ( -1.000000000000000000, 0.000000000000000000, 0.000000000000000000 ) ) ;
#50 = CARTESIAN_POINT ( 'NONE',  ( 0.000000000000000000, 0.000000000000000000, 5.000000000000000000 ) ) ;
#51 = EDGE_CURVE ( 'NONE', #159, #238, #177, .T. ) ;
#52 = ORIENTED_EDGE ( 'NONE', *, *, #189, .F. ) ;
#53 = CIRCLE ( 'NONE', #4, 10.00000000000000000 ) ;
#54 = APPROVAL_STATUS ( 'not_yet_approved' ) ;
#55 = AXIS2_PLACEMENT_3D ( 'NONE', #196, #99, #245 ) ;
#56 = ORIENTED_EDGE ( 'NONE', *, *, #95, .F. ) ;
#57 = LOCAL_TIME ( 22, 11, 35.00000000000000000, #124 ) ;
#58 = LOCAL_TIME ( 22, 11, 35.00000000000000000, #182 ) ;
#59 = EDGE_CURVE ( 'NONE', #132, #109, #160, .T. ) ;
#60 = ADVANCED_BREP_SHAPE_REPRESENTATION ( 'Bague 8mm', ( #117, #258 ), #158 ) ;
#61 = CYLINDRICAL_SURFACE ( 'NONE', #291, 4.000000000000000000 ) ;
#62 = COORDINATED_UNIVERSAL_TIME_OFFSET ( 1, 0, .AHEAD. ) ;
#63 = ORIENTED_EDGE ( 'NONE', *, *, #20, .F. ) ;
#64 = AXIS2_PLACEMENT_3D ( 'NONE', #120, #222, #254 ) ;
#65 = DIRECTION ( 'NONE',  ( 1.000000000000000000, 0.000000000000000000, 0.000000000000000000 ) ) ;
#66 = CARTESIAN_POINT ( 'NONE',  ( -7.000000000000002665, 0.000000000000000000, 5.000000000000000000 ) ) ;
#67 = LINE ( 'NONE', #296, #8 ) ;
#68 = CC_DESIGN_APPROVAL ( #19, ( #7 ) ) ;
#69 = EDGE_CURVE ( 'NONE', #149, #118, #255, .T. ) ;
#70 = CIRCLE ( 'NONE', #252, 7.000000000000002665 ) ;
#71 = DIRECTION ( 'NONE',  ( 0.000000000000000000, 0.000000000000000000, 1.000000000000000000 ) ) ;
#72 = CARTESIAN_POINT ( 'NONE',  ( 0.000000000000000000, 0.000000000000000000, 0.000000000000000000 ) ) ;
#73 = DIRECTION ( 'NONE',  ( 1.000000000000000000, 0.000000000000000000, 0.000000000000000000 ) ) ;
#74 = EDGE_LOOP ( 'NONE', ( #215, #15, #17, #186 ) ) ;
#75 = DIRECTION ( 'NONE',  ( 0.000000000000000000, 0.000000000000000000, 1.000000000000000000 ) ) ;
#76 = AXIS2_PLACEMENT_3D ( 'NONE', #6, #198, #49 ) ;
#77 = EDGE_CURVE ( 'NONE', #28, #132, #227, .T. ) ;
#78 = EDGE_LOOP ( 'NONE', ( #41, #235, #151, #82 ) ) ;
#79 = LINE ( 'NONE', #200, #183 ) ;
#80 = PERSON_AND_ORGANIZATION_ROLE ( 'creator' ) ;
#81 = APPROVAL_ROLE ( '' ) ;
#82 = ORIENTED_EDGE ( 'NONE', *, *, #69, .T. ) ;
#83 = DATE_TIME_ROLE ( 'creation_date' ) ;
#84 = DATE_AND_TIME ( #36, #187 ) ;
#85 = PERSON ( 'UNSPECIFIED', 'UNSPECIFIED', 'UNSPECIFIED', ('UNSPECIFIED'), ('UNSPECIFIED'), ('UNSPECIFIED') ) ;
#86 = EDGE_LOOP ( 'NONE', ( #63, #284, #131, #223 ) ) ;
#87 = CIRCLE ( 'NONE', #263, 4.000000000000000000 ) ;
#88 = CC_DESIGN_PERSON_AND_ORGANIZATION_ASSIGNMENT ( #42, #80, ( #7 ) ) ;
#89 = EDGE_CURVE ( 'NONE', #107, #159, #209, .T. ) ;
#90 = ORIENTED_EDGE ( 'NONE', *, *, #211, .T. ) ;
#91 = AXIS2_PLACEMENT_3D ( 'NONE', #264, #25, #23 ) ;
#92 = ADVANCED_FACE ( 'NONE', ( #201, #274 ), #13, .F. ) ;
#93 = ORIENTED_EDGE ( 'NONE', *, *, #51, .T. ) ;
#94 = VECTOR ( 'NONE', #142, 1000.000000000000000 ) ;
#95 = EDGE_CURVE ( 'NONE', #180, #238, #67, .T. ) ;
#96 = CARTESIAN_POINT ( 'NONE',  ( -7.000000000000002665, 0.000000000000000000, 5.000000000000000000 ) ) ;
#97 = CARTESIAN_POINT ( 'NONE',  ( -10.00000000000000000, 0.000000000000000000, 1.999999999999992228 ) ) ;
#98 = CC_DESIGN_APPROVAL ( #276, ( #221 ) ) ;
#99 = DIRECTION ( 'NONE',  ( -0.000000000000000000, -0.000000000000000000, -1.000000000000000000 ) ) ;
#100 = CARTESIAN_POINT ( 'NONE',  ( -4.000000000000000000, 4.898587196589412829E-16, 5.000000000000000000 ) ) ;
#101 = LOCAL_TIME ( 22, 11, 35.00000000000000000, #46 ) ;
#102 = CARTESIAN_POINT ( 'NONE',  ( 0.000000000000000000, 0.000000000000000000, 0.000000000000000000 ) ) ;
#103 = DATE_AND_TIME ( #275, #58 ) ;
#104 = APPLICATION_CONTEXT ( 'configuration controlled 3d designs of mechanical parts and assemblies' ) ;
#105 = CC_DESIGN_DATE_AND_TIME_ASSIGNMENT ( #146, #83, ( #7 ) ) ;
#106 =( LENGTH_UNIT ( ) NAMED_UNIT ( * ) SI_UNIT ( .MILLI., .METRE. ) );
#107 = VERTEX_POINT ( 'NONE', #148 ) ;
#108 = MECHANICAL_CONTEXT ( 'NONE', #104, 'mechanical' ) ;
#109 = VERTEX_POINT ( 'NONE', #97 ) ;
#110 = FACE_OUTER_BOUND ( 'NONE', #287, .T. ) ;
#111 = APPROVAL_PERSON_ORGANIZATION ( #262, #184, #205 ) ;
#112 = CYLINDRICAL_SURFACE ( 'NONE', #232, 4.000000000000000000 ) ;
#113 = APPROVAL_DATE_TIME ( #5, #276 ) ;
#114 = ORIENTED_EDGE ( 'NONE', *, *, #154, .F. ) ;
#115 = DIRECTION ( 'NONE',  ( 0.000000000000000000, 0.000000000000000000, 1.000000000000000000 ) ) ;
#116 = DIRECTION ( 'NONE',  ( 0.000000000000000000, 0.000000000000000000, 1.000000000000000000 ) ) ;
#117 = MANIFOLD_SOLID_BREP ( 'Chamfer1', #206 ) ;
#118 = VERTEX_POINT ( 'NONE', #171 ) ;
#119 = APPROVAL_DATE_TIME ( #84, #184 ) ;
#120 = CARTESIAN_POINT ( 'NONE',  ( 0.000000000000000000, 0.000000000000000000, 5.000000000000000000 ) ) ;
#121 = CARTESIAN_POINT ( 'NONE',  ( 0.000000000000000000, 0.000000000000000000, 5.000000000000000000 ) ) ;
#122 = CARTESIAN_POINT ( 'NONE',  ( 0.000000000000000000, 0.000000000000000000, 5.000000000000000000 ) ) ;
#123 = AXIS2_PLACEMENT_3D ( 'NONE', #219, #282, #65 ) ;
#124 = COORDINATED_UNIVERSAL_TIME_OFFSET ( 1, 0, .AHEAD. ) ;
#125 = DIRECTION ( 'NONE',  ( 0.000000000000000000, 0.000000000000000000, -1.000000000000000000 ) ) ;
#126 = DESIGN_CONTEXT ( 'detailed design', #153, 'design' ) ;
#127 = PRODUCT_RELATED_PRODUCT_CATEGORY ( 'detail', '', ( #273 ) ) ;
#128 = FACE_OUTER_BOUND ( 'NONE', #78, .T. ) ;
#129 = CARTESIAN_POINT ( 'NONE',  ( 0.000000000000000000, 0.000000000000000000, 5.000000000000000000 ) ) ;
#130 = DIRECTION ( 'NONE',  ( 1.000000000000000000, 0.000000000000000000, 0.000000000000000000 ) ) ;
#131 = ORIENTED_EDGE ( 'NONE', *, *, #59, .T. ) ;
#132 = VERTEX_POINT ( 'NONE', #66 ) ;
#133 = PRODUCT_DEFINITION_FORMATION_WITH_SPECIFIED_SOURCE ( 'ANY', '', #273, .NOT_KNOWN. ) ;
#134 = PERSON_AND_ORGANIZATION ( #85, #152 ) ;
#135 = AXIS2_PLACEMENT_3D ( 'NONE', #50, #125, #172 ) ;
#136 = DIRECTION ( 'NONE',  ( -0.000000000000000000, -0.000000000000000000, 1.000000000000000000 ) ) ;
#137 = DIRECTION ( 'NONE',  ( 1.000000000000000000, 0.000000000000000000, -0.000000000000000000 ) ) ;
#138 = EDGE_LOOP ( 'NONE', ( #90, #253 ) ) ;
#139 = FACE_OUTER_BOUND ( 'NONE', #86, .T. ) ;
#140 = CARTESIAN_POINT ( 'NONE',  ( 0.000000000000000000, 0.000000000000000000, 5.000000000000000000 ) ) ;
#141 = ADVANCED_FACE ( 'NONE', ( #217 ), #61, .F. ) ;
#142 = DIRECTION ( 'NONE',  ( -0.7071067811865463515, 0.000000000000000000, -0.7071067811865487940 ) ) ;
#143 = CARTESIAN_POINT ( 'NONE',  ( 4.000000000000000000, 0.000000000000000000, 5.000000000000000000 ) ) ;
#144 = CC_DESIGN_PERSON_AND_ORGANIZATION_ASSIGNMENT ( #230, #267, ( #273 ) ) ;
#145 = ORIENTED_EDGE ( 'NONE', *, *, #51, .F. ) ;
#146 = DATE_AND_TIME ( #270, #37 ) ;
#147 = DIRECTION ( 'NONE',  ( -0.000000000000000000, -0.000000000000000000, -1.000000000000000000 ) ) ;
#148 = CARTESIAN_POINT ( 'NONE',  ( -4.000000000000000000, 4.898587196589412829E-16, 0.000000000000000000 ) ) ;
#149 = VERTEX_POINT ( 'NONE', #299 ) ;
#150 = DIRECTION ( 'NONE',  ( 0.000000000000000000, 0.000000000000000000, 1.000000000000000000 ) ) ;
#151 = ORIENTED_EDGE ( 'NONE', *, *, #189, .T. ) ;
#152 = ORGANIZATION ( 'UNSPECIFIED', 'UNSPECIFIED', '' ) ;
#153 = APPLICATION_CONTEXT ( 'configuration controlled 3d designs of mechanical parts and assemblies' ) ;
#154 = EDGE_CURVE ( 'NONE', #107, #180, #250, .T. ) ;
#155 = ORIENTED_EDGE ( 'NONE', *, *, #271, .T. ) ;
#156 = PERSON_AND_ORGANIZATION_ROLE ( 'classification_officer' ) ;
#157 = PERSON_AND_ORGANIZATION_ROLE ( 'creator' ) ;
#158 =( GEOMETRIC_REPRESENTATION_CONTEXT ( 3 ) GLOBAL_UNCERTAINTY_ASSIGNED_CONTEXT ( ( #188 ) ) GLOBAL_UNIT_ASSIGNED_CONTEXT ( ( #106, #31, #229 ) ) REPRESENTATION_CONTEXT ( 'NONE', 'WORKASPACE' ) );
#159 = VERTEX_POINT ( 'NONE', #100 ) ;
#160 = LINE ( 'NONE', #96, #94 ) ;
#161 = ORIENTED_EDGE ( 'NONE', *, *, #271, .F. ) ;
#162 = CC_DESIGN_APPROVAL ( #184, ( #133 ) ) ;
#163 = ORIENTED_EDGE ( 'NONE', *, *, #77, .T. ) ;
#164 = PERSON_AND_ORGANIZATION ( #85, #152 ) ;
#165 = PRODUCT_DEFINITION_SHAPE ( 'NONE', 'NONE',  #7 ) ;
#166 = CC_DESIGN_PERSON_AND_ORGANIZATION_ASSIGNMENT ( #178, #157, ( #133 ) ) ;
#167 = EDGE_CURVE ( 'NONE', #109, #16, #192, .T. ) ;
#168 = ORIENTED_EDGE ( 'NONE', *, *, #167, .T. ) ;
#169 = PERSON_AND_ORGANIZATION ( #85, #152 ) ;
#170 = CARTESIAN_POINT ( 'NONE',  ( 0.000000000000000000, 0.000000000000000000, 0.000000000000000000 ) ) ;
#171 = CARTESIAN_POINT ( 'NONE',  ( 10.00000000000000000, 1.224646799147353256E-15, 0.000000000000000000 ) ) ;
#172 = DIRECTION ( 'NONE',  ( -1.000000000000000000, 0.000000000000000000, 0.000000000000000000 ) ) ;
#173 = AXIS2_PLACEMENT_3D ( 'NONE', #256, #116, #257 ) ;
#174 = EDGE_LOOP ( 'NONE', ( #168, #44, #155, #52 ) ) ;
#175 = DATE_AND_TIME ( #181, #101 ) ;
#176 = DIRECTION ( 'NONE',  ( -0.000000000000000000, -0.000000000000000000, 1.000000000000000000 ) ) ;
#177 = CIRCLE ( 'NONE', #123, 4.000000000000000000 ) ;
#178 = PERSON_AND_ORGANIZATION ( #85, #152 ) ;
#179 = CC_DESIGN_PERSON_AND_ORGANIZATION_ASSIGNMENT ( #169, #156, ( #221 ) ) ;
#180 = VERTEX_POINT ( 'NONE', #30 ) ;
#181 = CALENDAR_DATE ( 2024, 16, 1 ) ;
#182 = COORDINATED_UNIVERSAL_TIME_OFFSET ( 1, 0, .AHEAD. ) ;
#183 = VECTOR ( 'NONE', #224, 1000.000000000000000 ) ;
#184 = APPROVAL ( #38, 'UNSPECIFIED' ) ;
#185 = ADVANCED_FACE ( 'NONE', ( #128 ), #298, .T. ) ;
#186 = ORIENTED_EDGE ( 'NONE', *, *, #59, .F. ) ;
#187 = LOCAL_TIME ( 22, 11, 35.00000000000000000, #62 ) ;
#188 = UNCERTAINTY_MEASURE_WITH_UNIT (LENGTH_MEASURE( 1.000000000000000082E-05 ), #106, 'distance_accuracy_value', 'NONE');
#189 = EDGE_CURVE ( 'NONE', #109, #149, #79, .T. ) ;
#190 = CARTESIAN_POINT ( 'NONE',  ( 0.000000000000000000, 0.000000000000000000, 1.999999999999992228 ) ) ;
#191 = DIRECTION ( 'NONE',  ( 0.7071067811865463515, 8.659560562354919300E-17, -0.7071067811865487940 ) ) ;
#192 = CIRCLE ( 'NONE', #43, 10.00000000000000000 ) ;
#193 = CARTESIAN_POINT ( 'NONE',  ( -4.000000000000000000, 4.898587196589412829E-16, 0.000000000000000000 ) ) ;
#194 = SHAPE_DEFINITION_REPRESENTATION ( #165, #60 ) ;
#195 = ORIENTED_EDGE ( 'NONE', *, *, #236, .T. ) ;
#196 = CARTESIAN_POINT ( 'NONE',  ( 0.000000000000000000, 0.000000000000000000, 5.000000000000000000 ) ) ;
#197 = APPROVAL_PERSON_ORGANIZATION ( #134, #276, #81 ) ;
#198 = DIRECTION ( 'NONE',  ( 0.000000000000000000, 0.000000000000000000, -1.000000000000000000 ) ) ;
#199 = DIRECTION ( 'NONE',  ( 1.000000000000000000, 0.000000000000000000, 0.000000000000000000 ) ) ;
#200 = CARTESIAN_POINT ( 'NONE',  ( -10.00000000000000000, 0.000000000000000000, 5.000000000000000000 ) ) ;
#201 = FACE_BOUND ( 'NONE', #138, .T. ) ;
#202 = APPLICATION_PROTOCOL_DEFINITION ( 'international standard', 'config_control_design', 1994, #104 ) ;
#203 = COORDINATED_UNIVERSAL_TIME_OFFSET ( 1, 0, .AHEAD. ) ;
#204 = APPROVAL_ROLE ( '' ) ;
#205 = APPROVAL_ROLE ( '' ) ;
#206 = CLOSED_SHELL ( 'NONE', ( #233, #141, #283, #185, #21, #92, #213, #237 ) ) ;
#207 = CONICAL_SURFACE ( 'NONE', #135, 7.000000000000002665, 0.7853981633974466137 ) ;
#208 = AXIS2_PLACEMENT_3D ( 'NONE', #121, #285, #225 ) ;
#209 = LINE ( 'NONE', #193, #279 ) ;
#210 = APPROVAL_DATE_TIME ( #103, #19 ) ;
#211 = EDGE_CURVE ( 'NONE', #180, #107, #240, .T. ) ;
#212 = LINE ( 'NONE', #260, #277 ) ;
#213 = ADVANCED_FACE ( 'NONE', ( #247 ), #112, .F. ) ;
#214 = CARTESIAN_POINT ( 'NONE',  ( 7.000000000000002665, 8.572527594031475162E-16, 5.000000000000000000 ) ) ;
#215 = ORIENTED_EDGE ( 'NONE', *, *, #77, .F. ) ;
#216 = DIRECTION ( 'NONE',  ( 0.000000000000000000, 0.000000000000000000, -1.000000000000000000 ) ) ;
#217 = FACE_OUTER_BOUND ( 'NONE', #22, .T. ) ;
#218 = CONICAL_SURFACE ( 'NONE', #76, 7.000000000000002665, 0.7853981633974466137 ) ;
#219 = CARTESIAN_POINT ( 'NONE',  ( 0.000000000000000000, 0.000000000000000000, 5.000000000000000000 ) ) ;
#220 = DIRECTION ( 'NONE',  ( 1.000000000000000000, 0.000000000000000000, 0.000000000000000000 ) ) ;
#221 = SECURITY_CLASSIFICATION ( '', '', #231 ) ;
#222 = DIRECTION ( 'NONE',  ( 0.000000000000000000, 0.000000000000000000, 1.000000000000000000 ) ) ;
#223 = ORIENTED_EDGE ( 'NONE', *, *, #14, .F. ) ;
#224 = DIRECTION ( 'NONE',  ( -0.000000000000000000, -0.000000000000000000, -1.000000000000000000 ) ) ;
#225 = DIRECTION ( 'NONE',  ( -1.000000000000000000, 0.000000000000000000, 0.000000000000000000 ) ) ;
#226 = ORIENTED_EDGE ( 'NONE', *, *, #292, .T. ) ;
#227 = CIRCLE ( 'NONE', #64, 7.000000000000002665 ) ;
#228 = CARTESIAN_POINT ( 'NONE',  ( 0.000000000000000000, 0.000000000000000000, 0.000000000000000000 ) ) ;
#229 =( NAMED_UNIT ( * ) SI_UNIT ( $, .STERADIAN. ) SOLID_ANGLE_UNIT ( ) );
#230 = PERSON_AND_ORGANIZATION ( #85, #152 ) ;
#231 = SECURITY_CLASSIFICATION_LEVEL ( 'unclassified' ) ;
#232 = AXIS2_PLACEMENT_3D ( 'NONE', #102, #243, #259 ) ;
#233 = ADVANCED_FACE ( 'NONE', ( #294 ), #207, .T. ) ;
#234 = EDGE_LOOP ( 'NONE', ( #11, #161 ) ) ;
#235 = ORIENTED_EDGE ( 'NONE', *, *, #14, .T. ) ;
#236 = EDGE_CURVE ( 'NONE', #238, #159, #87, .T. ) ;
#237 = ADVANCED_FACE ( 'NONE', ( #139 ), #218, .T. ) ;
#238 = VERTEX_POINT ( 'NONE', #143 ) ;
#239 = CARTESIAN_POINT ( 'NONE',  ( 7.000000000000002665, 1.040949779275250337E-15, 5.000000000000000000 ) ) ;
#240 = CIRCLE ( 'NONE', #278, 4.000000000000000000 ) ;
#241 = DIRECTION ( 'NONE',  ( 0.000000000000000000, 0.000000000000000000, -1.000000000000000000 ) ) ;
#242 = AXIS2_PLACEMENT_3D ( 'NONE', #170, #2, #73 ) ;
#243 = DIRECTION ( 'NONE',  ( -0.000000000000000000, -0.000000000000000000, 1.000000000000000000 ) ) ;
#244 = EDGE_LOOP ( 'NONE', ( #265, #290, #35, #195 ) ) ;
#245 = DIRECTION ( 'NONE',  ( -1.000000000000000000, 0.000000000000000000, 0.000000000000000000 ) ) ;
#246 = APPROVAL_STATUS ( 'not_yet_approved' ) ;
#247 = FACE_OUTER_BOUND ( 'NONE', #244, .T. ) ;
#248 = APPROVAL_PERSON_ORGANIZATION ( #164, #19, #204 ) ;
#249 = CC_DESIGN_DATE_AND_TIME_ASSIGNMENT ( #175, #268, ( #221 ) ) ;
#250 = CIRCLE ( 'NONE', #91, 4.000000000000000000 ) ;
#251 = CC_DESIGN_SECURITY_CLASSIFICATION ( #221, ( #133 ) ) ;
#252 = AXIS2_PLACEMENT_3D ( 'NONE', #129, #33, #269 ) ;
#253 = ORIENTED_EDGE ( 'NONE', *, *, #154, .T. ) ;
#254 = DIRECTION ( 'NONE',  ( 1.000000000000000000, 0.000000000000000000, 0.000000000000000000 ) ) ;
#255 = CIRCLE ( 'NONE', #173, 10.00000000000000000 ) ;
#256 = CARTESIAN_POINT ( 'NONE',  ( 0.000000000000000000, 0.000000000000000000, 0.000000000000000000 ) ) ;
#257 = DIRECTION ( 'NONE',  ( 1.000000000000000000, 0.000000000000000000, 0.000000000000000000 ) ) ;
#258 = AXIS2_PLACEMENT_3D ( 'NONE', #228, #32, #130 ) ;
#259 = DIRECTION ( 'NONE',  ( 1.000000000000000000, 0.000000000000000000, 0.000000000000000000 ) ) ;
#260 = CARTESIAN_POINT ( 'NONE',  ( 10.00000000000000000, 1.224646799147353256E-15, 5.000000000000000000 ) ) ;
#261 = ORIENTED_EDGE ( 'NONE', *, *, #236, .F. ) ;
#262 = PERSON_AND_ORGANIZATION ( #85, #152 ) ;
#263 = AXIS2_PLACEMENT_3D ( 'NONE', #122, #150, #26 ) ;
#264 = CARTESIAN_POINT ( 'NONE',  ( 0.000000000000000000, 0.000000000000000000, 0.000000000000000000 ) ) ;
#265 = ORIENTED_EDGE ( 'NONE', *, *, #89, .F. ) ;
#266 = ORIENTED_EDGE ( 'NONE', *, *, #89, .T. ) ;
#267 = PERSON_AND_ORGANIZATION_ROLE ( 'design_owner' ) ;
#268 = DATE_TIME_ROLE ( 'classification_date' ) ;
#269 = DIRECTION ( 'NONE',  ( 1.000000000000000000, 0.000000000000000000, 0.000000000000000000 ) ) ;
#270 = CALENDAR_DATE ( 2024, 16, 1 ) ;
#271 = EDGE_CURVE ( 'NONE', #118, #149, #9, .T. ) ;
#272 = CYLINDRICAL_SURFACE ( 'NONE', #208, 10.00000000000000000 ) ;
#273 = PRODUCT ( 'Bague 8mm', 'Bague 8mm', '', ( #108 ) ) ;
#274 = FACE_OUTER_BOUND ( 'NONE', #234, .T. ) ;
#275 = CALENDAR_DATE ( 2024, 16, 1 ) ;
#276 = APPROVAL ( #54, 'UNSPECIFIED' ) ;
#277 = VECTOR ( 'NONE', #147, 1000.000000000000000 ) ;
#278 = AXIS2_PLACEMENT_3D ( 'NONE', #72, #75, #286 ) ;
#279 = VECTOR ( 'NONE', #136, 1000.000000000000000 ) ;
#280 = EDGE_CURVE ( 'NONE', #16, #118, #212, .T. ) ;
#281 = CARTESIAN_POINT ( 'NONE',  ( 10.00000000000000000, 1.224646799147353256E-15, 1.999999999999992228 ) ) ;
#282 = DIRECTION ( 'NONE',  ( 0.000000000000000000, 0.000000000000000000, 1.000000000000000000 ) ) ;
#283 = ADVANCED_FACE ( 'NONE', ( #289 ), #272, .T. ) ;
#284 = ORIENTED_EDGE ( 'NONE', *, *, #292, .F. ) ;
#285 = DIRECTION ( 'NONE',  ( -0.000000000000000000, -0.000000000000000000, -1.000000000000000000 ) ) ;
#286 = DIRECTION ( 'NONE',  ( 1.000000000000000000, 0.000000000000000000, 0.000000000000000000 ) ) ;
#287 = EDGE_LOOP ( 'NONE', ( #226, #163 ) ) ;
#288 = APPLICATION_PROTOCOL_DEFINITION ( 'international standard', 'config_control_design', 1994, #153 ) ;
#289 = FACE_OUTER_BOUND ( 'NONE', #174, .T. ) ;
#290 = ORIENTED_EDGE ( 'NONE', *, *, #211, .F. ) ;
#291 = AXIS2_PLACEMENT_3D ( 'NONE', #3, #176, #1 ) ;
#292 = EDGE_CURVE ( 'NONE', #132, #28, #70, .T. ) ;
#293 = EDGE_LOOP ( 'NONE', ( #261, #145 ) ) ;
#294 = FACE_OUTER_BOUND ( 'NONE', #74, .T. ) ;
#295 = AXIS2_PLACEMENT_3D ( 'NONE', #45, #115, #137 ) ;
#296 = CARTESIAN_POINT ( 'NONE',  ( 4.000000000000000000, 0.000000000000000000, 0.000000000000000000 ) ) ;
#297 = DIRECTION ( 'NONE',  ( -0.000000000000000000, -0.000000000000000000, 1.000000000000000000 ) ) ;
#298 = CYLINDRICAL_SURFACE ( 'NONE', #55, 10.00000000000000000 ) ;
#299 = CARTESIAN_POINT ( 'NONE',  ( -10.00000000000000000, 0.000000000000000000, 0.000000000000000000 ) ) ;
ENDSEC;
END-ISO-10303-21;
