ISO-10303-21;
HEADER;
FILE_DESCRIPTION(('CATIA V5 STEP','CAx-IF Rec.Pracs.--- Model Styling and Organization---1.4--- 2014-01-23','CAx-IF Rec.Pracs.--- Geometric and Assembly Validation Properties ---4.2---2014-10-09','CAx-IF Rec.Pracs.---3D Tessellated Data Validation Properties---0.5---2014-09-14'),'2;1');

FILE_NAME('C:\\Users\\s558957\\Documents\\@@MOI\\@MOI\\CRABE\\CRABE_SUPPORT_6R_ADMI.stp','2023-12-19T17:17:56+00:00',('SAFRAN AIRCRAFT ENGINES'),('SAFRAN'),'CATIA Version 5-6 Release 2018 SP4 HF70','CATIA V5 STEP AP242','none');

FILE_SCHEMA(('AP242_MANAGED_MODEL_BASED_3D_ENGINEERING_MIM_LF  {1 0 10303 442 1 1 4}'));

ENDSEC;
DATA;
#5=PRODUCT('CRABE_SUPPORT_6R_ADMI','','',(#2)) ;
#2=PRODUCT_CONTEXT(' ',#1,'mechanical') ;
#1=APPLICATION_CONTEXT('managed model based 3d engineering') ;
#10=PRODUCT_DEFINITION('',' ',#6,#3) ;
#3=PRODUCT_DEFINITION_CONTEXT('part definition',#1,' ') ;
#499=REPRESENTATION('',(#502,#505,#508),#16) ;
#512=REPRESENTATION('',(#515,#516,#517,#518,#519),#16) ;
#11=PRODUCT_DEFINITION_SHAPE(' ',' ',#10) ;
#500=PROPERTY_DEFINITION('geometric validation property','',#497) ;
#513=PROPERTY_DEFINITION('geometric validation property','',#11) ;
#497=SHAPE_ASPECT('','Solid',#11,.F.) ;
#511=MECHANICAL_DESIGN_GEOMETRIC_PRESENTATION_REPRESENTATION(' ',(#31),#16) ;
#19=SHAPE_REPRESENTATION(' ',(#18),#16) ;
#505=MEASURE_REPRESENTATION_ITEM('volume measure',VOLUME_MEASURE(42195.1918654),#504) ;
#508=MEASURE_REPRESENTATION_ITEM('wetted area measure',AREA_MEASURE(10911.4001941),#507) ;
#518=MEASURE_REPRESENTATION_ITEM('volume measure',VOLUME_MEASURE(42195.1918654),#504) ;
#519=MEASURE_REPRESENTATION_ITEM('wetted area measure',AREA_MEASURE(10911.4001941),#507) ;
#504=DERIVED_UNIT((#503)) ;
#507=DERIVED_UNIT((#506)) ;
#503=DERIVED_UNIT_ELEMENT(#12,3.) ;
#506=DERIVED_UNIT_ELEMENT(#12,2.) ;
#7=PRODUCT_CATEGORY('part','specification') ;
#17=CARTESIAN_POINT(' ',(0.,0.,0.)) ;
#33=CARTESIAN_POINT('Axis2P3D Location',(-11.65,14.,-18.709852156)) ;
#38=CARTESIAN_POINT('Line Origine',(-12.26475,14.,-18.354926078)) ;
#42=CARTESIAN_POINT('Vertex',(-11.65,14.,-18.709852156)) ;
#44=CARTESIAN_POINT('Vertex',(-12.8795,14.,-18.)) ;
#47=CARTESIAN_POINT('Axis2P3D Location',(-11.65,14.,-18.)) ;
#51=CARTESIAN_POINT('Vertex',(-10.4205,14.,-18.)) ;
#54=CARTESIAN_POINT('Line Origine',(-11.03525,14.,-18.354926078)) ;
#65=CARTESIAN_POINT('Axis2P3D Location',(16.85,-14.,0.)) ;
#70=CARTESIAN_POINT('Axis2P3D Location',(16.85,-14.,0.)) ;
#74=CARTESIAN_POINT('Vertex',(18.0795,-14.,0.)) ;
#76=CARTESIAN_POINT('Vertex',(15.6205,-14.,0.)) ;
#79=CARTESIAN_POINT('Line Origine',(18.0795,-14.,-8.84499999925)) ;
#83=CARTESIAN_POINT('Vertex',(18.0795,-14.,-18.)) ;
#86=CARTESIAN_POINT('Axis2P3D Location',(16.85,-14.,-18.)) ;
#90=CARTESIAN_POINT('Vertex',(15.6205,-14.,-18.)) ;
#93=CARTESIAN_POINT('Line Origine',(15.6205,-14.,-8.84499999925)) ;
#105=CARTESIAN_POINT('Axis2P3D Location',(16.85,-14.,0.)) ;
#110=CARTESIAN_POINT('Axis2P3D Location',(16.85,-14.,-18.)) ;
#122=CARTESIAN_POINT('Axis2P3D Location',(16.85,-14.,-18.709852156)) ;
#127=CARTESIAN_POINT('Line Origine',(16.23525,-14.,-18.354926078)) ;
#131=CARTESIAN_POINT('Vertex',(16.85,-14.,-18.709852156)) ;
#134=CARTESIAN_POINT('Line Origine',(17.46475,-14.,-18.354926078)) ;
#151=CARTESIAN_POINT('Axis2P3D Location',(0.,0.,0.)) ;
#156=CARTESIAN_POINT('Line Origine',(0.,20.,0.)) ;
#160=CARTESIAN_POINT('Vertex',(-25.,20.,0.)) ;
#162=CARTESIAN_POINT('Vertex',(25.,20.,0.)) ;
#165=CARTESIAN_POINT('Line Origine',(-25.,0.,0.)) ;
#169=CARTESIAN_POINT('Vertex',(-25.,-20.,0.)) ;
#172=CARTESIAN_POINT('Line Origine',(0.,-20.,0.)) ;
#176=CARTESIAN_POINT('Vertex',(25.,-20.,0.)) ;
#179=CARTESIAN_POINT('Line Origine',(25.,0.,0.)) ;
#190=CARTESIAN_POINT('Axis2P3D Location',(-11.65,14.,0.)) ;
#194=CARTESIAN_POINT('Vertex',(-12.8795,14.,0.)) ;
#196=CARTESIAN_POINT('Vertex',(-10.4205,14.,0.)) ;
#199=CARTESIAN_POINT('Axis2P3D Location',(-11.65,14.,0.)) ;
#212=CARTESIAN_POINT('Line Origine',(17.85,0.,0.)) ;
#216=CARTESIAN_POINT('Vertex',(17.85,5.4,0.)) ;
#218=CARTESIAN_POINT('Vertex',(17.85,-5.4,0.)) ;
#221=CARTESIAN_POINT('Line Origine',(0.,-5.4,0.)) ;
#225=CARTESIAN_POINT('Vertex',(-17.85,-5.4,0.)) ;
#228=CARTESIAN_POINT('Line Origine',(-17.85,0.,0.)) ;
#232=CARTESIAN_POINT('Vertex',(-17.85,5.4,0.)) ;
#235=CARTESIAN_POINT('Line Origine',(0.,5.4,0.)) ;
#247=CARTESIAN_POINT('Axis2P3D Location',(-11.65,14.,0.)) ;
#252=CARTESIAN_POINT('Line Origine',(-12.8795,14.,-8.84499999974)) ;
#257=CARTESIAN_POINT('Axis2P3D Location',(-11.65,14.,-18.)) ;
#262=CARTESIAN_POINT('Line Origine',(-10.4205,14.,-8.84499999974)) ;
#287=CARTESIAN_POINT('Axis2P3D Location',(25.,20.,0.)) ;
#292=CARTESIAN_POINT('Line Origine',(25.,20.,-14.8445055786)) ;
#296=CARTESIAN_POINT('Vertex',(25.,20.,-29.6890111572)) ;
#299=CARTESIAN_POINT('Line Origine',(25.,-20.,-14.8445055786)) ;
#303=CARTESIAN_POINT('Vertex',(25.,-20.,-29.6890111572)) ;
#306=CARTESIAN_POINT('Axis2P3D Location',(25.,3.5527136788E-015,-62.)) ;
#318=CARTESIAN_POINT('Axis2P3D Location',(-25.,-20.,0.)) ;
#323=CARTESIAN_POINT('Line Origine',(0.,-20.,-29.6890111572)) ;
#327=CARTESIAN_POINT('Vertex',(-25.,-20.,-29.6890111572)) ;
#330=CARTESIAN_POINT('Line Origine',(-25.,-20.,-14.8445055786)) ;
#342=CARTESIAN_POINT('Axis2P3D Location',(-25.,-20.,0.)) ;
#347=CARTESIAN_POINT('Line Origine',(-25.,20.,-14.8445055786)) ;
#351=CARTESIAN_POINT('Vertex',(-25.,20.,-29.6890111572)) ;
#354=CARTESIAN_POINT('Axis2P3D Location',(-25.,3.5527136788E-015,-62.)) ;
#366=CARTESIAN_POINT('Axis2P3D Location',(25.,20.,0.)) ;
#371=CARTESIAN_POINT('Line Origine',(0.,20.,-29.6890111572)) ;
#383=CARTESIAN_POINT('Axis2P3D Location',(17.85,5.4,0.)) ;
#388=CARTESIAN_POINT('Axis2P3D Location',(17.85,3.5527136788E-015,-62.)) ;
#392=CARTESIAN_POINT('Vertex',(17.85,5.4,-24.3856410396)) ;
#394=CARTESIAN_POINT('Vertex',(17.85,-5.4,-24.3856410396)) ;
#397=CARTESIAN_POINT('Line Origine',(17.85,-5.4,-12.1928205198)) ;
#402=CARTESIAN_POINT('Line Origine',(17.85,5.4,-12.1928205198)) ;
#414=CARTESIAN_POINT('Axis2P3D Location',(-17.85,-5.4,0.)) ;
#419=CARTESIAN_POINT('Line Origine',(-17.85,-5.4,-12.1928205198)) ;
#423=CARTESIAN_POINT('Vertex',(-17.85,-5.4,-24.3856410396)) ;
#426=CARTESIAN_POINT('Line Origine',(0.,-5.4,-24.3856410396)) ;
#438=CARTESIAN_POINT('Axis2P3D Location',(-17.85,-5.4,0.)) ;
#443=CARTESIAN_POINT('Axis2P3D Location',(-17.85,3.5527136788E-015,-62.)) ;
#447=CARTESIAN_POINT('Vertex',(-17.85,5.4,-24.3856410396)) ;
#450=CARTESIAN_POINT('Line Origine',(-17.85,5.4,-12.1928205198)) ;
#462=CARTESIAN_POINT('Axis2P3D Location',(17.85,5.4,0.)) ;
#467=CARTESIAN_POINT('Line Origine',(0.,5.4,-24.3856410396)) ;
#479=CARTESIAN_POINT('Axis2P3D Location',(0.,3.5527136788E-015,-62.)) ;
#502=CARTESIAN_POINT('centre point',(-0.0106731251761,8.39054119614E-015,-13.1880917783)) ;
#515=CARTESIAN_POINT('centre point',(-0.0106731251761,8.39054119614E-015,-13.1880917783)) ;
#516=CARTESIAN_POINT('bounding box corner point',(-25.,-20.,-29.6890111572)) ;
#517=CARTESIAN_POINT('bounding box corner point',(25.,20.,0.)) ;
#8=PRODUCT_RELATED_PRODUCT_CATEGORY('part',$,(#5)) ;
#501=PROPERTY_DEFINITION_REPRESENTATION(#500,#499) ;
#514=PROPERTY_DEFINITION_REPRESENTATION(#513,#512) ;
#31=STYLED_ITEM(' ',(#30),#21) ;
#30=PRESENTATION_STYLE_ASSIGNMENT((#29)) ;
#29=SURFACE_STYLE_USAGE(.BOTH.,#28) ;
#28=SURFACE_SIDE_STYLE(' ',(#25,#26)) ;
#25=SURFACE_STYLE_FILL_AREA(#24) ;
#24=FILL_AREA_STYLE(' ',(#23)) ;
#23=FILL_AREA_STYLE_COLOUR(' ',#22) ;
#40=VECTOR('Line Direction',#39,1.) ;
#56=VECTOR('Line Direction',#55,1.) ;
#81=VECTOR('Line Direction',#80,1.) ;
#95=VECTOR('Line Direction',#94,1.) ;
#129=VECTOR('Line Direction',#128,1.) ;
#136=VECTOR('Line Direction',#135,1.) ;
#158=VECTOR('Line Direction',#157,1.) ;
#167=VECTOR('Line Direction',#166,1.) ;
#174=VECTOR('Line Direction',#173,1.) ;
#181=VECTOR('Line Direction',#180,1.) ;
#214=VECTOR('Line Direction',#213,1.) ;
#223=VECTOR('Line Direction',#222,1.) ;
#230=VECTOR('Line Direction',#229,1.) ;
#237=VECTOR('Line Direction',#236,1.) ;
#254=VECTOR('Line Direction',#253,1.) ;
#264=VECTOR('Line Direction',#263,1.) ;
#294=VECTOR('Line Direction',#293,1.) ;
#301=VECTOR('Line Direction',#300,1.) ;
#325=VECTOR('Line Direction',#324,1.) ;
#332=VECTOR('Line Direction',#331,1.) ;
#349=VECTOR('Line Direction',#348,1.) ;
#373=VECTOR('Line Direction',#372,1.) ;
#399=VECTOR('Line Direction',#398,1.) ;
#404=VECTOR('Line Direction',#403,1.) ;
#421=VECTOR('Line Direction',#420,1.) ;
#428=VECTOR('Line Direction',#427,1.) ;
#452=VECTOR('Line Direction',#451,1.) ;
#469=VECTOR('Line Direction',#468,1.) ;
#34=DIRECTION('Axis2P3D Direction',(0.,0.,1.)) ;
#35=DIRECTION('Axis2P3D XDirection',(1.,0.,0.)) ;
#39=DIRECTION('Vector Direction',(-0.866025403784,0.,0.5)) ;
#48=DIRECTION('Axis2P3D Direction',(0.,0.,1.)) ;
#55=DIRECTION('Vector Direction',(0.866025403784,0.,0.5)) ;
#66=DIRECTION('Axis2P3D Direction',(0.,-0.,-1.)) ;
#67=DIRECTION('Axis2P3D XDirection',(1.,0.,0.)) ;
#71=DIRECTION('Axis2P3D Direction',(0.,-0.,-1.)) ;
#80=DIRECTION('Vector Direction',(0.,0.,-1.)) ;
#87=DIRECTION('Axis2P3D Direction',(0.,-0.,-1.)) ;
#94=DIRECTION('Vector Direction',(0.,0.,-1.)) ;
#106=DIRECTION('Axis2P3D Direction',(0.,-0.,-1.)) ;
#111=DIRECTION('Axis2P3D Direction',(0.,-0.,-1.)) ;
#123=DIRECTION('Axis2P3D Direction',(0.,0.,1.)) ;
#124=DIRECTION('Axis2P3D XDirection',(1.,0.,0.)) ;
#128=DIRECTION('Vector Direction',(-0.866025403784,0.,0.5)) ;
#135=DIRECTION('Vector Direction',(0.866025403784,0.,0.5)) ;
#152=DIRECTION('Axis2P3D Direction',(0.,0.,-1.)) ;
#153=DIRECTION('Axis2P3D XDirection',(-1.,0.,0.)) ;
#157=DIRECTION('Vector Direction',(-1.,0.,0.)) ;
#166=DIRECTION('Vector Direction',(0.,1.,0.)) ;
#173=DIRECTION('Vector Direction',(1.,0.,0.)) ;
#180=DIRECTION('Vector Direction',(0.,-1.,0.)) ;
#191=DIRECTION('Axis2P3D Direction',(0.,0.,-1.)) ;
#200=DIRECTION('Axis2P3D Direction',(0.,0.,-1.)) ;
#213=DIRECTION('Vector Direction',(0.,-1.,0.)) ;
#222=DIRECTION('Vector Direction',(1.,0.,0.)) ;
#229=DIRECTION('Vector Direction',(0.,1.,0.)) ;
#236=DIRECTION('Vector Direction',(-1.,0.,0.)) ;
#248=DIRECTION('Axis2P3D Direction',(0.,-0.,-1.)) ;
#249=DIRECTION('Axis2P3D XDirection',(1.,0.,0.)) ;
#253=DIRECTION('Vector Direction',(0.,0.,-1.)) ;
#258=DIRECTION('Axis2P3D Direction',(0.,-0.,-1.)) ;
#263=DIRECTION('Vector Direction',(0.,0.,-1.)) ;
#288=DIRECTION('Axis2P3D Direction',(1.,0.,0.)) ;
#289=DIRECTION('Axis2P3D XDirection',(0.,-1.,0.)) ;
#293=DIRECTION('Vector Direction',(0.,0.,-1.)) ;
#300=DIRECTION('Vector Direction',(0.,0.,-1.)) ;
#307=DIRECTION('Axis2P3D Direction',(1.,0.,0.)) ;
#319=DIRECTION('Axis2P3D Direction',(-0.,1.,0.)) ;
#320=DIRECTION('Axis2P3D XDirection',(1.,0.,0.)) ;
#324=DIRECTION('Vector Direction',(1.,0.,0.)) ;
#331=DIRECTION('Vector Direction',(0.,0.,-1.)) ;
#343=DIRECTION('Axis2P3D Direction',(-1.,0.,0.)) ;
#344=DIRECTION('Axis2P3D XDirection',(0.,1.,0.)) ;
#348=DIRECTION('Vector Direction',(0.,0.,-1.)) ;
#355=DIRECTION('Axis2P3D Direction',(-1.,0.,0.)) ;
#367=DIRECTION('Axis2P3D Direction',(-0.,-1.,-0.)) ;
#368=DIRECTION('Axis2P3D XDirection',(-1.,0.,0.)) ;
#372=DIRECTION('Vector Direction',(-1.,0.,0.)) ;
#384=DIRECTION('Axis2P3D Direction',(1.,0.,0.)) ;
#385=DIRECTION('Axis2P3D XDirection',(0.,-1.,0.)) ;
#389=DIRECTION('Axis2P3D Direction',(1.,0.,0.)) ;
#398=DIRECTION('Vector Direction',(0.,0.,-1.)) ;
#403=DIRECTION('Vector Direction',(0.,0.,-1.)) ;
#415=DIRECTION('Axis2P3D Direction',(-0.,1.,0.)) ;
#416=DIRECTION('Axis2P3D XDirection',(1.,0.,0.)) ;
#420=DIRECTION('Vector Direction',(0.,0.,-1.)) ;
#427=DIRECTION('Vector Direction',(1.,0.,0.)) ;
#439=DIRECTION('Axis2P3D Direction',(-1.,0.,0.)) ;
#440=DIRECTION('Axis2P3D XDirection',(0.,1.,0.)) ;
#444=DIRECTION('Axis2P3D Direction',(-1.,0.,0.)) ;
#451=DIRECTION('Vector Direction',(0.,0.,-1.)) ;
#463=DIRECTION('Axis2P3D Direction',(-0.,-1.,-0.)) ;
#464=DIRECTION('Axis2P3D XDirection',(-1.,0.,0.)) ;
#468=DIRECTION('Vector Direction',(-1.,0.,0.)) ;
#480=DIRECTION('Axis2P3D Direction',(1.,0.,0.)) ;
#481=DIRECTION('Axis2P3D XDirection',(0.,1.,0.)) ;
#15=UNCERTAINTY_MEASURE_WITH_UNIT(LENGTH_MEASURE(0.005),#12,'distance_accuracy_value','CONFUSED CURVE UNCERTAINTY') ;
#18=AXIS2_PLACEMENT_3D(' ',#17,$,$) ;
#36=AXIS2_PLACEMENT_3D('Cone Axis2P3D',#33,#34,#35) ;
#49=AXIS2_PLACEMENT_3D('Circle Axis2P3D',#47,#48,$) ;
#68=AXIS2_PLACEMENT_3D('Cylinder Axis2P3D',#65,#66,#67) ;
#72=AXIS2_PLACEMENT_3D('Circle Axis2P3D',#70,#71,$) ;
#88=AXIS2_PLACEMENT_3D('Circle Axis2P3D',#86,#87,$) ;
#107=AXIS2_PLACEMENT_3D('Circle Axis2P3D',#105,#106,$) ;
#112=AXIS2_PLACEMENT_3D('Circle Axis2P3D',#110,#111,$) ;
#125=AXIS2_PLACEMENT_3D('Cone Axis2P3D',#122,#123,#124) ;
#154=AXIS2_PLACEMENT_3D('Plane Axis2P3D',#151,#152,#153) ;
#192=AXIS2_PLACEMENT_3D('Circle Axis2P3D',#190,#191,$) ;
#201=AXIS2_PLACEMENT_3D('Circle Axis2P3D',#199,#200,$) ;
#250=AXIS2_PLACEMENT_3D('Cylinder Axis2P3D',#247,#248,#249) ;
#259=AXIS2_PLACEMENT_3D('Circle Axis2P3D',#257,#258,$) ;
#290=AXIS2_PLACEMENT_3D('Plane Axis2P3D',#287,#288,#289) ;
#308=AXIS2_PLACEMENT_3D('Circle Axis2P3D',#306,#307,$) ;
#321=AXIS2_PLACEMENT_3D('Plane Axis2P3D',#318,#319,#320) ;
#345=AXIS2_PLACEMENT_3D('Plane Axis2P3D',#342,#343,#344) ;
#356=AXIS2_PLACEMENT_3D('Circle Axis2P3D',#354,#355,$) ;
#369=AXIS2_PLACEMENT_3D('Plane Axis2P3D',#366,#367,#368) ;
#386=AXIS2_PLACEMENT_3D('Plane Axis2P3D',#383,#384,#385) ;
#390=AXIS2_PLACEMENT_3D('Circle Axis2P3D',#388,#389,$) ;
#417=AXIS2_PLACEMENT_3D('Plane Axis2P3D',#414,#415,#416) ;
#441=AXIS2_PLACEMENT_3D('Plane Axis2P3D',#438,#439,#440) ;
#445=AXIS2_PLACEMENT_3D('Circle Axis2P3D',#443,#444,$) ;
#465=AXIS2_PLACEMENT_3D('Plane Axis2P3D',#462,#463,#464) ;
#482=AXIS2_PLACEMENT_3D('Cylinder Axis2P3D',#479,#480,#481) ;
#41=LINE('Line',#38,#40) ;
#57=LINE('Line',#54,#56) ;
#82=LINE('Line',#79,#81) ;
#96=LINE('Line',#93,#95) ;
#130=LINE('Line',#127,#129) ;
#137=LINE('Line',#134,#136) ;
#159=LINE('Line',#156,#158) ;
#168=LINE('Line',#165,#167) ;
#175=LINE('Line',#172,#174) ;
#182=LINE('Line',#179,#181) ;
#215=LINE('Line',#212,#214) ;
#224=LINE('Line',#221,#223) ;
#231=LINE('Line',#228,#230) ;
#238=LINE('Line',#235,#237) ;
#255=LINE('Line',#252,#254) ;
#265=LINE('Line',#262,#264) ;
#295=LINE('Line',#292,#294) ;
#302=LINE('Line',#299,#301) ;
#326=LINE('Line',#323,#325) ;
#333=LINE('Line',#330,#332) ;
#350=LINE('Line',#347,#349) ;
#374=LINE('Line',#371,#373) ;
#400=LINE('Line',#397,#399) ;
#405=LINE('Line',#402,#404) ;
#422=LINE('Line',#419,#421) ;
#429=LINE('Line',#426,#428) ;
#453=LINE('Line',#450,#452) ;
#470=LINE('Line',#467,#469) ;
#50=CIRCLE('generated circle',#49,1.2295) ;
#73=CIRCLE('generated circle',#72,1.2295) ;
#89=CIRCLE('generated circle',#88,1.2295) ;
#108=CIRCLE('generated circle',#107,1.2295) ;
#113=CIRCLE('generated circle',#112,1.2295) ;
#193=CIRCLE('generated circle',#192,1.2295) ;
#202=CIRCLE('generated circle',#201,1.2295) ;
#260=CIRCLE('generated circle',#259,1.2295) ;
#309=CIRCLE('generated circle',#308,38.) ;
#357=CIRCLE('generated circle',#356,38.) ;
#391=CIRCLE('generated circle',#390,38.) ;
#446=CIRCLE('generated circle',#445,38.) ;
#155=PLANE('',#154) ;
#291=PLANE('',#290) ;
#322=PLANE('',#321) ;
#346=PLANE('',#345) ;
#370=PLANE('',#369) ;
#387=PLANE('',#386) ;
#418=PLANE('',#417) ;
#442=PLANE('',#441) ;
#466=PLANE('',#465) ;
#69=CYLINDRICAL_SURFACE('generated cylinder',#68,1.2295) ;
#251=CYLINDRICAL_SURFACE('generated cylinder',#250,1.2295) ;
#483=CYLINDRICAL_SURFACE('generated cylinder',#482,38.) ;
#37=CONICAL_SURFACE('Cone',#36,0.,1.0471975512) ;
#126=CONICAL_SURFACE('Cone',#125,0.,1.0471975512) ;
#207=FACE_BOUND('',#204,.T.) ;
#211=FACE_BOUND('',#208,.T.) ;
#245=FACE_BOUND('',#240,.T.) ;
#495=FACE_BOUND('',#490,.T.) ;
#46=EDGE_CURVE('',#43,#45,#41,.T.) ;
#53=EDGE_CURVE('',#52,#45,#50,.F.) ;
#58=EDGE_CURVE('',#43,#52,#57,.T.) ;
#78=EDGE_CURVE('',#75,#77,#73,.T.) ;
#85=EDGE_CURVE('',#84,#75,#82,.F.) ;
#92=EDGE_CURVE('',#84,#91,#89,.T.) ;
#97=EDGE_CURVE('',#91,#77,#96,.F.) ;
#109=EDGE_CURVE('',#77,#75,#108,.T.) ;
#114=EDGE_CURVE('',#91,#84,#113,.T.) ;
#133=EDGE_CURVE('',#132,#91,#130,.T.) ;
#138=EDGE_CURVE('',#132,#84,#137,.T.) ;
#164=EDGE_CURVE('',#161,#163,#159,.F.) ;
#171=EDGE_CURVE('',#170,#161,#168,.T.) ;
#178=EDGE_CURVE('',#177,#170,#175,.F.) ;
#183=EDGE_CURVE('',#163,#177,#182,.T.) ;
#198=EDGE_CURVE('',#195,#197,#193,.T.) ;
#203=EDGE_CURVE('',#197,#195,#202,.T.) ;
#220=EDGE_CURVE('',#217,#219,#215,.T.) ;
#227=EDGE_CURVE('',#219,#226,#224,.F.) ;
#234=EDGE_CURVE('',#226,#233,#231,.T.) ;
#239=EDGE_CURVE('',#233,#217,#238,.F.) ;
#256=EDGE_CURVE('',#45,#195,#255,.F.) ;
#261=EDGE_CURVE('',#45,#52,#260,.T.) ;
#266=EDGE_CURVE('',#52,#197,#265,.F.) ;
#298=EDGE_CURVE('',#163,#297,#295,.T.) ;
#305=EDGE_CURVE('',#177,#304,#302,.T.) ;
#310=EDGE_CURVE('',#297,#304,#309,.T.) ;
#329=EDGE_CURVE('',#328,#304,#326,.T.) ;
#334=EDGE_CURVE('',#170,#328,#333,.T.) ;
#353=EDGE_CURVE('',#161,#352,#350,.T.) ;
#358=EDGE_CURVE('',#352,#328,#357,.F.) ;
#375=EDGE_CURVE('',#297,#352,#374,.T.) ;
#396=EDGE_CURVE('',#393,#395,#391,.T.) ;
#401=EDGE_CURVE('',#219,#395,#400,.T.) ;
#406=EDGE_CURVE('',#217,#393,#405,.T.) ;
#425=EDGE_CURVE('',#226,#424,#422,.T.) ;
#430=EDGE_CURVE('',#424,#395,#429,.T.) ;
#449=EDGE_CURVE('',#424,#448,#446,.T.) ;
#454=EDGE_CURVE('',#233,#448,#453,.T.) ;
#471=EDGE_CURVE('',#393,#448,#470,.T.) ;
#32=CLOSED_SHELL('Closed Shell',(#64,#104,#121,#144,#150,#246,#273,#280,#286,#317,#341,#365,#382,#413,#437,#461,#478,#496)) ;
#510=SHAPE_REPRESENTATION_RELATIONSHIP(' ',' ',#19,#509) ;
#59=EDGE_LOOP('',(#60,#61,#62)) ;
#98=EDGE_LOOP('',(#99,#100,#101,#102)) ;
#115=EDGE_LOOP('',(#116,#117,#118,#119)) ;
#139=EDGE_LOOP('',(#140,#141,#142)) ;
#145=EDGE_LOOP('',(#146,#147,#148)) ;
#184=EDGE_LOOP('',(#185,#186,#187,#188)) ;
#204=EDGE_LOOP('',(#205,#206)) ;
#208=EDGE_LOOP('',(#209,#210)) ;
#240=EDGE_LOOP('',(#241,#242,#243,#244)) ;
#267=EDGE_LOOP('',(#268,#269,#270,#271)) ;
#274=EDGE_LOOP('',(#275,#276,#277,#278)) ;
#281=EDGE_LOOP('',(#282,#283,#284)) ;
#311=EDGE_LOOP('',(#312,#313,#314,#315)) ;
#335=EDGE_LOOP('',(#336,#337,#338,#339)) ;
#359=EDGE_LOOP('',(#360,#361,#362,#363)) ;
#376=EDGE_LOOP('',(#377,#378,#379,#380)) ;
#407=EDGE_LOOP('',(#408,#409,#410,#411)) ;
#431=EDGE_LOOP('',(#432,#433,#434,#435)) ;
#455=EDGE_LOOP('',(#456,#457,#458,#459)) ;
#472=EDGE_LOOP('',(#473,#474,#475,#476)) ;
#484=EDGE_LOOP('',(#485,#486,#487,#488)) ;
#490=EDGE_LOOP('',(#491,#492,#493,#494)) ;
#60=ORIENTED_EDGE('',*,*,#46,.T.) ;
#61=ORIENTED_EDGE('',*,*,#53,.F.) ;
#62=ORIENTED_EDGE('',*,*,#58,.F.) ;
#99=ORIENTED_EDGE('',*,*,#78,.F.) ;
#100=ORIENTED_EDGE('',*,*,#85,.F.) ;
#101=ORIENTED_EDGE('',*,*,#92,.T.) ;
#102=ORIENTED_EDGE('',*,*,#97,.T.) ;
#116=ORIENTED_EDGE('',*,*,#109,.F.) ;
#117=ORIENTED_EDGE('',*,*,#97,.F.) ;
#118=ORIENTED_EDGE('',*,*,#114,.T.) ;
#119=ORIENTED_EDGE('',*,*,#85,.T.) ;
#140=ORIENTED_EDGE('',*,*,#133,.T.) ;
#141=ORIENTED_EDGE('',*,*,#92,.F.) ;
#142=ORIENTED_EDGE('',*,*,#138,.F.) ;
#146=ORIENTED_EDGE('',*,*,#138,.T.) ;
#147=ORIENTED_EDGE('',*,*,#114,.F.) ;
#148=ORIENTED_EDGE('',*,*,#133,.F.) ;
#185=ORIENTED_EDGE('',*,*,#164,.F.) ;
#186=ORIENTED_EDGE('',*,*,#171,.F.) ;
#187=ORIENTED_EDGE('',*,*,#178,.F.) ;
#188=ORIENTED_EDGE('',*,*,#183,.F.) ;
#205=ORIENTED_EDGE('',*,*,#198,.T.) ;
#206=ORIENTED_EDGE('',*,*,#203,.T.) ;
#209=ORIENTED_EDGE('',*,*,#109,.T.) ;
#210=ORIENTED_EDGE('',*,*,#78,.T.) ;
#241=ORIENTED_EDGE('',*,*,#220,.T.) ;
#242=ORIENTED_EDGE('',*,*,#227,.T.) ;
#243=ORIENTED_EDGE('',*,*,#234,.T.) ;
#244=ORIENTED_EDGE('',*,*,#239,.T.) ;
#268=ORIENTED_EDGE('',*,*,#198,.F.) ;
#269=ORIENTED_EDGE('',*,*,#256,.F.) ;
#270=ORIENTED_EDGE('',*,*,#261,.T.) ;
#271=ORIENTED_EDGE('',*,*,#266,.T.) ;
#275=ORIENTED_EDGE('',*,*,#203,.F.) ;
#276=ORIENTED_EDGE('',*,*,#266,.F.) ;
#277=ORIENTED_EDGE('',*,*,#53,.T.) ;
#278=ORIENTED_EDGE('',*,*,#256,.T.) ;
#282=ORIENTED_EDGE('',*,*,#58,.T.) ;
#283=ORIENTED_EDGE('',*,*,#261,.F.) ;
#284=ORIENTED_EDGE('',*,*,#46,.F.) ;
#312=ORIENTED_EDGE('',*,*,#298,.F.) ;
#313=ORIENTED_EDGE('',*,*,#183,.T.) ;
#314=ORIENTED_EDGE('',*,*,#305,.T.) ;
#315=ORIENTED_EDGE('',*,*,#310,.F.) ;
#336=ORIENTED_EDGE('',*,*,#329,.T.) ;
#337=ORIENTED_EDGE('',*,*,#305,.F.) ;
#338=ORIENTED_EDGE('',*,*,#178,.T.) ;
#339=ORIENTED_EDGE('',*,*,#334,.T.) ;
#360=ORIENTED_EDGE('',*,*,#334,.F.) ;
#361=ORIENTED_EDGE('',*,*,#171,.T.) ;
#362=ORIENTED_EDGE('',*,*,#353,.T.) ;
#363=ORIENTED_EDGE('',*,*,#358,.T.) ;
#377=ORIENTED_EDGE('',*,*,#375,.T.) ;
#378=ORIENTED_EDGE('',*,*,#353,.F.) ;
#379=ORIENTED_EDGE('',*,*,#164,.T.) ;
#380=ORIENTED_EDGE('',*,*,#298,.T.) ;
#408=ORIENTED_EDGE('',*,*,#396,.T.) ;
#409=ORIENTED_EDGE('',*,*,#401,.F.) ;
#410=ORIENTED_EDGE('',*,*,#220,.F.) ;
#411=ORIENTED_EDGE('',*,*,#406,.T.) ;
#432=ORIENTED_EDGE('',*,*,#425,.F.) ;
#433=ORIENTED_EDGE('',*,*,#227,.F.) ;
#434=ORIENTED_EDGE('',*,*,#401,.T.) ;
#435=ORIENTED_EDGE('',*,*,#430,.F.) ;
#456=ORIENTED_EDGE('',*,*,#449,.T.) ;
#457=ORIENTED_EDGE('',*,*,#454,.F.) ;
#458=ORIENTED_EDGE('',*,*,#234,.F.) ;
#459=ORIENTED_EDGE('',*,*,#425,.T.) ;
#473=ORIENTED_EDGE('',*,*,#406,.F.) ;
#474=ORIENTED_EDGE('',*,*,#239,.F.) ;
#475=ORIENTED_EDGE('',*,*,#454,.T.) ;
#476=ORIENTED_EDGE('',*,*,#471,.F.) ;
#485=ORIENTED_EDGE('',*,*,#358,.F.) ;
#486=ORIENTED_EDGE('',*,*,#375,.F.) ;
#487=ORIENTED_EDGE('',*,*,#310,.T.) ;
#488=ORIENTED_EDGE('',*,*,#329,.F.) ;
#491=ORIENTED_EDGE('',*,*,#396,.F.) ;
#492=ORIENTED_EDGE('',*,*,#471,.T.) ;
#493=ORIENTED_EDGE('',*,*,#449,.F.) ;
#494=ORIENTED_EDGE('',*,*,#430,.T.) ;
#21=MANIFOLD_SOLID_BREP('CRABE_SUPPORT_6R_ADMI',#32) ;
#43=VERTEX_POINT('',#42) ;
#45=VERTEX_POINT('',#44) ;
#52=VERTEX_POINT('',#51) ;
#75=VERTEX_POINT('',#74) ;
#77=VERTEX_POINT('',#76) ;
#84=VERTEX_POINT('',#83) ;
#91=VERTEX_POINT('',#90) ;
#132=VERTEX_POINT('',#131) ;
#161=VERTEX_POINT('',#160) ;
#163=VERTEX_POINT('',#162) ;
#170=VERTEX_POINT('',#169) ;
#177=VERTEX_POINT('',#176) ;
#195=VERTEX_POINT('',#194) ;
#197=VERTEX_POINT('',#196) ;
#217=VERTEX_POINT('',#216) ;
#219=VERTEX_POINT('',#218) ;
#226=VERTEX_POINT('',#225) ;
#233=VERTEX_POINT('',#232) ;
#297=VERTEX_POINT('',#296) ;
#304=VERTEX_POINT('',#303) ;
#328=VERTEX_POINT('',#327) ;
#352=VERTEX_POINT('',#351) ;
#393=VERTEX_POINT('',#392) ;
#395=VERTEX_POINT('',#394) ;
#424=VERTEX_POINT('',#423) ;
#448=VERTEX_POINT('',#447) ;
#27=SURFACE_STYLE_TRANSPARENT(0.254901960784) ;
#509=ADVANCED_BREP_SHAPE_REPRESENTATION('NONE',(#21),#16) ;
#64=ADVANCED_FACE('CRABE_SUPPORT_6R_ADMI',(#63),#37,.F.) ;
#104=ADVANCED_FACE('CRABE_SUPPORT_6R_ADMI',(#103),#69,.F.) ;
#121=ADVANCED_FACE('CRABE_SUPPORT_6R_ADMI',(#120),#69,.F.) ;
#144=ADVANCED_FACE('CRABE_SUPPORT_6R_ADMI',(#143),#126,.F.) ;
#150=ADVANCED_FACE('CRABE_SUPPORT_6R_ADMI',(#149),#126,.F.) ;
#246=ADVANCED_FACE('CRABE_SUPPORT_6R_ADMI',(#189,#207,#211,#245),#155,.F.) ;
#273=ADVANCED_FACE('CRABE_SUPPORT_6R_ADMI',(#272),#251,.F.) ;
#280=ADVANCED_FACE('CRABE_SUPPORT_6R_ADMI',(#279),#251,.F.) ;
#286=ADVANCED_FACE('CRABE_SUPPORT_6R_ADMI',(#285),#37,.F.) ;
#317=ADVANCED_FACE('CRABE_SUPPORT_6R_ADMI',(#316),#291,.T.) ;
#341=ADVANCED_FACE('CRABE_SUPPORT_6R_ADMI',(#340),#322,.F.) ;
#365=ADVANCED_FACE('CRABE_SUPPORT_6R_ADMI',(#364),#346,.T.) ;
#382=ADVANCED_FACE('CRABE_SUPPORT_6R_ADMI',(#381),#370,.F.) ;
#413=ADVANCED_FACE('CRABE_SUPPORT_6R_ADMI',(#412),#387,.F.) ;
#437=ADVANCED_FACE('CRABE_SUPPORT_6R_ADMI',(#436),#418,.T.) ;
#461=ADVANCED_FACE('CRABE_SUPPORT_6R_ADMI',(#460),#442,.F.) ;
#478=ADVANCED_FACE('CRABE_SUPPORT_6R_ADMI',(#477),#466,.T.) ;
#496=ADVANCED_FACE('CRABE_SUPPORT_6R_ADMI',(#489,#495),#483,.F.) ;
#4=APPLICATION_PROTOCOL_DEFINITION('international standard','ap242_managed_model_based_3d_engineering',2014,#1) ;
#498=GEOMETRIC_ITEM_SPECIFIC_USAGE('','Solid',#497,#19,#21) ;
#22=COLOUR_RGB('Colour',0.823529411765,0.823529411765,1.) ;
#63=FACE_OUTER_BOUND('',#59,.T.) ;
#103=FACE_OUTER_BOUND('',#98,.T.) ;
#120=FACE_OUTER_BOUND('',#115,.T.) ;
#143=FACE_OUTER_BOUND('',#139,.T.) ;
#149=FACE_OUTER_BOUND('',#145,.T.) ;
#189=FACE_OUTER_BOUND('',#184,.T.) ;
#272=FACE_OUTER_BOUND('',#267,.T.) ;
#279=FACE_OUTER_BOUND('',#274,.T.) ;
#285=FACE_OUTER_BOUND('',#281,.T.) ;
#316=FACE_OUTER_BOUND('',#311,.T.) ;
#340=FACE_OUTER_BOUND('',#335,.T.) ;
#364=FACE_OUTER_BOUND('',#359,.T.) ;
#381=FACE_OUTER_BOUND('',#376,.T.) ;
#412=FACE_OUTER_BOUND('',#407,.T.) ;
#436=FACE_OUTER_BOUND('',#431,.T.) ;
#460=FACE_OUTER_BOUND('',#455,.T.) ;
#477=FACE_OUTER_BOUND('',#472,.T.) ;
#489=FACE_OUTER_BOUND('',#484,.T.) ;
#9=PRODUCT_CATEGORY_RELATIONSHIP(' ',' ',#7,#8) ;
#6=PRODUCT_DEFINITION_FORMATION_WITH_SPECIFIED_SOURCE('',' ',#5,.NOT_KNOWN.) ;
#20=SHAPE_DEFINITION_REPRESENTATION(#11,#19) ;
#26=SURFACE_STYLE_RENDERING_WITH_PROPERTIES(.NORMAL_SHADING.,#22,(#27)) ;
#12=(LENGTH_UNIT()NAMED_UNIT(*)SI_UNIT(.MILLI.,.METRE.)) ;
#13=(NAMED_UNIT(*)PLANE_ANGLE_UNIT()SI_UNIT($,.RADIAN.)) ;
#14=(NAMED_UNIT(*)SI_UNIT($,.STERADIAN.)SOLID_ANGLE_UNIT()) ;
#16=(GEOMETRIC_REPRESENTATION_CONTEXT(3)GLOBAL_UNCERTAINTY_ASSIGNED_CONTEXT((#15))GLOBAL_UNIT_ASSIGNED_CONTEXT((#12,#13,#14))REPRESENTATION_CONTEXT(' ',' ')) ;
ENDSEC;
END-ISO-10303-21;
