ISO-10303-21;
HEADER;
FILE_DESCRIPTION(('FreeCAD Model'),'2;1');
FILE_NAME('Open CASCADE Shape Model','2024-01-05T21:01:05',('Author'),(
    ''),'Open CASCADE STEP processor 7.6','FreeCAD','Unknown');
FILE_SCHEMA(('AUTOMOTIVE_DESIGN { 1 0 10303 214 1 1 1 1 }'));
ENDSEC;
DATA;
#1 = APPLICATION_PROTOCOL_DEFINITION('international standard',
  'automotive_design',2000,#2);
#2 = APPLICATION_CONTEXT(
  'core data for automotive mechanical design processes');
#3 = SHAPE_DEFINITION_REPRESENTATION(#4,#10);
#4 = PRODUCT_DEFINITION_SHAPE('','',#5);
#5 = PRODUCT_DEFINITION('design','',#6,#9);
#6 = PRODUCT_DEFINITION_FORMATION('','',#7);
#7 = PRODUCT('Body','Body','',(#8));
#8 = PRODUCT_CONTEXT('',#2,'mechanical');
#9 = PRODUCT_DEFINITION_CONTEXT('part definition',#2,'design');
#10 = ADVANCED_BREP_SHAPE_REPRESENTATION('',(#11,#15),#317);
#11 = AXIS2_PLACEMENT_3D('',#12,#13,#14);
#12 = CARTESIAN_POINT('',(0.,0.,0.));
#13 = DIRECTION('',(0.,0.,1.));
#14 = DIRECTION('',(1.,0.,-0.));
#15 = MANIFOLD_SOLID_BREP('',#16);
#16 = CLOSED_SHELL('',(#17,#34,#281,#300));
#17 = ADVANCED_FACE('',(#18),#29,.T.);
#18 = FACE_BOUND('',#19,.F.);
#19 = EDGE_LOOP('',(#20));
#20 = ORIENTED_EDGE('',*,*,#21,.F.);
#21 = EDGE_CURVE('',#22,#22,#24,.T.);
#22 = VERTEX_POINT('',#23);
#23 = CARTESIAN_POINT('',(7.75,0.,0.));
#24 = CIRCLE('',#25,7.75);
#25 = AXIS2_PLACEMENT_3D('',#26,#27,#28);
#26 = CARTESIAN_POINT('',(0.,0.,0.));
#27 = DIRECTION('',(0.,-1.,0.));
#28 = DIRECTION('',(1.,0.,0.));
#29 = PLANE('',#30);
#30 = AXIS2_PLACEMENT_3D('',#31,#32,#33);
#31 = CARTESIAN_POINT('',(0.,0.,0.));
#32 = DIRECTION('',(-0.,-1.,-0.));
#33 = DIRECTION('',(1.,0.,0.));
#34 = ADVANCED_FACE('',(#35,#54,#165),#276,.T.);
#35 = FACE_BOUND('',#36,.F.);
#36 = EDGE_LOOP('',(#37,#45,#46,#47));
#37 = ORIENTED_EDGE('',*,*,#38,.F.);
#38 = EDGE_CURVE('',#22,#39,#41,.T.);
#39 = VERTEX_POINT('',#40);
#40 = CARTESIAN_POINT('',(7.75,54.892183308399,0.));
#41 = LINE('',#42,#43);
#42 = CARTESIAN_POINT('',(7.75,0.,0.));
#43 = VECTOR('',#44,1.);
#44 = DIRECTION('',(0.,1.,0.));
#45 = ORIENTED_EDGE('',*,*,#21,.T.);
#46 = ORIENTED_EDGE('',*,*,#38,.T.);
#47 = ORIENTED_EDGE('',*,*,#48,.F.);
#48 = EDGE_CURVE('',#39,#39,#49,.T.);
#49 = CIRCLE('',#50,7.75);
#50 = AXIS2_PLACEMENT_3D('',#51,#52,#53);
#51 = CARTESIAN_POINT('',(0.,54.892183308399,0.));
#52 = DIRECTION('',(0.,-1.,0.));
#53 = DIRECTION('',(1.,0.,0.));
#54 = FACE_BOUND('',#55,.F.);
#55 = EDGE_LOOP('',(#56));
#56 = ORIENTED_EDGE('',*,*,#57,.T.);
#57 = EDGE_CURVE('',#58,#58,#60,.T.);
#58 = VERTEX_POINT('',#59);
#59 = CARTESIAN_POINT('',(3.,20.,7.145802963978));
#60 = B_SPLINE_CURVE_WITH_KNOTS('',7,(#61,#62,#63,#64,#65,#66,#67,#68,
    #69,#70,#71,#72,#73,#74,#75,#76,#77,#78,#79,#80,#81,#82,#83,#84,#85,
    #86,#87,#88,#89,#90,#91,#92,#93,#94,#95,#96,#97,#98,#99,#100,#101,
    #102,#103,#104,#105,#106,#107,#108,#109,#110,#111,#112,#113,#114,
    #115,#116,#117,#118,#119,#120,#121,#122,#123,#124,#125,#126,#127,
    #128,#129,#130,#131,#132,#133,#134,#135,#136,#137,#138,#139,#140,
    #141,#142,#143,#144,#145,#146,#147,#148,#149,#150,#151,#152,#153,
    #154,#155,#156,#157,#158,#159,#160,#161,#162,#163,#164),
  .UNSPECIFIED.,.T.,.F.,(8,6,6,6,6,6,6,6,6,6,6,6,6,6,6,6,6,8),(0.,
    0.126188067507,0.184015082424,0.222162561406,0.278499953315,
    0.316143815475,0.348211642966,0.394164991561,0.43743478629,
    0.499795897185,0.573790703323,0.626480221662,0.684290035462,
    0.722426167152,0.778746801004,0.816379496568,0.848437840408,1.),
  .UNSPECIFIED.);
#61 = CARTESIAN_POINT('',(3.,20.,7.145802963978));
#62 = CARTESIAN_POINT('',(3.,20.300027402632,7.145802963978));
#63 = CARTESIAN_POINT('',(2.964994234574,20.59921957831,7.160499428238)
  );
#64 = CARTESIAN_POINT('',(2.895328929622,20.894881763795,7.189746223389)
  );
#65 = CARTESIAN_POINT('',(2.790683086371,21.184196414064,7.232410276865)
  );
#66 = CARTESIAN_POINT('',(2.650248075965,21.46386366343,7.286351108709)
  );
#67 = CARTESIAN_POINT('',(2.472902189246,21.7296588115,7.348329832992));
#68 = CARTESIAN_POINT('',(2.158800388019,22.08855064458,7.443972548574)
  );
#69 = CARTESIAN_POINT('',(2.051928892051,22.19739755422,7.474839177096)
  );
#70 = CARTESIAN_POINT('',(1.936724845144,22.301731878105,7.506097200466)
  );
#71 = CARTESIAN_POINT('',(1.813027246086,22.400876941572,7.537264752214)
  );
#72 = CARTESIAN_POINT('',(1.680702659178,22.494041975604,7.567788848246)
  );
#73 = CARTESIAN_POINT('',(1.539668554035,22.580305164238,7.597044872449)
  );
#74 = CARTESIAN_POINT('',(1.291132536821,22.710240383306,7.64235303705)
  );
#75 = CARTESIAN_POINT('',(1.188480099365,22.758454222234,7.659523697412)
  );
#76 = CARTESIAN_POINT('',(1.082162080712,22.802808667532,7.675617600718)
  );
#77 = CARTESIAN_POINT('',(0.972406133344,22.842907566131,7.690400416846)
  );
#78 = CARTESIAN_POINT('',(0.859467112737,22.878383791233,7.703648671447)
  );
#79 = CARTESIAN_POINT('',(0.743626586613,22.908897213343,7.715156385192)
  );
#80 = CARTESIAN_POINT('',(0.450284945107,22.971401186084,7.738897625394)
  );
#81 = CARTESIAN_POINT('',(0.269806041773,22.997140417647,7.74885379928)
  );
#82 = CARTESIAN_POINT('',(8.592936884898E-02,23.010107093399,
    7.753936793783));
#83 = CARTESIAN_POINT('',(-9.905399635513E-02,23.009699620789,
    7.753777108005));
#84 = CARTESIAN_POINT('',(-0.282814792682,22.995930305756,7.748382323674
    ));
#85 = CARTESIAN_POINT('',(-0.463064691876,22.969425511451,7.738136320373
    ));
#86 = CARTESIAN_POINT('',(-0.754281075954,22.90608155888,7.714094827666)
  );
#87 = CARTESIAN_POINT('',(-0.868371707078,22.875593768364,7.702606817259
    ));
#88 = CARTESIAN_POINT('',(-0.979615360445,22.840295398555,7.689436915323
    ));
#89 = CARTESIAN_POINT('',(-1.087745131482,22.800514521221,7.674783811908
    ));
#90 = CARTESIAN_POINT('',(-1.192519525378,22.756604123745,7.658862316799
    ));
#91 = CARTESIAN_POINT('',(-1.293722865233,22.708943965843,7.641897172387
    ));
#92 = CARTESIAN_POINT('',(-1.474174717951,22.614495559206,7.60897028624)
  );
#93 = CARTESIAN_POINT('',(-1.554529233207,22.568585076082,7.593218550288
    ));
#94 = CARTESIAN_POINT('',(-1.632219787767,22.52039473367,7.576979751135)
  );
#95 = CARTESIAN_POINT('',(-1.707243738377,22.47009730361,7.560366910874)
  );
#96 = CARTESIAN_POINT('',(-1.779604982983,22.417854798873,7.54348735606)
  );
#97 = CARTESIAN_POINT('',(-1.84931368698,22.363818690203,7.526442092535)
  );
#98 = CARTESIAN_POINT('',(-2.012500965069,22.228328141559,7.484796563923
    ));
#99 = CARTESIAN_POINT('',(-2.103229278656,22.145110140296,7.460113825735
    ));
#100 = CARTESIAN_POINT('',(-2.188658378727,22.058849533563,
    7.435542394949));
#101 = CARTESIAN_POINT('',(-2.268882872524,21.969867867522,
    7.411319091067));
#102 = CARTESIAN_POINT('',(-2.343998839497,21.878440755948,
    7.387654884676));
#103 = CARTESIAN_POINT('',(-2.414098124772,21.784803816448,
    7.364737658292));
#104 = CARTESIAN_POINT('',(-2.540621705767,21.599098823877,
    7.322017174998));
#105 = CARTESIAN_POINT('',(-2.597607161281,21.507256434234,
    7.302109753915));
#106 = CARTESIAN_POINT('',(-2.650274825523,21.413816365109,
    7.283156859553));
#107 = CARTESIAN_POINT('',(-2.698674031212,21.318947471529,
    7.265287675596));
#108 = CARTESIAN_POINT('',(-2.74284753638,21.222802815172,7.248616802657
    ));
#109 = CARTESIAN_POINT('',(-2.782831443334,21.125519943347,
    7.233244647131));
#110 = CARTESIAN_POINT('',(-2.870284762234,20.885551421906,
    7.199099759753));
#111 = CARTESIAN_POINT('',(-2.913274914432,20.741765582946,
    7.181818317345));
#112 = CARTESIAN_POINT('',(-2.947675881691,20.596324301867,
    7.167687508438));
#113 = CARTESIAN_POINT('',(-2.973528294288,20.449655316874,
    7.156914687834));
#114 = CARTESIAN_POINT('',(-2.990860157051,20.302163453414,
    7.149639971814));
#115 = CARTESIAN_POINT('',(-2.999683901113,20.154240623984,
    7.145935670443));
#116 = CARTESIAN_POINT('',(-3.000360715012,19.830707653434,
    7.145651526522));
#117 = CARTESIAN_POINT('',(-2.988740464766,19.655187569454,
    7.150529725617));
#118 = CARTESIAN_POINT('',(-2.965149988533,19.480352095428,
    7.160437075394));
#119 = CARTESIAN_POINT('',(-2.929564109243,19.306843205008,7.17523699629
    ));
#120 = CARTESIAN_POINT('',(-2.881922972441,19.135332823175,
    7.194660556748));
#121 = CARTESIAN_POINT('',(-2.822139849592,18.966547323347,7.21830745902
    ));
#122 = CARTESIAN_POINT('',(-2.698817856816,18.683618601812,
    7.265114723276));
#123 = CARTESIAN_POINT('',(-2.64131140097,18.567723120319,7.286456870494
    ));
#124 = CARTESIAN_POINT('',(-2.57752171608,18.453833542137,7.309493248162
    ));
#125 = CARTESIAN_POINT('',(-2.507358409469,18.342210326526,
    7.334015675182));
#126 = CARTESIAN_POINT('',(-2.430714388786,18.23315598922,7.359784135453
    ));
#127 = CARTESIAN_POINT('',(-2.347471697255,18.127024661759,
    7.386522905506));
#128 = CARTESIAN_POINT('',(-2.158800388019,17.91144935542,7.443972548574
    ));
#129 = CARTESIAN_POINT('',(-2.051928892051,17.80260244578,7.474839177096
    ));
#130 = CARTESIAN_POINT('',(-1.936724845144,17.698268121895,
    7.506097200466));
#131 = CARTESIAN_POINT('',(-1.813027246086,17.599123058428,
    7.537264752214));
#132 = CARTESIAN_POINT('',(-1.680702659177,17.505958024395,
    7.567788848246));
#133 = CARTESIAN_POINT('',(-1.539668554035,17.419694835762,
    7.597044872449));
#134 = CARTESIAN_POINT('',(-1.291132536856,17.289759616712,
    7.642353037044));
#135 = CARTESIAN_POINT('',(-1.188480099369,17.241545777764,
    7.659523697412));
#136 = CARTESIAN_POINT('',(-1.08216208068,17.197191332454,7.675617600723
    ));
#137 = CARTESIAN_POINT('',(-0.97240613331,17.157092433861,7.690400416849
    ));
#138 = CARTESIAN_POINT('',(-0.859467112742,17.121616208772,
    7.703648671445));
#139 = CARTESIAN_POINT('',(-0.74362658666,17.091102786667,7.715156385188
    ));
#140 = CARTESIAN_POINT('',(-0.450284945107,17.028598813916,
    7.738897625394));
#141 = CARTESIAN_POINT('',(-0.269806041773,17.002859582353,7.74885379928
    ));
#142 = CARTESIAN_POINT('',(-8.592936884895E-02,16.989892906601,
    7.753936793783));
#143 = CARTESIAN_POINT('',(9.90539963552E-02,16.990300379211,
    7.753777108005));
#144 = CARTESIAN_POINT('',(0.282814792682,17.004069694244,7.748382323674
    ));
#145 = CARTESIAN_POINT('',(0.463064691875,17.030574488549,7.738136320373
    ));
#146 = CARTESIAN_POINT('',(0.754281171751,17.093918461957,7.714094819758
    ));
#147 = CARTESIAN_POINT('',(0.868371715893,17.124406241753,7.702606813868
    ));
#148 = CARTESIAN_POINT('',(0.97961528951,17.159704583142,7.689436922155)
  );
#149 = CARTESIAN_POINT('',(1.087745064963,17.199485448261,7.674783822687
    ));
#150 = CARTESIAN_POINT('',(1.192519533921,17.243395871788,7.65886231819)
  );
#151 = CARTESIAN_POINT('',(1.293722938132,17.291056072312,7.641897159085
    ));
#152 = CARTESIAN_POINT('',(1.474174730632,17.385504447431,7.608970283926
    ));
#153 = CARTESIAN_POINT('',(1.554529234295,17.431414925534,7.593218549843
    ));
#154 = CARTESIAN_POINT('',(1.632219778556,17.479605261152,7.576979752905
    ));
#155 = CARTESIAN_POINT('',(1.707243730028,17.529902689998,7.560366912883
    ));
#156 = CARTESIAN_POINT('',(1.779604984421,17.582145201118,7.543487355982
    ));
#157 = CARTESIAN_POINT('',(1.849313696405,17.636181317622,7.526442090129
    ));
#158 = CARTESIAN_POINT('',(2.233483632025,17.955148555507,7.428401604173
    ));
#159 = CARTESIAN_POINT('',(2.493076086729,18.256542306352,7.345513641293
    ));
#160 = CARTESIAN_POINT('',(2.697165234571,18.582797234158,7.270264464976
    ));
#161 = CARTESIAN_POINT('',(2.848544691914,18.925614577977,7.20938833142)
  );
#162 = CARTESIAN_POINT('',(2.9491868542,19.278996495308,7.16713552364));
#163 = CARTESIAN_POINT('',(3.,19.638528789407,7.145802963978));
#164 = CARTESIAN_POINT('',(3.,20.,7.145802963978));
#165 = FACE_BOUND('',#166,.F.);
#166 = EDGE_LOOP('',(#167));
#167 = ORIENTED_EDGE('',*,*,#168,.F.);
#168 = EDGE_CURVE('',#169,#169,#171,.T.);
#169 = VERTEX_POINT('',#170);
#170 = CARTESIAN_POINT('',(3.,20.,-7.145802963978));
#171 = B_SPLINE_CURVE_WITH_KNOTS('',7,(#172,#173,#174,#175,#176,#177,
    #178,#179,#180,#181,#182,#183,#184,#185,#186,#187,#188,#189,#190,
    #191,#192,#193,#194,#195,#196,#197,#198,#199,#200,#201,#202,#203,
    #204,#205,#206,#207,#208,#209,#210,#211,#212,#213,#214,#215,#216,
    #217,#218,#219,#220,#221,#222,#223,#224,#225,#226,#227,#228,#229,
    #230,#231,#232,#233,#234,#235,#236,#237,#238,#239,#240,#241,#242,
    #243,#244,#245,#246,#247,#248,#249,#250,#251,#252,#253,#254,#255,
    #256,#257,#258,#259,#260,#261,#262,#263,#264,#265,#266,#267,#268,
    #269,#270,#271,#272,#273,#274,#275),.UNSPECIFIED.,.T.,.F.,(8,6,6,6,6
    ,6,6,6,6,6,6,6,6,6,6,6,6,8),(0.,0.126187739385,0.184014603936,
    0.222162013364,0.278499351353,0.316143208442,0.348211060537,
    0.394164449367,0.437434283273,0.499795448726,0.573790321774,
    0.626479885764,0.684289751966,0.722425918231,0.778746603152,
    0.816379332848,0.848437705769,1.),.UNSPECIFIED.);
#172 = CARTESIAN_POINT('',(3.,20.,-7.145802963978));
#173 = CARTESIAN_POINT('',(3.,20.300027402632,-7.145802963978));
#174 = CARTESIAN_POINT('',(2.964994234574,20.599219578309,
    -7.160499428238));
#175 = CARTESIAN_POINT('',(2.895328929622,20.894881763797,
    -7.189746223389));
#176 = CARTESIAN_POINT('',(2.79068308637,21.184196414063,-7.232410276864
    ));
#177 = CARTESIAN_POINT('',(2.650248075965,21.463863663431,
    -7.286351108709));
#178 = CARTESIAN_POINT('',(2.472902189246,21.729658811499,
    -7.348329832992));
#179 = CARTESIAN_POINT('',(2.158800388019,22.08855064458,-7.443972548574
    ));
#180 = CARTESIAN_POINT('',(2.05192889205,22.19739755422,-7.474839177096)
  );
#181 = CARTESIAN_POINT('',(1.936724845144,22.301731878105,
    -7.506097200466));
#182 = CARTESIAN_POINT('',(1.813027246086,22.400876941572,
    -7.537264752214));
#183 = CARTESIAN_POINT('',(1.680702659177,22.494041975605,
    -7.567788848246));
#184 = CARTESIAN_POINT('',(1.539668554036,22.580305164238,
    -7.597044872449));
#185 = CARTESIAN_POINT('',(1.291132460066,22.710240423434,
    -7.642353051043));
#186 = CARTESIAN_POINT('',(1.188480090502,22.758454217325,
    -7.659523695872));
#187 = CARTESIAN_POINT('',(1.082162150826,22.802808635502,
    -7.675617589402));
#188 = CARTESIAN_POINT('',(0.972406207605,22.84290754738,-7.690400409839
    ));
#189 = CARTESIAN_POINT('',(0.859467102173,22.878383802367,
    -7.703648675193));
#190 = CARTESIAN_POINT('',(0.743626484025,22.908897235202,
    -7.715156393495));
#191 = CARTESIAN_POINT('',(0.450284945107,22.971401186084,
    -7.738897625394));
#192 = CARTESIAN_POINT('',(0.269806041774,22.997140417647,-7.74885379928
    ));
#193 = CARTESIAN_POINT('',(8.592936884884E-02,23.010107093399,
    -7.753936793783));
#194 = CARTESIAN_POINT('',(-9.905399635526E-02,23.009699620789,
    -7.753777108005));
#195 = CARTESIAN_POINT('',(-0.282814792682,22.995930305756,
    -7.748382323674));
#196 = CARTESIAN_POINT('',(-0.463064691876,22.969425511451,
    -7.738136320373));
#197 = CARTESIAN_POINT('',(-0.754281171884,22.906081538014,
    -7.714094819747));
#198 = CARTESIAN_POINT('',(-0.868371715905,22.875593758233,
    -7.702606813863));
#199 = CARTESIAN_POINT('',(-0.979615289412,22.840295416884,
    -7.689436922164));
#200 = CARTESIAN_POINT('',(-1.087745064871,22.800514551781,
    -7.674783822702));
#201 = CARTESIAN_POINT('',(-1.192519533932,22.756604128218,
    -7.658862318192));
#202 = CARTESIAN_POINT('',(-1.293722938234,22.708943927635,
    -7.641897159067));
#203 = CARTESIAN_POINT('',(-1.474174730631,22.614495552569,
    -7.608970283926));
#204 = CARTESIAN_POINT('',(-1.554529234295,22.568585074466,
    -7.593218549843));
#205 = CARTESIAN_POINT('',(-1.632219778557,22.520394738848,
    -7.576979752905));
#206 = CARTESIAN_POINT('',(-1.707243730028,22.470097310002,
    -7.560366912883));
#207 = CARTESIAN_POINT('',(-1.779604984421,22.417854798882,
    -7.543487355982));
#208 = CARTESIAN_POINT('',(-1.849313696405,22.363818682378,
    -7.526442090129));
#209 = CARTESIAN_POINT('',(-2.012500961976,22.228328144127,
    -7.484796564712));
#210 = CARTESIAN_POINT('',(-2.103229281073,22.145110137538,
    -7.460113825017));
#211 = CARTESIAN_POINT('',(-2.188658381154,22.058849531477,
    -7.435542394318));
#212 = CARTESIAN_POINT('',(-2.268882870944,21.969867869799,
    -7.411319091598));
#213 = CARTESIAN_POINT('',(-2.343998836914,21.878440758654,
    -7.387654885413));
#214 = CARTESIAN_POINT('',(-2.414098126717,21.784803813593,
    -7.364737657636));
#215 = CARTESIAN_POINT('',(-2.540621705767,21.599098823877,
    -7.322017174998));
#216 = CARTESIAN_POINT('',(-2.597607161281,21.507256434234,
    -7.302109753915));
#217 = CARTESIAN_POINT('',(-2.650274825523,21.413816365109,
    -7.283156859553));
#218 = CARTESIAN_POINT('',(-2.698674031212,21.318947471529,
    -7.265287675596));
#219 = CARTESIAN_POINT('',(-2.74284753638,21.222802815172,
    -7.248616802657));
#220 = CARTESIAN_POINT('',(-2.782831443334,21.125519943347,
    -7.233244647131));
#221 = CARTESIAN_POINT('',(-2.870284760658,20.885551426231,
    -7.199099760369));
#222 = CARTESIAN_POINT('',(-2.913274915104,20.741765578546,
    -7.181818317079));
#223 = CARTESIAN_POINT('',(-2.947675882894,20.596324298368,
    -7.167687507966));
#224 = CARTESIAN_POINT('',(-2.973528294226,20.449655320388,
    -7.15691468786));
#225 = CARTESIAN_POINT('',(-2.990860156144,20.302163457812,
    -7.149639972172));
#226 = CARTESIAN_POINT('',(-2.999683901122,20.154240619639,
    -7.145935670439));
#227 = CARTESIAN_POINT('',(-3.000360715012,19.830707653434,
    -7.145651526522));
#228 = CARTESIAN_POINT('',(-2.988740464766,19.655187569454,
    -7.150529725617));
#229 = CARTESIAN_POINT('',(-2.965149988533,19.480352095428,
    -7.160437075394));
#230 = CARTESIAN_POINT('',(-2.929564109243,19.306843205008,
    -7.17523699629));
#231 = CARTESIAN_POINT('',(-2.881922972441,19.135332823175,
    -7.194660556748));
#232 = CARTESIAN_POINT('',(-2.822139849592,18.966547323347,
    -7.21830745902));
#233 = CARTESIAN_POINT('',(-2.698817858755,18.683618606262,
    -7.26511472254));
#234 = CARTESIAN_POINT('',(-2.641311398096,18.567723116038,
    -7.286456871441));
#235 = CARTESIAN_POINT('',(-2.577521714485,18.453833538581,
    -7.309493248765));
#236 = CARTESIAN_POINT('',(-2.507358412283,18.342210329857,
    -7.334015674312));
#237 = CARTESIAN_POINT('',(-2.430714391414,18.233155993562,
    -7.359784134558));
#238 = CARTESIAN_POINT('',(-2.347471693653,18.127024657644,
    -7.386522906602));
#239 = CARTESIAN_POINT('',(-2.158800388019,17.91144935542,
    -7.443972548574));
#240 = CARTESIAN_POINT('',(-2.051928892051,17.80260244578,
    -7.474839177096));
#241 = CARTESIAN_POINT('',(-1.936724845144,17.698268121895,
    -7.506097200466));
#242 = CARTESIAN_POINT('',(-1.813027246086,17.599123058428,
    -7.537264752214));
#243 = CARTESIAN_POINT('',(-1.680702659177,17.505958024395,
    -7.567788848246));
#244 = CARTESIAN_POINT('',(-1.539668554035,17.419694835762,
    -7.597044872449));
#245 = CARTESIAN_POINT('',(-1.291132536841,17.289759616705,
    -7.642353037046));
#246 = CARTESIAN_POINT('',(-1.188480099367,17.241545777765,
    -7.659523697412));
#247 = CARTESIAN_POINT('',(-1.082162080693,17.19719133246,
    -7.675617600721));
#248 = CARTESIAN_POINT('',(-0.972406133324,17.157092433864,
    -7.690400416848));
#249 = CARTESIAN_POINT('',(-0.85946711274,17.12161620877,-7.703648671446
    ));
#250 = CARTESIAN_POINT('',(-0.743626586641,17.091102786663,
    -7.71515638519));
#251 = CARTESIAN_POINT('',(-0.450284945107,17.028598813916,
    -7.738897625394));
#252 = CARTESIAN_POINT('',(-0.269806041773,17.002859582353,
    -7.74885379928));
#253 = CARTESIAN_POINT('',(-8.592936884897E-02,16.989892906601,
    -7.753936793783));
#254 = CARTESIAN_POINT('',(9.905399635519E-02,16.990300379211,
    -7.753777108005));
#255 = CARTESIAN_POINT('',(0.282814792682,17.004069694244,
    -7.748382323674));
#256 = CARTESIAN_POINT('',(0.463064691875,17.030574488549,
    -7.738136320373));
#257 = CARTESIAN_POINT('',(0.754281171774,17.093918461962,
    -7.714094819756));
#258 = CARTESIAN_POINT('',(0.868371715895,17.124406241756,
    -7.702606813867));
#259 = CARTESIAN_POINT('',(0.979615289493,17.159704583137,
    -7.689436922156));
#260 = CARTESIAN_POINT('',(1.087745064947,17.199485448254,-7.67478382269
    ));
#261 = CARTESIAN_POINT('',(1.192519533923,17.243395871787,-7.65886231819
    ));
#262 = CARTESIAN_POINT('',(1.29372293815,17.291056072322,-7.641897159082
    ));
#263 = CARTESIAN_POINT('',(1.47417473063,17.38550444743,-7.608970283926)
  );
#264 = CARTESIAN_POINT('',(1.554529234295,17.431414925534,
    -7.593218549843));
#265 = CARTESIAN_POINT('',(1.632219778558,17.479605261153,
    -7.576979752905));
#266 = CARTESIAN_POINT('',(1.707243730029,17.529902689999,
    -7.560366912882));
#267 = CARTESIAN_POINT('',(1.779604984421,17.582145201118,
    -7.543487355982));
#268 = CARTESIAN_POINT('',(1.849313696403,17.636181317621,-7.52644209013
    ));
#269 = CARTESIAN_POINT('',(2.233483626075,17.955148550566,
    -7.428401605691));
#270 = CARTESIAN_POINT('',(2.493076104245,18.256542327023,
    -7.345513636604));
#271 = CARTESIAN_POINT('',(2.697165211097,18.582797195627,
    -7.270264471498));
#272 = CARTESIAN_POINT('',(2.848544708108,18.925614617173,
    -7.209388326792));
#273 = CARTESIAN_POINT('',(2.949186849323,19.278996473389,
    -7.167135525061));
#274 = CARTESIAN_POINT('',(3.,19.638528795033,-7.145802963978));
#275 = CARTESIAN_POINT('',(3.,20.,-7.145802963978));
#276 = CYLINDRICAL_SURFACE('',#277,7.75);
#277 = AXIS2_PLACEMENT_3D('',#278,#279,#280);
#278 = CARTESIAN_POINT('',(0.,0.,0.));
#279 = DIRECTION('',(0.,1.,0.));
#280 = DIRECTION('',(1.,0.,0.));
#281 = ADVANCED_FACE('',(#282),#295,.T.);
#282 = FACE_BOUND('',#283,.F.);
#283 = EDGE_LOOP('',(#284,#285,#294));
#284 = ORIENTED_EDGE('',*,*,#48,.T.);
#285 = ORIENTED_EDGE('',*,*,#286,.T.);
#286 = EDGE_CURVE('',#39,#287,#289,.T.);
#287 = VERTEX_POINT('',#288);
#288 = CARTESIAN_POINT('',(2.104861680273E-15,80.,0.));
#289 = CIRCLE('',#290,13.75);
#290 = AXIS2_PLACEMENT_3D('',#291,#292,#293);
#291 = CARTESIAN_POINT('',(0.,66.25,0.));
#292 = DIRECTION('',(0.,0.,1.));
#293 = DIRECTION('',(1.,0.,0.));
#294 = ORIENTED_EDGE('',*,*,#286,.F.);
#295 = SPHERICAL_SURFACE('',#296,13.75);
#296 = AXIS2_PLACEMENT_3D('',#297,#298,#299);
#297 = CARTESIAN_POINT('',(0.,66.25,0.));
#298 = DIRECTION('',(0.,1.,0.));
#299 = DIRECTION('',(1.,0.,0.));
#300 = ADVANCED_FACE('',(#301),#312,.F.);
#301 = FACE_BOUND('',#302,.F.);
#302 = EDGE_LOOP('',(#303,#304,#310,#311));
#303 = ORIENTED_EDGE('',*,*,#57,.F.);
#304 = ORIENTED_EDGE('',*,*,#305,.T.);
#305 = EDGE_CURVE('',#58,#169,#306,.T.);
#306 = LINE('',#307,#308);
#307 = CARTESIAN_POINT('',(3.,20.,89.841756717019));
#308 = VECTOR('',#309,1.);
#309 = DIRECTION('',(-0.,-0.,-1.));
#310 = ORIENTED_EDGE('',*,*,#168,.T.);
#311 = ORIENTED_EDGE('',*,*,#305,.F.);
#312 = CYLINDRICAL_SURFACE('',#313,3.);
#313 = AXIS2_PLACEMENT_3D('',#314,#315,#316);
#314 = CARTESIAN_POINT('',(0.,20.,89.841756717019));
#315 = DIRECTION('',(0.,0.,1.));
#316 = DIRECTION('',(1.,0.,0.));
#317 = ( GEOMETRIC_REPRESENTATION_CONTEXT(3) 
GLOBAL_UNCERTAINTY_ASSIGNED_CONTEXT((#321)) GLOBAL_UNIT_ASSIGNED_CONTEXT
((#318,#319,#320)) REPRESENTATION_CONTEXT('Context #1',
  '3D Context with UNIT and UNCERTAINTY') );
#318 = ( LENGTH_UNIT() NAMED_UNIT(*) SI_UNIT(.MILLI.,.METRE.) );
#319 = ( NAMED_UNIT(*) PLANE_ANGLE_UNIT() SI_UNIT($,.RADIAN.) );
#320 = ( NAMED_UNIT(*) SI_UNIT($,.STERADIAN.) SOLID_ANGLE_UNIT() );
#321 = UNCERTAINTY_MEASURE_WITH_UNIT(LENGTH_MEASURE(1.E-07),#318,
  'distance_accuracy_value','confusion accuracy');
#322 = PRODUCT_RELATED_PRODUCT_CATEGORY('part',$,(#7));
#323 = MECHANICAL_DESIGN_GEOMETRIC_PRESENTATION_REPRESENTATION('',(#324)
  ,#317);
#324 = STYLED_ITEM('color',(#325),#15);
#325 = PRESENTATION_STYLE_ASSIGNMENT((#326,#332));
#326 = SURFACE_STYLE_USAGE(.BOTH.,#327);
#327 = SURFACE_SIDE_STYLE('',(#328));
#328 = SURFACE_STYLE_FILL_AREA(#329);
#329 = FILL_AREA_STYLE('',(#330));
#330 = FILL_AREA_STYLE_COLOUR('',#331);
#331 = COLOUR_RGB('',0.800000010877,0.800000010877,0.800000010877);
#332 = CURVE_STYLE('',#333,POSITIVE_LENGTH_MEASURE(0.1),#334);
#333 = DRAUGHTING_PRE_DEFINED_CURVE_FONT('continuous');
#334 = COLOUR_RGB('',9.803921802644E-02,9.803921802644E-02,
  9.803921802644E-02);
ENDSEC;
END-ISO-10303-21;
