ISO-10303-21;
HEADER;
/* Generated by software containing ST-Developer
 * from STEP Tools, Inc. (www.steptools.com) 
 */

FILE_DESCRIPTION(
/* description */ (''),
/* implementation_level */ '2;1');

FILE_NAME(
/* name */ 'platine rotative.step',
/* time_stamp */ '2023-12-27T15:54:31+01:00',
/* author */ (''),
/* organization */ (''),
/* preprocessor_version */ 'ST-DEVELOPER v20',
/* originating_system */ 'Autodesk Translation Framework v12.14.0.127',

/* authorisation */ '');

FILE_SCHEMA (('AUTOMOTIVE_DESIGN { 1 0 10303 214 3 1 1 }'));
ENDSEC;

DATA;
#10=MECHANICAL_DESIGN_GEOMETRIC_PRESENTATION_REPRESENTATION('',(#13),#432);
#11=SHAPE_REPRESENTATION_RELATIONSHIP('SRR','None',#439,#12);
#12=ADVANCED_BREP_SHAPE_REPRESENTATION('',(#14),#431);
#13=STYLED_ITEM('',(#449),#14);
#14=MANIFOLD_SOLID_BREP('Corps1',#260);
#15=FACE_BOUND('',#52,.T.);
#16=FACE_BOUND('',#53,.T.);
#17=FACE_BOUND('',#54,.T.);
#18=FACE_BOUND('',#57,.T.);
#19=FACE_BOUND('',#58,.T.);
#20=FACE_BOUND('',#59,.T.);
#21=CIRCLE('',#279,3.25);
#22=CIRCLE('',#280,3.25);
#23=CIRCLE('',#282,3.25);
#24=CIRCLE('',#283,3.25);
#25=CIRCLE('',#285,3.25);
#26=CIRCLE('',#286,3.25);
#27=CYLINDRICAL_SURFACE('',#278,3.25);
#28=CYLINDRICAL_SURFACE('',#281,3.25);
#29=CYLINDRICAL_SURFACE('',#284,3.25);
#30=FACE_OUTER_BOUND('',#43,.T.);
#31=FACE_OUTER_BOUND('',#44,.T.);
#32=FACE_OUTER_BOUND('',#45,.T.);
#33=FACE_OUTER_BOUND('',#46,.T.);
#34=FACE_OUTER_BOUND('',#47,.T.);
#35=FACE_OUTER_BOUND('',#48,.T.);
#36=FACE_OUTER_BOUND('',#49,.T.);
#37=FACE_OUTER_BOUND('',#50,.T.);
#38=FACE_OUTER_BOUND('',#51,.T.);
#39=FACE_OUTER_BOUND('',#55,.T.);
#40=FACE_OUTER_BOUND('',#56,.T.);
#41=FACE_OUTER_BOUND('',#60,.T.);
#42=FACE_OUTER_BOUND('',#61,.T.);
#43=EDGE_LOOP('',(#171,#172,#173,#174));
#44=EDGE_LOOP('',(#175,#176,#177,#178,#179,#180));
#45=EDGE_LOOP('',(#181,#182,#183,#184));
#46=EDGE_LOOP('',(#185,#186,#187,#188));
#47=EDGE_LOOP('',(#189,#190,#191,#192));
#48=EDGE_LOOP('',(#193,#194,#195,#196));
#49=EDGE_LOOP('',(#197,#198,#199,#200));
#50=EDGE_LOOP('',(#201,#202,#203,#204));
#51=EDGE_LOOP('',(#205,#206,#207,#208));
#52=EDGE_LOOP('',(#209));
#53=EDGE_LOOP('',(#210));
#54=EDGE_LOOP('',(#211));
#55=EDGE_LOOP('',(#212,#213,#214,#215,#216,#217));
#56=EDGE_LOOP('',(#218,#219,#220,#221));
#57=EDGE_LOOP('',(#222));
#58=EDGE_LOOP('',(#223));
#59=EDGE_LOOP('',(#224));
#60=EDGE_LOOP('',(#225,#226,#227,#228,#229,#230));
#61=EDGE_LOOP('',(#231,#232,#233,#234,#235,#236));
#62=LINE('',#364,#89);
#63=LINE('',#366,#90);
#64=LINE('',#368,#91);
#65=LINE('',#369,#92);
#66=LINE('',#372,#93);
#67=LINE('',#374,#94);
#68=LINE('',#376,#95);
#69=LINE('',#378,#96);
#70=LINE('',#379,#97);
#71=LINE('',#382,#98);
#72=LINE('',#383,#99);
#73=LINE('',#386,#100);
#74=LINE('',#387,#101);
#75=LINE('',#392,#102);
#76=LINE('',#398,#103);
#77=LINE('',#404,#104);
#78=LINE('',#409,#105);
#79=LINE('',#411,#106);
#80=LINE('',#413,#107);
#81=LINE('',#414,#108);
#82=LINE('',#416,#109);
#83=LINE('',#417,#110);
#84=LINE('',#420,#111);
#85=LINE('',#422,#112);
#86=LINE('',#423,#113);
#87=LINE('',#425,#114);
#88=LINE('',#426,#115);
#89=VECTOR('',#297,10.);
#90=VECTOR('',#298,10.);
#91=VECTOR('',#299,10.);
#92=VECTOR('',#300,10.);
#93=VECTOR('',#303,10.);
#94=VECTOR('',#304,10.);
#95=VECTOR('',#305,10.);
#96=VECTOR('',#306,10.);
#97=VECTOR('',#307,10.);
#98=VECTOR('',#310,10.);
#99=VECTOR('',#311,10.);
#100=VECTOR('',#314,10.);
#101=VECTOR('',#315,10.);
#102=VECTOR('',#320,3.25);
#103=VECTOR('',#327,3.25);
#104=VECTOR('',#334,3.25);
#105=VECTOR('',#339,10.);
#106=VECTOR('',#340,10.);
#107=VECTOR('',#341,10.);
#108=VECTOR('',#342,10.);
#109=VECTOR('',#345,10.);
#110=VECTOR('',#346,10.);
#111=VECTOR('',#349,10.);
#112=VECTOR('',#350,10.);
#113=VECTOR('',#351,10.);
#114=VECTOR('',#354,10.);
#115=VECTOR('',#355,10.);
#116=VERTEX_POINT('',#362);
#117=VERTEX_POINT('',#363);
#118=VERTEX_POINT('',#365);
#119=VERTEX_POINT('',#367);
#120=VERTEX_POINT('',#371);
#121=VERTEX_POINT('',#373);
#122=VERTEX_POINT('',#375);
#123=VERTEX_POINT('',#377);
#124=VERTEX_POINT('',#381);
#125=VERTEX_POINT('',#385);
#126=VERTEX_POINT('',#389);
#127=VERTEX_POINT('',#391);
#128=VERTEX_POINT('',#395);
#129=VERTEX_POINT('',#397);
#130=VERTEX_POINT('',#401);
#131=VERTEX_POINT('',#403);
#132=VERTEX_POINT('',#407);
#133=VERTEX_POINT('',#408);
#134=VERTEX_POINT('',#410);
#135=VERTEX_POINT('',#412);
#136=VERTEX_POINT('',#419);
#137=VERTEX_POINT('',#421);
#138=EDGE_CURVE('',#116,#117,#62,.T.);
#139=EDGE_CURVE('',#117,#118,#63,.T.);
#140=EDGE_CURVE('',#118,#119,#64,.T.);
#141=EDGE_CURVE('',#119,#116,#65,.T.);
#142=EDGE_CURVE('',#120,#116,#66,.T.);
#143=EDGE_CURVE('',#121,#120,#67,.T.);
#144=EDGE_CURVE('',#122,#121,#68,.T.);
#145=EDGE_CURVE('',#122,#123,#69,.T.);
#146=EDGE_CURVE('',#117,#123,#70,.T.);
#147=EDGE_CURVE('',#124,#119,#71,.T.);
#148=EDGE_CURVE('',#120,#124,#72,.T.);
#149=EDGE_CURVE('',#124,#125,#73,.T.);
#150=EDGE_CURVE('',#125,#121,#74,.T.);
#151=EDGE_CURVE('',#126,#126,#21,.T.);
#152=EDGE_CURVE('',#126,#127,#75,.T.);
#153=EDGE_CURVE('',#127,#127,#22,.T.);
#154=EDGE_CURVE('',#128,#128,#23,.T.);
#155=EDGE_CURVE('',#128,#129,#76,.T.);
#156=EDGE_CURVE('',#129,#129,#24,.T.);
#157=EDGE_CURVE('',#130,#130,#25,.T.);
#158=EDGE_CURVE('',#130,#131,#77,.T.);
#159=EDGE_CURVE('',#131,#131,#26,.T.);
#160=EDGE_CURVE('',#132,#133,#78,.T.);
#161=EDGE_CURVE('',#132,#134,#79,.T.);
#162=EDGE_CURVE('',#135,#134,#80,.F.);
#163=EDGE_CURVE('',#133,#135,#81,.F.);
#164=EDGE_CURVE('',#133,#122,#82,.T.);
#165=EDGE_CURVE('',#123,#135,#83,.T.);
#166=EDGE_CURVE('',#136,#118,#84,.T.);
#167=EDGE_CURVE('',#137,#136,#85,.T.);
#168=EDGE_CURVE('',#137,#125,#86,.T.);
#169=EDGE_CURVE('',#132,#137,#87,.T.);
#170=EDGE_CURVE('',#134,#136,#88,.T.);
#171=ORIENTED_EDGE('',*,*,#138,.T.);
#172=ORIENTED_EDGE('',*,*,#139,.T.);
#173=ORIENTED_EDGE('',*,*,#140,.T.);
#174=ORIENTED_EDGE('',*,*,#141,.T.);
#175=ORIENTED_EDGE('',*,*,#138,.F.);
#176=ORIENTED_EDGE('',*,*,#142,.F.);
#177=ORIENTED_EDGE('',*,*,#143,.F.);
#178=ORIENTED_EDGE('',*,*,#144,.F.);
#179=ORIENTED_EDGE('',*,*,#145,.T.);
#180=ORIENTED_EDGE('',*,*,#146,.F.);
#181=ORIENTED_EDGE('',*,*,#141,.F.);
#182=ORIENTED_EDGE('',*,*,#147,.F.);
#183=ORIENTED_EDGE('',*,*,#148,.F.);
#184=ORIENTED_EDGE('',*,*,#142,.T.);
#185=ORIENTED_EDGE('',*,*,#149,.T.);
#186=ORIENTED_EDGE('',*,*,#150,.T.);
#187=ORIENTED_EDGE('',*,*,#143,.T.);
#188=ORIENTED_EDGE('',*,*,#148,.T.);
#189=ORIENTED_EDGE('',*,*,#151,.F.);
#190=ORIENTED_EDGE('',*,*,#152,.T.);
#191=ORIENTED_EDGE('',*,*,#153,.F.);
#192=ORIENTED_EDGE('',*,*,#152,.F.);
#193=ORIENTED_EDGE('',*,*,#154,.F.);
#194=ORIENTED_EDGE('',*,*,#155,.T.);
#195=ORIENTED_EDGE('',*,*,#156,.F.);
#196=ORIENTED_EDGE('',*,*,#155,.F.);
#197=ORIENTED_EDGE('',*,*,#157,.F.);
#198=ORIENTED_EDGE('',*,*,#158,.T.);
#199=ORIENTED_EDGE('',*,*,#159,.F.);
#200=ORIENTED_EDGE('',*,*,#158,.F.);
#201=ORIENTED_EDGE('',*,*,#160,.F.);
#202=ORIENTED_EDGE('',*,*,#161,.T.);
#203=ORIENTED_EDGE('',*,*,#162,.F.);
#204=ORIENTED_EDGE('',*,*,#163,.F.);
#205=ORIENTED_EDGE('',*,*,#164,.F.);
#206=ORIENTED_EDGE('',*,*,#163,.T.);
#207=ORIENTED_EDGE('',*,*,#165,.F.);
#208=ORIENTED_EDGE('',*,*,#145,.F.);
#209=ORIENTED_EDGE('',*,*,#151,.T.);
#210=ORIENTED_EDGE('',*,*,#154,.T.);
#211=ORIENTED_EDGE('',*,*,#157,.T.);
#212=ORIENTED_EDGE('',*,*,#140,.F.);
#213=ORIENTED_EDGE('',*,*,#166,.F.);
#214=ORIENTED_EDGE('',*,*,#167,.F.);
#215=ORIENTED_EDGE('',*,*,#168,.T.);
#216=ORIENTED_EDGE('',*,*,#149,.F.);
#217=ORIENTED_EDGE('',*,*,#147,.T.);
#218=ORIENTED_EDGE('',*,*,#169,.T.);
#219=ORIENTED_EDGE('',*,*,#167,.T.);
#220=ORIENTED_EDGE('',*,*,#170,.F.);
#221=ORIENTED_EDGE('',*,*,#161,.F.);
#222=ORIENTED_EDGE('',*,*,#153,.T.);
#223=ORIENTED_EDGE('',*,*,#156,.T.);
#224=ORIENTED_EDGE('',*,*,#159,.T.);
#225=ORIENTED_EDGE('',*,*,#139,.F.);
#226=ORIENTED_EDGE('',*,*,#146,.T.);
#227=ORIENTED_EDGE('',*,*,#165,.T.);
#228=ORIENTED_EDGE('',*,*,#162,.T.);
#229=ORIENTED_EDGE('',*,*,#170,.T.);
#230=ORIENTED_EDGE('',*,*,#166,.T.);
#231=ORIENTED_EDGE('',*,*,#150,.F.);
#232=ORIENTED_EDGE('',*,*,#168,.F.);
#233=ORIENTED_EDGE('',*,*,#169,.F.);
#234=ORIENTED_EDGE('',*,*,#160,.T.);
#235=ORIENTED_EDGE('',*,*,#164,.T.);
#236=ORIENTED_EDGE('',*,*,#144,.T.);
#237=PLANE('',#274);
#238=PLANE('',#275);
#239=PLANE('',#276);
#240=PLANE('',#277);
#241=PLANE('',#287);
#242=PLANE('',#288);
#243=PLANE('',#289);
#244=PLANE('',#290);
#245=PLANE('',#291);
#246=PLANE('',#292);
#247=ADVANCED_FACE('',(#30),#237,.T.);
#248=ADVANCED_FACE('',(#31),#238,.T.);
#249=ADVANCED_FACE('',(#32),#239,.T.);
#250=ADVANCED_FACE('',(#33),#240,.T.);
#251=ADVANCED_FACE('',(#34),#27,.F.);
#252=ADVANCED_FACE('',(#35),#28,.F.);
#253=ADVANCED_FACE('',(#36),#29,.F.);
#254=ADVANCED_FACE('',(#37),#241,.T.);
#255=ADVANCED_FACE('',(#38,#15,#16,#17),#242,.T.);
#256=ADVANCED_FACE('',(#39),#243,.T.);
#257=ADVANCED_FACE('',(#40,#18,#19,#20),#244,.T.);
#258=ADVANCED_FACE('',(#41),#245,.T.);
#259=ADVANCED_FACE('',(#42),#246,.F.);
#260=CLOSED_SHELL('',(#247,#248,#249,#250,#251,#252,#253,#254,#255,#256,
#257,#258,#259));
#261=DERIVED_UNIT_ELEMENT(#263,1.);
#262=DERIVED_UNIT_ELEMENT(#434,-3.);
#263=(
MASS_UNIT()
NAMED_UNIT(*)
SI_UNIT(.KILO.,.GRAM.)
);
#264=DERIVED_UNIT((#261,#262));
#265=MEASURE_REPRESENTATION_ITEM('density measure',
POSITIVE_RATIO_MEASURE(7850.),#264);
#266=PROPERTY_DEFINITION_REPRESENTATION(#271,#268);
#267=PROPERTY_DEFINITION_REPRESENTATION(#272,#269);
#268=REPRESENTATION('material name',(#270),#431);
#269=REPRESENTATION('density',(#265),#431);
#270=DESCRIPTIVE_REPRESENTATION_ITEM('Acier','Acier');
#271=PROPERTY_DEFINITION('material property','material name',#441);
#272=PROPERTY_DEFINITION('material property','density of part',#441);
#273=AXIS2_PLACEMENT_3D('',#360,#293,#294);
#274=AXIS2_PLACEMENT_3D('',#361,#295,#296);
#275=AXIS2_PLACEMENT_3D('',#370,#301,#302);
#276=AXIS2_PLACEMENT_3D('',#380,#308,#309);
#277=AXIS2_PLACEMENT_3D('',#384,#312,#313);
#278=AXIS2_PLACEMENT_3D('',#388,#316,#317);
#279=AXIS2_PLACEMENT_3D('',#390,#318,#319);
#280=AXIS2_PLACEMENT_3D('',#393,#321,#322);
#281=AXIS2_PLACEMENT_3D('',#394,#323,#324);
#282=AXIS2_PLACEMENT_3D('',#396,#325,#326);
#283=AXIS2_PLACEMENT_3D('',#399,#328,#329);
#284=AXIS2_PLACEMENT_3D('',#400,#330,#331);
#285=AXIS2_PLACEMENT_3D('',#402,#332,#333);
#286=AXIS2_PLACEMENT_3D('',#405,#335,#336);
#287=AXIS2_PLACEMENT_3D('',#406,#337,#338);
#288=AXIS2_PLACEMENT_3D('',#415,#343,#344);
#289=AXIS2_PLACEMENT_3D('',#418,#347,#348);
#290=AXIS2_PLACEMENT_3D('',#424,#352,#353);
#291=AXIS2_PLACEMENT_3D('',#427,#356,#357);
#292=AXIS2_PLACEMENT_3D('',#428,#358,#359);
#293=DIRECTION('axis',(0.,0.,1.));
#294=DIRECTION('refdir',(1.,0.,0.));
#295=DIRECTION('center_axis',(0.707106781186548,0.707106781186548,0.));
#296=DIRECTION('ref_axis',(0.,0.,-1.));
#297=DIRECTION('',(-0.707106781186548,0.707106781186548,-5.23364152894592E-16));
#298=DIRECTION('',(0.,0.,1.));
#299=DIRECTION('',(0.707106781186548,-0.707106781186548,2.09345661157837E-16));
#300=DIRECTION('',(0.,0.,-1.));
#301=DIRECTION('center_axis',(7.40148683083438E-16,0.,-1.));
#302=DIRECTION('ref_axis',(-1.,0.,-7.40148683083438E-16));
#303=DIRECTION('',(0.,1.,0.));
#304=DIRECTION('',(0.707106781186548,0.707106781186548,5.23364152894592E-16));
#305=DIRECTION('',(1.,0.,7.40148683083438E-16));
#306=DIRECTION('',(0.,1.,0.));
#307=DIRECTION('',(-1.,0.,-7.40148683083438E-16));
#308=DIRECTION('center_axis',(1.,0.,0.));
#309=DIRECTION('ref_axis',(0.,0.,-1.));
#310=DIRECTION('',(0.,1.,0.));
#311=DIRECTION('',(0.,0.,1.));
#312=DIRECTION('center_axis',(0.707106781186548,-0.707106781186548,0.));
#313=DIRECTION('ref_axis',(0.,0.,-1.));
#314=DIRECTION('',(-0.707106781186548,-0.707106781186548,-2.09345661157837E-16));
#315=DIRECTION('',(0.,0.,-1.));
#316=DIRECTION('center_axis',(-1.,0.,2.46716227694479E-16));
#317=DIRECTION('ref_axis',(0.,1.,0.));
#318=DIRECTION('center_axis',(-1.,0.,2.11471052309554E-16));
#319=DIRECTION('ref_axis',(0.,1.,0.));
#320=DIRECTION('',(-1.,0.,2.46716227694479E-16));
#321=DIRECTION('center_axis',(1.,0.,3.26824475411167E-33));
#322=DIRECTION('ref_axis',(0.,1.,0.));
#323=DIRECTION('center_axis',(-1.,0.,2.46716227694479E-16));
#324=DIRECTION('ref_axis',(0.,1.,0.));
#325=DIRECTION('center_axis',(-1.,0.,2.11471052309554E-16));
#326=DIRECTION('ref_axis',(0.,1.,0.));
#327=DIRECTION('',(-1.,0.,2.46716227694479E-16));
#328=DIRECTION('center_axis',(1.,0.,3.26824475411167E-33));
#329=DIRECTION('ref_axis',(0.,1.,0.));
#330=DIRECTION('center_axis',(-1.,0.,2.46716227694479E-16));
#331=DIRECTION('ref_axis',(0.,1.,0.));
#332=DIRECTION('center_axis',(-1.,0.,2.11471052309554E-16));
#333=DIRECTION('ref_axis',(0.,1.,0.));
#334=DIRECTION('',(-1.,0.,2.46716227694479E-16));
#335=DIRECTION('center_axis',(1.,0.,3.26824475411167E-33));
#336=DIRECTION('ref_axis',(0.,1.,0.));
#337=DIRECTION('center_axis',(1.83697019872103E-16,0.,-1.));
#338=DIRECTION('ref_axis',(-1.,0.,-1.83697019872103E-16));
#339=DIRECTION('',(1.,0.,1.83697019872103E-16));
#340=DIRECTION('',(0.,1.,0.));
#341=DIRECTION('',(1.,0.,1.83697019872103E-16));
#342=DIRECTION('',(0.,-1.,0.));
#343=DIRECTION('center_axis',(1.,0.,-2.11471052309554E-16));
#344=DIRECTION('ref_axis',(-2.11471052309554E-16,0.,-1.));
#345=DIRECTION('',(2.11471052309554E-16,0.,1.));
#346=DIRECTION('',(-2.11471052309554E-16,0.,-1.));
#347=DIRECTION('center_axis',(-2.96059473233375E-16,0.,1.));
#348=DIRECTION('ref_axis',(1.,0.,2.96059473233375E-16));
#349=DIRECTION('',(1.,0.,2.96059473233375E-16));
#350=DIRECTION('',(0.,1.,0.));
#351=DIRECTION('',(1.,0.,2.96059473233375E-16));
#352=DIRECTION('center_axis',(-1.,0.,-3.26824475411167E-33));
#353=DIRECTION('ref_axis',(-3.26824475411167E-33,0.,1.));
#354=DIRECTION('',(-3.26824475411167E-33,0.,1.));
#355=DIRECTION('',(-3.26824475411167E-33,0.,1.));
#356=DIRECTION('center_axis',(0.,1.,0.));
#357=DIRECTION('ref_axis',(0.,0.,1.));
#358=DIRECTION('center_axis',(0.,1.,0.));
#359=DIRECTION('ref_axis',(1.,0.,0.));
#360=CARTESIAN_POINT('',(0.,0.,0.));
#361=CARTESIAN_POINT('Origin',(25.,57.,24.75));
#362=CARTESIAN_POINT('',(30.,52.,21.));
#363=CARTESIAN_POINT('',(20.,62.,21.));
#364=CARTESIAN_POINT('',(40.5,41.5,21.));
#365=CARTESIAN_POINT('',(20.,62.,33.));
#366=CARTESIAN_POINT('',(20.,62.,24.75));
#367=CARTESIAN_POINT('',(30.,52.,33.));
#368=CARTESIAN_POINT('',(33.,49.,33.));
#369=CARTESIAN_POINT('',(30.,52.,24.75));
#370=CARTESIAN_POINT('Origin',(30.,0.,21.));
#371=CARTESIAN_POINT('',(30.,10.,21.));
#372=CARTESIAN_POINT('',(30.,0.,21.));
#373=CARTESIAN_POINT('',(20.,0.,21.));
#374=CARTESIAN_POINT('',(25.,5.,21.));
#375=CARTESIAN_POINT('',(12.,0.,21.));
#376=CARTESIAN_POINT('',(12.,0.,21.));
#377=CARTESIAN_POINT('',(12.,62.,21.));
#378=CARTESIAN_POINT('',(12.,0.,21.));
#379=CARTESIAN_POINT('',(12.,62.,21.));
#380=CARTESIAN_POINT('Origin',(30.,0.,33.));
#381=CARTESIAN_POINT('',(30.,10.,33.));
#382=CARTESIAN_POINT('',(30.,0.,33.));
#383=CARTESIAN_POINT('',(30.,10.,24.75));
#384=CARTESIAN_POINT('Origin',(25.,5.,24.75));
#385=CARTESIAN_POINT('',(20.,0.,33.));
#386=CARTESIAN_POINT('',(17.5,-2.5,33.));
#387=CARTESIAN_POINT('',(20.,0.,24.75));
#388=CARTESIAN_POINT('Origin',(5.4,31.,8.));
#389=CARTESIAN_POINT('',(12.,27.75,8.));
#390=CARTESIAN_POINT('Origin',(12.,31.,8.));
#391=CARTESIAN_POINT('',(2.22044604925031E-15,27.75,8.00000000000001));
#392=CARTESIAN_POINT('',(5.4,27.75,8.));
#393=CARTESIAN_POINT('Origin',(2.22044604925031E-15,31.,8.00000000000001));
#394=CARTESIAN_POINT('Origin',(5.4,8.,8.));
#395=CARTESIAN_POINT('',(12.,4.75,8.));
#396=CARTESIAN_POINT('Origin',(12.,8.,8.));
#397=CARTESIAN_POINT('',(2.22044604925031E-15,4.75,8.00000000000001));
#398=CARTESIAN_POINT('',(5.4,4.75,8.));
#399=CARTESIAN_POINT('Origin',(2.22044604925031E-15,8.,8.00000000000001));
#400=CARTESIAN_POINT('Origin',(5.4,54.,8.));
#401=CARTESIAN_POINT('',(12.,50.75,8.));
#402=CARTESIAN_POINT('Origin',(12.,54.,8.));
#403=CARTESIAN_POINT('',(2.22044604925031E-15,50.75,8.00000000000001));
#404=CARTESIAN_POINT('',(5.4,50.75,8.));
#405=CARTESIAN_POINT('Origin',(2.22044604925031E-15,54.,8.00000000000001));
#406=CARTESIAN_POINT('Origin',(12.,0.,2.));
#407=CARTESIAN_POINT('',(-3.26824475411167E-33,0.,2.));
#408=CARTESIAN_POINT('',(12.,0.,2.));
#409=CARTESIAN_POINT('',(13.5,0.,2.));
#410=CARTESIAN_POINT('',(-3.26824475411167E-33,62.,2.));
#411=CARTESIAN_POINT('',(0.,0.,2.));
#412=CARTESIAN_POINT('',(12.,62.,2.));
#413=CARTESIAN_POINT('',(13.5,62.,2.));
#414=CARTESIAN_POINT('',(12.,0.,2.));
#415=CARTESIAN_POINT('Origin',(12.,0.,21.));
#416=CARTESIAN_POINT('',(12.,0.,2.20436423846524E-15));
#417=CARTESIAN_POINT('',(12.,62.,2.20436423846524E-15));
#418=CARTESIAN_POINT('Origin',(-1.07852076885685E-31,0.,33.));
#419=CARTESIAN_POINT('',(-1.07852076885685E-31,62.,33.));
#420=CARTESIAN_POINT('',(-1.07852076885685E-31,62.,33.));
#421=CARTESIAN_POINT('',(-1.07852076885685E-31,0.,33.));
#422=CARTESIAN_POINT('',(-1.07852076885685E-31,0.,33.));
#423=CARTESIAN_POINT('',(-1.07852076885685E-31,0.,33.));
#424=CARTESIAN_POINT('Origin',(0.,0.,0.));
#425=CARTESIAN_POINT('',(0.,0.,0.));
#426=CARTESIAN_POINT('',(0.,62.,0.));
#427=CARTESIAN_POINT('Origin',(15.,62.,16.5));
#428=CARTESIAN_POINT('Origin',(15.,0.,16.5));
#429=UNCERTAINTY_MEASURE_WITH_UNIT(LENGTH_MEASURE(0.01),#433,
'DISTANCE_ACCURACY_VALUE',
'Maximum model space distance between geometric entities at asserted c
onnectivities');
#430=UNCERTAINTY_MEASURE_WITH_UNIT(LENGTH_MEASURE(0.01),#433,
'DISTANCE_ACCURACY_VALUE',
'Maximum model space distance between geometric entities at asserted c
onnectivities');
#431=(
GEOMETRIC_REPRESENTATION_CONTEXT(3)
GLOBAL_UNCERTAINTY_ASSIGNED_CONTEXT((#429))
GLOBAL_UNIT_ASSIGNED_CONTEXT((#433,#435,#436))
REPRESENTATION_CONTEXT('','3D')
);
#432=(
GEOMETRIC_REPRESENTATION_CONTEXT(3)
GLOBAL_UNCERTAINTY_ASSIGNED_CONTEXT((#430))
GLOBAL_UNIT_ASSIGNED_CONTEXT((#433,#435,#436))
REPRESENTATION_CONTEXT('','3D')
);
#433=(
LENGTH_UNIT()
NAMED_UNIT(*)
SI_UNIT(.MILLI.,.METRE.)
);
#434=(
LENGTH_UNIT()
NAMED_UNIT(*)
SI_UNIT($,.METRE.)
);
#435=(
NAMED_UNIT(*)
PLANE_ANGLE_UNIT()
SI_UNIT($,.RADIAN.)
);
#436=(
NAMED_UNIT(*)
SI_UNIT($,.STERADIAN.)
SOLID_ANGLE_UNIT()
);
#437=SHAPE_DEFINITION_REPRESENTATION(#438,#439);
#438=PRODUCT_DEFINITION_SHAPE('',$,#441);
#439=SHAPE_REPRESENTATION('',(#273),#431);
#440=PRODUCT_DEFINITION_CONTEXT('part definition',#445,'design');
#441=PRODUCT_DEFINITION('platine rotative','platine rotative v10',#442,
#440);
#442=PRODUCT_DEFINITION_FORMATION('',$,#447);
#443=PRODUCT_RELATED_PRODUCT_CATEGORY('platine rotative v10',
'platine rotative v10',(#447));
#444=APPLICATION_PROTOCOL_DEFINITION('international standard',
'automotive_design',2009,#445);
#445=APPLICATION_CONTEXT(
'Core Data for Automotive Mechanical Design Process');
#446=PRODUCT_CONTEXT('part definition',#445,'mechanical');
#447=PRODUCT('platine rotative','platine rotative v10',$,(#446));
#448=PRESENTATION_STYLE_ASSIGNMENT((#450));
#449=PRESENTATION_STYLE_ASSIGNMENT((#451));
#450=SURFACE_STYLE_USAGE(.BOTH.,#452);
#451=SURFACE_STYLE_USAGE(.BOTH.,#453);
#452=SURFACE_SIDE_STYLE('',(#454));
#453=SURFACE_SIDE_STYLE('',(#455));
#454=SURFACE_STYLE_FILL_AREA(#456);
#455=SURFACE_STYLE_FILL_AREA(#457);
#456=FILL_AREA_STYLE('Acier - Satin\X\E9',(#458));
#457=FILL_AREA_STYLE('Plomb - Satin\X\E9',(#459));
#458=FILL_AREA_STYLE_COLOUR('Acier - Satin\X\E9',#460);
#459=FILL_AREA_STYLE_COLOUR('Plomb - Satin\X\E9',#461);
#460=COLOUR_RGB('Acier - Satin\X\E9',0.627450980392157,0.627450980392157,
0.627450980392157);
#461=COLOUR_RGB('Plomb - Satin\X\E9',0.815686274509804,0.815686274509804,
0.815686274509804);
ENDSEC;
END-ISO-10303-21;
