ISO-10303-21;
HEADER;
FILE_DESCRIPTION(('CATIA V5 STEP Exchange'),'2;1');

FILE_NAME('C:\\Documents and Settings\\MOI\\Bureau\\pieces divers\\frein a main clio\\entretoises pivot.stp','2023-11-26T16:46:07+00:00',('none'),('none'),'CATIA Version 5 Release 19 SP 2 (IN-10)','CATIA V5 STEP AP203','none');

FILE_SCHEMA(('CONFIG_CONTROL_DESIGN'));

ENDSEC;
/* file written by CATIA V5R19 */
DATA;
#5=PRODUCT('Part4','','',(#2)) ;
#1=APPLICATION_CONTEXT('configuration controlled 3D design of mechanical parts and assemblies') ;
#14=PRODUCT_DEFINITION('',' ',#6,#3) ;
#16=SECURITY_CLASSIFICATION(' ',' ',#15) ;
#15=SECURITY_CLASSIFICATION_LEVEL('unclassified') ;
#47=CARTESIAN_POINT(' ',(0.,0.,0.)) ;
#52=CARTESIAN_POINT('Axis2P3D Location',(23.,10.0425491333,6.)) ;
#57=CARTESIAN_POINT('Line Origine',(23.,17.0425491333,6.)) ;
#61=CARTESIAN_POINT('Vertex',(0.,17.0425491333,6.)) ;
#63=CARTESIAN_POINT('Vertex',(46.,17.0425491333,6.)) ;
#66=CARTESIAN_POINT('Axis2P3D Location',(0.,10.0425491333,6.)) ;
#70=CARTESIAN_POINT('Vertex',(0.,3.0425491333,6.)) ;
#73=CARTESIAN_POINT('Line Origine',(23.,3.0425491333,6.)) ;
#77=CARTESIAN_POINT('Vertex',(46.,3.0425491333,6.)) ;
#80=CARTESIAN_POINT('Axis2P3D Location',(46.,10.0425491333,6.)) ;
#92=CARTESIAN_POINT('Axis2P3D Location',(0.,10.0425491333,6.)) ;
#97=CARTESIAN_POINT('Axis2P3D Location',(46.,10.0425491333,6.)) ;
#109=CARTESIAN_POINT('Axis2P3D Location',(23.,10.0425491333,6.)) ;
#114=CARTESIAN_POINT('Axis2P3D Location',(46.,10.0425491333,6.)) ;
#118=CARTESIAN_POINT('Vertex',(46.,6.0425491333,6.)) ;
#120=CARTESIAN_POINT('Vertex',(46.,14.0425491333,6.)) ;
#123=CARTESIAN_POINT('Line Origine',(23.,14.0425491333,6.)) ;
#127=CARTESIAN_POINT('Vertex',(0.,14.0425491333,6.)) ;
#130=CARTESIAN_POINT('Axis2P3D Location',(0.,10.0425491333,6.)) ;
#134=CARTESIAN_POINT('Vertex',(0.,6.0425491333,6.)) ;
#137=CARTESIAN_POINT('Line Origine',(23.,6.0425491333,6.)) ;
#149=CARTESIAN_POINT('Axis2P3D Location',(46.,10.0425491333,6.)) ;
#154=CARTESIAN_POINT('Axis2P3D Location',(0.,10.0425491333,6.)) ;
#166=CARTESIAN_POINT('Axis2P3D Location',(0.,0.,0.)) ;
#180=CARTESIAN_POINT('Axis2P3D Location',(46.,0.,0.)) ;
#198=CARTESIAN_POINT('Axis2P3D Location',(61.,0.,0.)) ;
#203=CARTESIAN_POINT('Axis2P3D Location',(61.,-11.4500574202,6.)) ;
#207=CARTESIAN_POINT('Vertex',(61.,-6.9500574202,6.)) ;
#209=CARTESIAN_POINT('Vertex',(61.,-15.9500574202,6.)) ;
#212=CARTESIAN_POINT('Axis2P3D Location',(61.,-11.4500574202,6.)) ;
#221=CARTESIAN_POINT('Axis2P3D Location',(61.,-11.4500574202,6.)) ;
#225=CARTESIAN_POINT('Vertex',(61.,-8.4500574202,6.)) ;
#227=CARTESIAN_POINT('Vertex',(61.,-14.4500574202,6.)) ;
#230=CARTESIAN_POINT('Axis2P3D Location',(61.,-11.4500574202,6.)) ;
#240=CARTESIAN_POINT('Axis2P3D Location',(22.3899999994,-11.4500574202,6.)) ;
#245=CARTESIAN_POINT('Line Origine',(23.,-15.9500574202,6.)) ;
#249=CARTESIAN_POINT('Vertex',(-15.,-15.9500574202,6.)) ;
#252=CARTESIAN_POINT('Line Origine',(23.,-6.9500574202,6.)) ;
#256=CARTESIAN_POINT('Vertex',(-15.,-6.9500574202,6.)) ;
#259=CARTESIAN_POINT('Axis2P3D Location',(-15.,-11.4500574202,6.)) ;
#271=CARTESIAN_POINT('Axis2P3D Location',(-15.,-11.4500574202,6.)) ;
#283=CARTESIAN_POINT('Axis2P3D Location',(-15.,0.,0.)) ;
#292=CARTESIAN_POINT('Axis2P3D Location',(-15.,-11.4500574202,6.)) ;
#296=CARTESIAN_POINT('Vertex',(-15.,-14.4500574202,6.)) ;
#298=CARTESIAN_POINT('Vertex',(-15.,-8.4500574202,6.)) ;
#301=CARTESIAN_POINT('Axis2P3D Location',(-15.,-11.4500574202,6.)) ;
#311=CARTESIAN_POINT('Axis2P3D Location',(22.3899999994,-11.4500574202,6.)) ;
#316=CARTESIAN_POINT('Line Origine',(23.,-14.4500574202,6.)) ;
#321=CARTESIAN_POINT('Line Origine',(23.,-8.4500574202,6.)) ;
#53=DIRECTION('Axis2P3D Direction',(1.,0.,0.)) ;
#54=DIRECTION('Axis2P3D XDirection',(0.,-1.,1.22464679915E-016)) ;
#58=DIRECTION('Vector Direction',(1.,0.,0.)) ;
#67=DIRECTION('Axis2P3D Direction',(1.,0.,0.)) ;
#74=DIRECTION('Vector Direction',(1.,0.,0.)) ;
#81=DIRECTION('Axis2P3D Direction',(1.,0.,0.)) ;
#93=DIRECTION('Axis2P3D Direction',(1.,0.,0.)) ;
#98=DIRECTION('Axis2P3D Direction',(1.,0.,0.)) ;
#110=DIRECTION('Axis2P3D Direction',(1.,0.,0.)) ;
#111=DIRECTION('Axis2P3D XDirection',(0.,1.,0.)) ;
#115=DIRECTION('Axis2P3D Direction',(1.,0.,0.)) ;
#124=DIRECTION('Vector Direction',(1.,0.,0.)) ;
#131=DIRECTION('Axis2P3D Direction',(1.,0.,0.)) ;
#138=DIRECTION('Vector Direction',(1.,0.,0.)) ;
#150=DIRECTION('Axis2P3D Direction',(1.,0.,0.)) ;
#155=DIRECTION('Axis2P3D Direction',(1.,0.,0.)) ;
#167=DIRECTION('Axis2P3D Direction',(1.,0.,0.)) ;
#168=DIRECTION('Axis2P3D XDirection',(0.,1.,0.)) ;
#181=DIRECTION('Axis2P3D Direction',(1.,0.,0.)) ;
#182=DIRECTION('Axis2P3D XDirection',(0.,1.,0.)) ;
#199=DIRECTION('Axis2P3D Direction',(1.,0.,0.)) ;
#200=DIRECTION('Axis2P3D XDirection',(0.,1.,0.)) ;
#204=DIRECTION('Axis2P3D Direction',(1.,0.,0.)) ;
#213=DIRECTION('Axis2P3D Direction',(1.,0.,0.)) ;
#222=DIRECTION('Axis2P3D Direction',(1.,0.,0.)) ;
#231=DIRECTION('Axis2P3D Direction',(1.,0.,0.)) ;
#241=DIRECTION('Axis2P3D Direction',(1.,0.,0.)) ;
#242=DIRECTION('Axis2P3D XDirection',(0.,-1.,5.66553889765E-016)) ;
#246=DIRECTION('Vector Direction',(1.,0.,0.)) ;
#253=DIRECTION('Vector Direction',(1.,0.,0.)) ;
#260=DIRECTION('Axis2P3D Direction',(1.,0.,0.)) ;
#272=DIRECTION('Axis2P3D Direction',(1.,0.,0.)) ;
#284=DIRECTION('Axis2P3D Direction',(-1.,0.,0.)) ;
#285=DIRECTION('Axis2P3D XDirection',(0.,-1.,0.)) ;
#293=DIRECTION('Axis2P3D Direction',(-1.,0.,0.)) ;
#302=DIRECTION('Axis2P3D Direction',(-1.,0.,0.)) ;
#312=DIRECTION('Axis2P3D Direction',(1.,0.,0.)) ;
#313=DIRECTION('Axis2P3D XDirection',(0.,1.,-1.71203193341E-014)) ;
#317=DIRECTION('Vector Direction',(1.,0.,0.)) ;
#322=DIRECTION('Vector Direction',(1.,0.,0.)) ;
#48=AXIS2_PLACEMENT_3D(' ',#47,$,$) ;
#55=AXIS2_PLACEMENT_3D('Cylinder Axis2P3D',#52,#53,#54) ;
#68=AXIS2_PLACEMENT_3D('Circle Axis2P3D',#66,#67,$) ;
#82=AXIS2_PLACEMENT_3D('Circle Axis2P3D',#80,#81,$) ;
#94=AXIS2_PLACEMENT_3D('Circle Axis2P3D',#92,#93,$) ;
#99=AXIS2_PLACEMENT_3D('Circle Axis2P3D',#97,#98,$) ;
#112=AXIS2_PLACEMENT_3D('Cylinder Axis2P3D',#109,#110,#111) ;
#116=AXIS2_PLACEMENT_3D('Circle Axis2P3D',#114,#115,$) ;
#132=AXIS2_PLACEMENT_3D('Circle Axis2P3D',#130,#131,$) ;
#151=AXIS2_PLACEMENT_3D('Circle Axis2P3D',#149,#150,$) ;
#156=AXIS2_PLACEMENT_3D('Circle Axis2P3D',#154,#155,$) ;
#169=AXIS2_PLACEMENT_3D('Plane Axis2P3D',#166,#167,#168) ;
#183=AXIS2_PLACEMENT_3D('Plane Axis2P3D',#180,#181,#182) ;
#201=AXIS2_PLACEMENT_3D('Plane Axis2P3D',#198,#199,#200) ;
#205=AXIS2_PLACEMENT_3D('Circle Axis2P3D',#203,#204,$) ;
#214=AXIS2_PLACEMENT_3D('Circle Axis2P3D',#212,#213,$) ;
#223=AXIS2_PLACEMENT_3D('Circle Axis2P3D',#221,#222,$) ;
#232=AXIS2_PLACEMENT_3D('Circle Axis2P3D',#230,#231,$) ;
#243=AXIS2_PLACEMENT_3D('Cylinder Axis2P3D',#240,#241,#242) ;
#261=AXIS2_PLACEMENT_3D('Circle Axis2P3D',#259,#260,$) ;
#273=AXIS2_PLACEMENT_3D('Circle Axis2P3D',#271,#272,$) ;
#286=AXIS2_PLACEMENT_3D('Plane Axis2P3D',#283,#284,#285) ;
#294=AXIS2_PLACEMENT_3D('Circle Axis2P3D',#292,#293,$) ;
#303=AXIS2_PLACEMENT_3D('Circle Axis2P3D',#301,#302,$) ;
#314=AXIS2_PLACEMENT_3D('Cylinder Axis2P3D',#311,#312,#313) ;
#40=PRODUCT_DEFINITION_SHAPE(' ',' ',#14) ;
#31=APPROVAL_PERSON_ORGANIZATION(#25,#21,#19) ;
#25=PERSON_AND_ORGANIZATION(#22,#23) ;
#22=PERSON(' ',' ',' ',$,$,$) ;
#23=ORGANIZATION(' ',' ',' ') ;
#21=APPROVAL(#20,' ') ;
#20=APPROVAL_STATUS('not_yet_approved') ;
#19=APPROVAL_ROLE('APPROVER') ;
#13=DATE_AND_TIME(#11,#12) ;
#12=LOCAL_TIME(17,46,6.,#10) ;
#10=COORDINATED_UNIVERSAL_TIME_OFFSET(0,0,.AHEAD.) ;
#86=ORIENTED_EDGE('',*,*,#65,.F.) ;
#87=ORIENTED_EDGE('',*,*,#72,.T.) ;
#88=ORIENTED_EDGE('',*,*,#79,.T.) ;
#89=ORIENTED_EDGE('',*,*,#84,.F.) ;
#103=ORIENTED_EDGE('',*,*,#79,.F.) ;
#104=ORIENTED_EDGE('',*,*,#96,.T.) ;
#105=ORIENTED_EDGE('',*,*,#65,.T.) ;
#106=ORIENTED_EDGE('',*,*,#101,.F.) ;
#143=ORIENTED_EDGE('',*,*,#122,.T.) ;
#144=ORIENTED_EDGE('',*,*,#129,.F.) ;
#145=ORIENTED_EDGE('',*,*,#136,.F.) ;
#146=ORIENTED_EDGE('',*,*,#141,.T.) ;
#160=ORIENTED_EDGE('',*,*,#153,.T.) ;
#161=ORIENTED_EDGE('',*,*,#141,.F.) ;
#162=ORIENTED_EDGE('',*,*,#158,.F.) ;
#163=ORIENTED_EDGE('',*,*,#129,.T.) ;
#172=ORIENTED_EDGE('',*,*,#96,.F.) ;
#173=ORIENTED_EDGE('',*,*,#72,.F.) ;
#176=ORIENTED_EDGE('',*,*,#158,.T.) ;
#177=ORIENTED_EDGE('',*,*,#136,.T.) ;
#186=ORIENTED_EDGE('',*,*,#84,.T.) ;
#187=ORIENTED_EDGE('',*,*,#101,.T.) ;
#190=ORIENTED_EDGE('',*,*,#122,.F.) ;
#191=ORIENTED_EDGE('',*,*,#153,.F.) ;
#218=ORIENTED_EDGE('',*,*,#211,.T.) ;
#219=ORIENTED_EDGE('',*,*,#216,.T.) ;
#236=ORIENTED_EDGE('',*,*,#229,.F.) ;
#237=ORIENTED_EDGE('',*,*,#234,.F.) ;
#265=ORIENTED_EDGE('',*,*,#251,.F.) ;
#266=ORIENTED_EDGE('',*,*,#211,.F.) ;
#267=ORIENTED_EDGE('',*,*,#258,.T.) ;
#268=ORIENTED_EDGE('',*,*,#263,.F.) ;
#277=ORIENTED_EDGE('',*,*,#258,.F.) ;
#278=ORIENTED_EDGE('',*,*,#216,.F.) ;
#279=ORIENTED_EDGE('',*,*,#251,.T.) ;
#280=ORIENTED_EDGE('',*,*,#275,.F.) ;
#289=ORIENTED_EDGE('',*,*,#275,.T.) ;
#290=ORIENTED_EDGE('',*,*,#263,.T.) ;
#307=ORIENTED_EDGE('',*,*,#300,.F.) ;
#308=ORIENTED_EDGE('',*,*,#305,.F.) ;
#327=ORIENTED_EDGE('',*,*,#305,.T.) ;
#328=ORIENTED_EDGE('',*,*,#320,.F.) ;
#329=ORIENTED_EDGE('',*,*,#234,.T.) ;
#330=ORIENTED_EDGE('',*,*,#325,.T.) ;
#334=ORIENTED_EDGE('',*,*,#300,.T.) ;
#335=ORIENTED_EDGE('',*,*,#325,.F.) ;
#336=ORIENTED_EDGE('',*,*,#229,.T.) ;
#337=ORIENTED_EDGE('',*,*,#320,.T.) ;
#178=FACE_BOUND('',#175,.T.) ;
#192=FACE_BOUND('',#189,.T.) ;
#238=FACE_BOUND('',#235,.T.) ;
#309=FACE_BOUND('',#306,.T.) ;
#51=CLOSED_SHELL('Closed Shell',(#91,#108,#148,#165,#179,#193)) ;
#197=CLOSED_SHELL('Closed Shell',(#239,#270,#282,#310,#332,#339)) ;
#59=VECTOR('Line Direction',#58,1.) ;
#75=VECTOR('Line Direction',#74,1.) ;
#125=VECTOR('Line Direction',#124,1.) ;
#139=VECTOR('Line Direction',#138,1.) ;
#247=VECTOR('Line Direction',#246,1.) ;
#254=VECTOR('Line Direction',#253,1.) ;
#318=VECTOR('Line Direction',#317,1.) ;
#323=VECTOR('Line Direction',#322,1.) ;
#195=ADVANCED_BREP_SHAPE_REPRESENTATION('NONE',(#194,#340),#46) ;
#49=SHAPE_REPRESENTATION(' ',(#48),#46) ;
#91=ADVANCED_FACE('canon fillet\X2\00E9\X0\',(#90),#56,.T.) ;
#108=ADVANCED_FACE('canon fillet\X2\00E9\X0\',(#107),#56,.T.) ;
#148=ADVANCED_FACE('canon fillet\X2\00E9\X0\',(#147),#113,.F.) ;
#165=ADVANCED_FACE('canon fillet\X2\00E9\X0\',(#164),#113,.F.) ;
#179=ADVANCED_FACE('canon fillet\X2\00E9\X0\',(#174,#178),#170,.F.) ;
#193=ADVANCED_FACE('canon fillet\X2\00E9\X0\',(#188,#192),#184,.T.) ;
#239=ADVANCED_FACE('canon fillet\X2\00E9\X0\',(#220,#238),#202,.T.) ;
#270=ADVANCED_FACE('canon fillet\X2\00E9\X0\',(#269),#244,.T.) ;
#282=ADVANCED_FACE('canon fillet\X2\00E9\X0\',(#281),#244,.T.) ;
#310=ADVANCED_FACE('canon fillet\X2\00E9\X0\',(#291,#309),#287,.T.) ;
#332=ADVANCED_FACE('canon fillet\X2\00E9\X0\',(#331),#315,.F.) ;
#339=ADVANCED_FACE('canon fillet\X2\00E9\X0\',(#338),#315,.F.) ;
#4=APPLICATION_PROTOCOL_DEFINITION('international standard','config_control_design',1994,#1) ;
#32=APPROVAL_DATE_TIME(#13,#21) ;
#194=MANIFOLD_SOLID_BREP('canon fillet\X2\00E9\X0\.1',#51) ;
#340=MANIFOLD_SOLID_BREP('canon fillet\X2\00E9\X0\.2',#197) ;
#11=CALENDAR_DATE(2023,26,11) ;
#30=CC_DESIGN_APPROVAL(#21,(#16,#6,#14)) ;
#18=CC_DESIGN_DATE_AND_TIME_ASSIGNMENT(#13,#17,(#16)) ;
#29=CC_DESIGN_DATE_AND_TIME_ASSIGNMENT(#13,#28,(#14)) ;
#17=DATE_TIME_ROLE('classification_date') ;
#28=DATE_TIME_ROLE('creation_date') ;
#27=CC_DESIGN_PERSON_AND_ORGANIZATION_ASSIGNMENT(#25,#26,(#16)) ;
#33=CC_DESIGN_PERSON_AND_ORGANIZATION_ASSIGNMENT(#25,#34,(#6)) ;
#35=CC_DESIGN_PERSON_AND_ORGANIZATION_ASSIGNMENT(#25,#36,(#6,#14)) ;
#37=CC_DESIGN_PERSON_AND_ORGANIZATION_ASSIGNMENT(#25,#38,(#5)) ;
#26=PERSON_AND_ORGANIZATION_ROLE('classification_officer') ;
#34=PERSON_AND_ORGANIZATION_ROLE('design_supplier') ;
#36=PERSON_AND_ORGANIZATION_ROLE('creator') ;
#38=PERSON_AND_ORGANIZATION_ROLE('design_owner') ;
#39=CC_DESIGN_SECURITY_CLASSIFICATION(#16,(#6)) ;
#69=CIRCLE('generated circle',#68,7.) ;
#83=CIRCLE('generated circle',#82,7.) ;
#95=CIRCLE('generated circle',#94,7.) ;
#100=CIRCLE('generated circle',#99,7.) ;
#117=CIRCLE('generated circle',#116,4.) ;
#133=CIRCLE('generated circle',#132,4.) ;
#152=CIRCLE('generated circle',#151,4.) ;
#157=CIRCLE('generated circle',#156,4.) ;
#206=CIRCLE('generated circle',#205,4.5) ;
#215=CIRCLE('generated circle',#214,4.5) ;
#224=CIRCLE('generated circle',#223,3.) ;
#233=CIRCLE('generated circle',#232,3.) ;
#262=CIRCLE('generated circle',#261,4.5) ;
#274=CIRCLE('generated circle',#273,4.5) ;
#295=CIRCLE('generated circle',#294,3.) ;
#304=CIRCLE('generated circle',#303,3.) ;
#196=SHAPE_REPRESENTATION_RELATIONSHIP(' ',' ',#49,#195) ;
#56=CYLINDRICAL_SURFACE('generated cylinder',#55,7.) ;
#113=CYLINDRICAL_SURFACE('generated cylinder',#112,4.) ;
#244=CYLINDRICAL_SURFACE('generated cylinder',#243,4.5) ;
#315=CYLINDRICAL_SURFACE('generated cylinder',#314,3.) ;
#3=DESIGN_CONTEXT(' ',#1,'design') ;
#65=EDGE_CURVE('',#62,#64,#60,.T.) ;
#72=EDGE_CURVE('',#62,#71,#69,.T.) ;
#79=EDGE_CURVE('',#71,#78,#76,.T.) ;
#84=EDGE_CURVE('',#64,#78,#83,.T.) ;
#96=EDGE_CURVE('',#71,#62,#95,.T.) ;
#101=EDGE_CURVE('',#78,#64,#100,.T.) ;
#122=EDGE_CURVE('',#119,#121,#117,.T.) ;
#129=EDGE_CURVE('',#128,#121,#126,.T.) ;
#136=EDGE_CURVE('',#135,#128,#133,.T.) ;
#141=EDGE_CURVE('',#135,#119,#140,.T.) ;
#153=EDGE_CURVE('',#121,#119,#152,.T.) ;
#158=EDGE_CURVE('',#128,#135,#157,.T.) ;
#211=EDGE_CURVE('',#208,#210,#206,.T.) ;
#216=EDGE_CURVE('',#210,#208,#215,.T.) ;
#229=EDGE_CURVE('',#226,#228,#224,.T.) ;
#234=EDGE_CURVE('',#228,#226,#233,.T.) ;
#251=EDGE_CURVE('',#210,#250,#248,.F.) ;
#258=EDGE_CURVE('',#208,#257,#255,.F.) ;
#263=EDGE_CURVE('',#250,#257,#262,.F.) ;
#275=EDGE_CURVE('',#257,#250,#274,.F.) ;
#300=EDGE_CURVE('',#297,#299,#295,.T.) ;
#305=EDGE_CURVE('',#299,#297,#304,.T.) ;
#320=EDGE_CURVE('',#228,#297,#319,.F.) ;
#325=EDGE_CURVE('',#226,#299,#324,.F.) ;
#85=EDGE_LOOP('',(#86,#87,#88,#89)) ;
#102=EDGE_LOOP('',(#103,#104,#105,#106)) ;
#142=EDGE_LOOP('',(#143,#144,#145,#146)) ;
#159=EDGE_LOOP('',(#160,#161,#162,#163)) ;
#171=EDGE_LOOP('',(#172,#173)) ;
#175=EDGE_LOOP('',(#176,#177)) ;
#185=EDGE_LOOP('',(#186,#187)) ;
#189=EDGE_LOOP('',(#190,#191)) ;
#217=EDGE_LOOP('',(#218,#219)) ;
#235=EDGE_LOOP('',(#236,#237)) ;
#264=EDGE_LOOP('',(#265,#266,#267,#268)) ;
#276=EDGE_LOOP('',(#277,#278,#279,#280)) ;
#288=EDGE_LOOP('',(#289,#290)) ;
#306=EDGE_LOOP('',(#307,#308)) ;
#326=EDGE_LOOP('',(#327,#328,#329,#330)) ;
#333=EDGE_LOOP('',(#334,#335,#336,#337)) ;
#90=FACE_OUTER_BOUND('',#85,.T.) ;
#107=FACE_OUTER_BOUND('',#102,.T.) ;
#147=FACE_OUTER_BOUND('',#142,.T.) ;
#164=FACE_OUTER_BOUND('',#159,.T.) ;
#174=FACE_OUTER_BOUND('',#171,.T.) ;
#188=FACE_OUTER_BOUND('',#185,.T.) ;
#220=FACE_OUTER_BOUND('',#217,.T.) ;
#269=FACE_OUTER_BOUND('',#264,.T.) ;
#281=FACE_OUTER_BOUND('',#276,.T.) ;
#291=FACE_OUTER_BOUND('',#288,.T.) ;
#331=FACE_OUTER_BOUND('',#326,.T.) ;
#338=FACE_OUTER_BOUND('',#333,.T.) ;
#45=UNCERTAINTY_MEASURE_WITH_UNIT(LENGTH_MEASURE(0.005),#41,'distance_accuracy_value','CONFUSED CURVE UNCERTAINTY') ;
#60=LINE('Line',#57,#59) ;
#76=LINE('Line',#73,#75) ;
#126=LINE('Line',#123,#125) ;
#140=LINE('Line',#137,#139) ;
#248=LINE('Line',#245,#247) ;
#255=LINE('Line',#252,#254) ;
#319=LINE('Line',#316,#318) ;
#324=LINE('Line',#321,#323) ;
#2=MECHANICAL_CONTEXT(' ',#1,'mechanical') ;
#24=PERSONAL_ADDRESS(' ',' ',' ',' ',' ',' ',' ',' ',' ',' ',' ',' ',(#22),' ') ;
#170=PLANE('Plane',#169) ;
#184=PLANE('Plane',#183) ;
#202=PLANE('Plane',#201) ;
#287=PLANE('Plane',#286) ;
#43=PLANE_ANGLE_MEASURE_WITH_UNIT(PLANE_ANGLE_MEASURE(0.0174532925199),#42) ;
#7=PRODUCT_CATEGORY('part',$) ;
#9=PRODUCT_CATEGORY_RELATIONSHIP(' ',' ',#7,#8) ;
#6=PRODUCT_DEFINITION_FORMATION_WITH_SPECIFIED_SOURCE('',' ',#5,.NOT_KNOWN.) ;
#8=PRODUCT_RELATED_PRODUCT_CATEGORY('detail',$,(#5)) ;
#50=SHAPE_DEFINITION_REPRESENTATION(#40,#49) ;
#62=VERTEX_POINT('',#61) ;
#64=VERTEX_POINT('',#63) ;
#71=VERTEX_POINT('',#70) ;
#78=VERTEX_POINT('',#77) ;
#119=VERTEX_POINT('',#118) ;
#121=VERTEX_POINT('',#120) ;
#128=VERTEX_POINT('',#127) ;
#135=VERTEX_POINT('',#134) ;
#208=VERTEX_POINT('',#207) ;
#210=VERTEX_POINT('',#209) ;
#226=VERTEX_POINT('',#225) ;
#228=VERTEX_POINT('',#227) ;
#250=VERTEX_POINT('',#249) ;
#257=VERTEX_POINT('',#256) ;
#297=VERTEX_POINT('',#296) ;
#299=VERTEX_POINT('',#298) ;
#41=(LENGTH_UNIT()NAMED_UNIT(*)SI_UNIT(.MILLI.,.METRE.)) ;
#42=(NAMED_UNIT(*)PLANE_ANGLE_UNIT()SI_UNIT($,.RADIAN.)) ;
#44=(NAMED_UNIT(*)SI_UNIT($,.STERADIAN.)SOLID_ANGLE_UNIT()) ;
#46=(GEOMETRIC_REPRESENTATION_CONTEXT(3)GLOBAL_UNCERTAINTY_ASSIGNED_CONTEXT((#45))GLOBAL_UNIT_ASSIGNED_CONTEXT((#41,#42,#44))REPRESENTATION_CONTEXT(' ',' ')) ;
ENDSEC;
END-ISO-10303-21;
