0
SECTION
2
HEADER
9
$INSUNITS
70
4
9
$ACADVER
1
AC1014
9
$HANDSEED
5
FFFF
0
ENDSEC
0
SECTION
2
TABLES
0
TABLE
2
VPORT
5
8
100
AcDbSymbolTable
0
ENDTAB
0
TABLE
2
LTYPE
5
5
100
AcDbSymbolTable
0
LTYPE
5
14
100
AcDbSymbolTableRecord
100
AcDbLinetypeTableRecord
2
BYBLOCK
70
0
0
LTYPE
5
15
100
AcDbSymbolTableRecord
100
AcDbLinetypeTableRecord
2
BYLAYER
70
0
0
ENDTAB
0
TABLE
2
LAYER
5
2
100
AcDbSymbolTable
70
2
0
LAYER
5
50
100
AcDbSymbolTableRecord
100
AcDbLayerTableRecord
2
0
70
0
6
CONTINUOUS
0
ENDTAB
0
TABLE
2
STYLE
5
3
100
AcDbSymbolTable
70
1
0
STYLE
5
11
100
AcDbSymbolTableRecord
100
AcDbTextStyleTableRecord
2
STANDARD
70
0
0
ENDTAB
0
TABLE
2
VIEW
5
6
100
AcDbSymbolTable
70
0
0
ENDTAB
0
TABLE
2
UCS
5
7
100
AcDbSymbolTable
70
0
0
ENDTAB
0
TABLE
2
APPID
5
9
100
AcDbSymbolTable
70
2
0
APPID
5
12
100
AcDbSymbolTableRecord
100
AcDbRegAppTableRecord
2
ACAD
70
0
0
ENDTAB
0
TABLE
2
DIMSTYLE
5
A
100
AcDbSymbolTable
70
1
0
ENDTAB
0
TABLE
2
BLOCK_RECORD
5
1
100
AcDbSymbolTable
70
1
0
BLOCK_RECORD
5
1F
100
AcDbSymbolTableRecord
100
AcDbBlockTableRecord
2
*MODEL_SPACE
0
BLOCK_RECORD
5
1B
100
AcDbSymbolTableRecord
100
AcDbBlockTableRecord
2
*PAPER_SPACE
0
ENDTAB
0
ENDSEC
0
SECTION
2
BLOCKS
0
BLOCK
5
20
100
AcDbEntity
100
AcDbBlockBegin
2
*MODEL_SPACE
0
ENDBLK
5
21
100
AcDbEntity
100
AcDbBlockEnd
0
BLOCK
5
1C
100
AcDbEntity
100
AcDbBlockBegin
2
*PAPER_SPACE
0
ENDBLK
5
1D
100
AcDbEntity
100
AcDbBlockEnd
0
ENDSEC
0
SECTION
2
ENTITIES
0
LINE
5
100
100
AcDbEntity
8
0
100
AcDbLine
10
0.11999976821243707
20
98.800004692748189
30
0
11
46.619999768212438
21
98.800004692748189
31
0
0
LINE
5
101
100
AcDbEntity
8
0
100
AcDbLine
10
51.619999768212431
20
93.800004692748189
30
0
11
51.619999768212438
21
-0.99843015985457584
31
0
0
LINE
5
102
100
AcDbEntity
8
0
100
AcDbLine
10
-9.6170045933168087
20
-53.724313306190425
30
0
11
-9.6170045933168335
21
-25.297616955380914
31
0
0
LINE
5
103
100
AcDbEntity
8
0
100
AcDbLine
10
-5.9292754605793432
20
-20.472894665866907
30
0
11
47.932270635473209
21
-5.8231524493708919
31
0
0
LINE
5
104
100
AcDbEntity
8
0
100
AcDbLine
10
-4.8800002317875624
20
91.23128889663829
30
0
11
-4.8800002317875704
21
93.800004692748189
31
0
0
LINE
5
105
100
AcDbEntity
8
0
100
AcDbLine
10
-9.6170045933168087
20
-53.724313306190425
30
0
11
-9.6170045933168726
21
-106.56582438165812
31
0
0
ARC
5
106
100
AcDbEntity
8
0
100
AcDbCircle
10
0.11999976821244762
20
93.800004692748175
30
0
40
5.0000000000000178
210
0
220
0
230
1
100
AcDbArc
50
90.000000000000128
51
180
0
ARC
5
107
100
AcDbEntity
8
0
100
AcDbCircle
10
46.619999768212431
20
93.800004692748189
30
0
40
5
210
0
220
-0
230
1
100
AcDbArc
50
0
51
89.999999999999929
0
ARC
5
108
100
AcDbEntity
8
0
100
AcDbCircle
10
46.619999768210143
20
-0.99843015985457584
30
0
40
5.0000000000022924
210
0
220
0
230
1
100
AcDbArc
50
-74.784265915654856
51
0
0
ARC
5
109
100
AcDbEntity
8
0
100
AcDbCircle
10
-4.6170045933168833
20
-25.297616955381002
30
0
40
4.9999999999999893
210
0
220
0
230
1
100
AcDbArc
50
105.2157340843451
51
180
0
LINE
5
110
100
AcDbEntity
8
0
100
AcDbLine
10
-7.9999998211860657
20
81.699998173862696
30
0
11
-48.505658975540669
21
14.24723494014895
31
0
0
ARC
5
111
100
AcDbEntity
8
0
100
AcDbCircle
10
-33.625321411101893
20
3.6147270539135246
30
0
40
18.288648664745747
210
0
220
0
230
1
100
AcDbArc
50
144.45290162839345
51
182.1567627071764
0
LINE
5
112
100
AcDbEntity
8
0
100
AcDbLine
10
-51.901014408002595
20
2.9264571464344753
30
0
11
-51.901014408002595
21
-38.660454215005018
31
0
0
CIRCLE
5
113
100
AcDbEntity
8
0
100
AcDbCircle
10
-16.68000023178756
20
23.800004692748189
30
0
40
4.5000000000000027
210
0
220
0
230
1
0
LINE
5
114
100
AcDbEntity
8
0
100
AcDbLine
10
-31.617101016355637
20
-76.908976830570097
30
0
11
-64.768902036354078
21
-77.012530286835073
31
0
0
LINE
5
115
100
AcDbEntity
8
0
100
AcDbLine
10
-64.529527399221323
20
-86.011826478940321
30
0
11
-31.588988620312414
21
-85.908932924529111
31
0
0
ARC
5
116
100
AcDbEntity
8
0
100
AcDbCircle
10
-31.603044818334354
20
-81.408954877549732
30
0
40
4.4999999999999121
210
0
220
0
230
1
100
AcDbArc
50
-89.821030637267299
51
90.178969362724331
0
ARC
5
117
100
AcDbEntity
8
0
100
AcDbCircle
10
-64.774422520985112
20
-75.245191806659449
30
0
40
1.7673471020891993
210
0
220
0
230
1
100
AcDbArc
50
164.42061474145996
51
270.17896936272689
0
ARC
5
118
100
AcDbEntity
8
0
100
AcDbCircle
10
-64.523403091928785
20
-87.972473896365386
30
0
40
1.9606569823901931
210
0
220
0
230
1
100
AcDbArc
50
90.178969362855071
51
181.1362485088425
0
ARC
5
119
100
AcDbEntity
8
0
100
AcDbCircle
10
-31.603044818334354
20
-81.408954877549732
30
0
40
35.49999999995751
210
0
220
0
230
1
100
AcDbArc
50
111.98608556491043
51
169.72483312439067
0
ARC
5
120
100
AcDbEntity
8
0
100
AcDbCircle
10
-31.603044818334354
20
-81.408954877549732
30
0
40
35.354466652748208
210
0
220
0
230
1
100
AcDbArc
50
189.93077101225583
51
304.02741233747258
0
ARC
5
121
100
AcDbEntity
8
0
100
AcDbCircle
10
-14.617004593316899
20
-106.56582438165805
30
0
40
5.0000000000070077
210
-0
220
0
230
1
100
AcDbArc
50
304.02741233741745
51
360
0
LWPOLYLINE
5
122
100
AcDbEntity
8
0
100
AcDbPolyline
90
4
70
1
43
0.0
10
2.4997065083684986
20
88.999995884911243
10
2.4997976866477911
20
62.000001918658853
42
0.99999999999999989
10
13.499815817943103
20
62.000039065434756
10
13.49972463966381
20
89.000033031687153
42
0.99999999999999989
0
LWPOLYLINE
5
123
100
AcDbEntity
8
0
100
AcDbPolyline
90
4
70
1
43
0.0
10
2.4997157044110407
20
89.000001300120772
10
2.4997644383242168
20
62.000001300164769
42
1.0000000105367122
10
13.499764177535988
20
62.000021154721516
10
13.499715443622815
20
89.00002115467754
42
1.0000000105367122
0
ARC
5
124
100
AcDbEntity
8
0
100
AcDbCircle
10
23.499715574016157
20
88.999648682495476
30
0
40
5.4999998696147978
210
0
220
-0
230
1
100
AcDbArc
50
0
51
180
0
LINE
5
125
100
AcDbEntity
8
0
100
AcDbLine
10
28.999715878248065
20
43.999648735615338
30
0
11
28.999715443630954
21
88.999648735615352
31
0
0
LINE
5
126
100
AcDbEntity
8
0
100
AcDbLine
10
17.999715704401353
20
88.999648682495476
30
0
11
17.999716139018464
21
43.999648682495476
31
0
0
ARC
5
127
100
AcDbEntity
8
0
100
AcDbCircle
10
23.499716008633264
20
43.999648682495476
30
0
40
5.4999998696148005
210
0
220
0
230
1
100
AcDbArc
50
-180
51
0
0
LWPOLYLINE
5
128
100
AcDbEntity
8
0
100
AcDbPolyline
90
4
70
1
43
0.0
10
44.499715443630947
20
88.999648709055421
42
0.99999999999999989
10
33.499715704401353
20
88.999648682495476
10
33.49971570440136
20
61.999648682495689
42
0.99999999999999989
10
44.499715508823535
20
61.999648709055634
0
LINE
5
129
100
AcDbEntity
8
0
100
AcDbLine
10
44.499715878248061
20
1.9996487356153381
30
0
11
44.499715443630947
21
46.999648735615345
31
0
0
ARC
5
130
100
AcDbEntity
8
0
100
AcDbCircle
10
38.99971557401615
20
46.999648682495476
30
0
40
5.4999998696147934
210
0
220
-0
230
1
100
AcDbArc
50
0
51
180
0
LINE
5
131
100
AcDbEntity
8
0
100
AcDbLine
10
33.499715704401353
20
46.999648682495476
30
0
11
33.49971613901846
21
1.9996486293756099
31
0
0
ARC
5
132
100
AcDbEntity
8
0
100
AcDbCircle
10
38.999716008633257
20
1.999648682495474
30
0
40
5.4999998696148023
210
0
220
0
230
1
100
AcDbArc
50
-180
51
0
0
LINE
5
133
100
AcDbEntity
8
0
100
AcDbLine
10
13.499715878248061
20
1.9996487356153381
30
0
11
13.499715443630947
21
46.999648735615345
31
0
0
LINE
5
134
100
AcDbEntity
8
0
100
AcDbLine
10
2.4997157044013507
20
46.999648682495476
30
0
11
2.4997161390184575
21
1.9996486293756099
31
0
0
ARC
5
135
100
AcDbEntity
8
0
100
AcDbCircle
10
7.999715574016153
20
46.999648682495476
30
0
40
5.4999998696147934
210
0
220
-0
230
1
100
AcDbArc
50
0
51
180
0
ARC
5
136
100
AcDbEntity
8
0
100
AcDbCircle
10
7.9997160086332597
20
1.999648682495474
30
0
40
5.4999998696148023
210
0
220
0
230
1
100
AcDbArc
50
-180
51
0
0
ARC
5
137
100
AcDbEntity
8
0
100
AcDbCircle
10
-31.603044818334357
20
-81.408954877549718
30
0
40
35.499999999972054
210
0
220
-0
230
1
100
AcDbArc
50
89.99999395748722
51
111.98608556491043
0
ARC
5
138
100
AcDbEntity
8
0
100
AcDbCircle
10
-31.6030405998705
20
-41.408954877549732
30
0
40
4.5000000000281464
210
0
220
0
230
1
100
AcDbArc
50
-90.000006042438088
51
89.999993957412528
0
ARC
5
139
100
AcDbEntity
8
0
100
AcDbCircle
10
-31.603044818334357
20
-81.408954877549718
30
0
40
44.500000000014595
210
0
220
-0
230
1
100
AcDbArc
50
89.99999395748722
51
113.17275000712112
0
ARC
5
140
100
AcDbEntity
8
0
100
AcDbCircle
10
-49.901014408002581
20
-38.660454215005018
30
0
40
2.0000000000000195
210
0
220
0
230
1
100
AcDbArc
50
180
51
293.17275000712146
0
SPLINE
5
141
100
AcDbEntity
8
0
100
AcDbSpline
70
12
71
2
41
1
41
3
41
1
72
6
73
3
74
0
42
0.000000001
43
0.0000000001
44
0.0000000001
40
0
40
0
40
0
40
1.0234493416894441
40
1.0234493416894441
40
1.0234493416894441
10
-7.9999998211860657
20
81.699998173862696
30
0
10
-4.8800002317875482
20
86.895632512042752
30
0
10
-4.8800002317875624
20
91.23128889663829
30
0
0
ENDSEC
0
SECTION
2
OBJECTS
0
DICTIONARY
5
C
100
AcDbDictionary
3
ACAD_GROUP
350
D
3
ACAD_MLINESTYLE
350
17
0
DICTIONARY
5
D
100
AcDbDictionary
0
DICTIONARY
5
1A
330
C
100
AcDbDictionary
0
DICTIONARY
5
17
100
AcDbDictionary
0
ENDSEC
0
EOF
