ISO-10303-21;
HEADER;
FILE_DESCRIPTION( ( 'STEP AP203' ), '1' );
FILE_NAME( ' ', '  ', ( '  ' ), ( '  ' ), 'PSStep 10.1', '  ', '  ' );
FILE_SCHEMA( ( 'CONFIG_CONTROL_DESIGN' ) );
ENDSEC;
DATA;
#1 = DESIGN_CONTEXT( '', #27, 'design' );
#2 = APPLICATION_PROTOCOL_DEFINITION( 'INTERNATIONAL STANDARD', 'config_control_design', 1994, #27 );
#3 = PRODUCT_CATEGORY_RELATIONSHIP( 'NONE', 'NONE', #28, #29 );
#4 = DATE_AND_TIME( #30, #31 );
#5 = DATE_TIME_ROLE( 'creation_date' );
#6 = DATE_TIME_ROLE( 'classification_date' );
#7 = PERSON_AND_ORGANIZATION_ROLE( 'creator' );
#8 = PERSON_AND_ORGANIZATION_ROLE( 'design_supplier' );
#9 = PERSON_AND_ORGANIZATION_ROLE( 'classification_officer' );
#10 = PERSON_AND_ORGANIZATION_ROLE( 'design_owner' );
#11 = APPROVAL_PERSON_ORGANIZATION( #32, #33, #34 );
#12 = APPROVAL_DATE_TIME( #4, #33 );
#13 = CC_DESIGN_APPROVAL( #33, ( #35, #36, #37 ) );
#14 = CC_DESIGN_DATE_AND_TIME_ASSIGNMENT( #4, #5, ( #37 ) );
#15 = CC_DESIGN_DATE_AND_TIME_ASSIGNMENT( #4, #6, ( #35 ) );
#16 = CC_DESIGN_PERSON_AND_ORGANIZATION_ASSIGNMENT( #32, #10, ( #38 ) );
#17 = CC_DESIGN_PERSON_AND_ORGANIZATION_ASSIGNMENT( #32, #7, ( #37 ) );
#18 = CC_DESIGN_PERSON_AND_ORGANIZATION_ASSIGNMENT( #32, #7, ( #36 ) );
#19 = CC_DESIGN_PERSON_AND_ORGANIZATION_ASSIGNMENT( #32, #8, ( #36 ) );
#20 = CC_DESIGN_SECURITY_CLASSIFICATION( #35, ( #36 ) );
#21 = CC_DESIGN_PERSON_AND_ORGANIZATION_ASSIGNMENT( #32, #9, ( #35 ) );
#22 = SHAPE_DEFINITION_REPRESENTATION( #39, #40 );
#23 =  ( GEOMETRIC_REPRESENTATION_CONTEXT( 3 )GLOBAL_UNCERTAINTY_ASSIGNED_CONTEXT( ( #43 ) )GLOBAL_UNIT_ASSIGNED_CONTEXT( ( #45, #46, #47 ) )REPRESENTATION_CONTEXT( 'NONE', 'WORKSPACE' ) );
#27 = APPLICATION_CONTEXT( 'CONFIGURATION CONTROLLED 3D DESIGNS OF MECHANICAL PARTS AND ASSEMBLIES' );
#28 = PRODUCT_CATEGORY( 'part', 'NONE' );
#29 = PRODUCT_RELATED_PRODUCT_CATEGORY( 'detail', ' ', ( #38 ) );
#30 = CALENDAR_DATE( 2023, 24, 9 );
#31 = LOCAL_TIME( 13, 40, 16.0000000000000, #49 );
#32 = PERSON_AND_ORGANIZATION( #50, #51 );
#33 = APPROVAL( #52, 'SOLID MODEL' );
#34 = APPROVAL_ROLE( 'APPROVED' );
#35 = SECURITY_CLASSIFICATION( '', '', #53 );
#36 = PRODUCT_DEFINITION_FORMATION_WITH_SPECIFIED_SOURCE( ' ', 'NONE', #38, .NOT_KNOWN. );
#37 = PRODUCT_DEFINITION( 'NONE', 'NONE', #36, #1 );
#38 = PRODUCT( '1', '1', 'PART-1-DESC', ( #54 ) );
#39 = PRODUCT_DEFINITION_SHAPE( 'NONE', 'NONE', #37 );
#40 = ADVANCED_BREP_SHAPE_REPRESENTATION( '1', ( #55, #56 ), #23 );
#43 = UNCERTAINTY_MEASURE_WITH_UNIT( LENGTH_MEASURE( 0.00100000000000000 ), #45, '', '' );
#45 =  ( CONVERSION_BASED_UNIT( 'MILLIMETRE', #59 )LENGTH_UNIT(  )NAMED_UNIT( #62 ) );
#46 =  ( NAMED_UNIT( #64 )PLANE_ANGLE_UNIT(  )SI_UNIT( $, .RADIAN. ) );
#47 =  ( NAMED_UNIT( #64 )SI_UNIT( $, .STERADIAN. )SOLID_ANGLE_UNIT(  ) );
#49 = COORDINATED_UNIVERSAL_TIME_OFFSET( 1, 0, .AHEAD. );
#50 = PERSON( '', 'UNSPECIFIED', $, $, $, $ );
#51 = ORGANIZATION( 'UNSPECIFIED', 'UNSPECIFIED', 'UNSPECIFIED' );
#52 = APPROVAL_STATUS( 'approved' );
#53 = SECURITY_CLASSIFICATION_LEVEL( 'unclassified' );
#54 = MECHANICAL_CONTEXT( '', #27, 'mechanical' );
#55 = MANIFOLD_SOLID_BREP( '1', #70 );
#56 = AXIS2_PLACEMENT_3D( '', #71, #72, #73 );
#59 = LENGTH_MEASURE_WITH_UNIT( LENGTH_MEASURE( 1.00000000000000 ), #74 );
#62 = DIMENSIONAL_EXPONENTS( 1.00000000000000, 0.000000000000000, 0.000000000000000, 0.000000000000000, 0.000000000000000, 0.000000000000000, 0.000000000000000 );
#64 = DIMENSIONAL_EXPONENTS( 0.000000000000000, 0.000000000000000, 0.000000000000000, 0.000000000000000, 0.000000000000000, 0.000000000000000, 0.000000000000000 );
#70 = CLOSED_SHELL( '', ( #75, #76, #77, #78, #79, #80, #81, #82, #83, #84, #85, #86, #87 ) );
#71 = CARTESIAN_POINT( '', ( 0.000000000000000, 0.000000000000000, 0.000000000000000 ) );
#72 = DIRECTION( '', ( 0.000000000000000, 0.000000000000000, 1.00000000000000 ) );
#73 = DIRECTION( '', ( 1.00000000000000, 0.000000000000000, 0.000000000000000 ) );
#74 =  ( LENGTH_UNIT(  )NAMED_UNIT( #62 )SI_UNIT( .MILLI., .METRE. ) );
#75 = ADVANCED_FACE( '', ( #89, #90 ), #91, .F. );
#76 = ADVANCED_FACE( '', ( #92 ), #93, .T. );
#77 = ADVANCED_FACE( '', ( #94 ), #95, .F. );
#78 = ADVANCED_FACE( '', ( #96, #97, #98 ), #99, .F. );
#79 = ADVANCED_FACE( '', ( #100 ), #101, .F. );
#80 = ADVANCED_FACE( '', ( #102 ), #103, .F. );
#81 = ADVANCED_FACE( '', ( #104 ), #105, .F. );
#82 = ADVANCED_FACE( '', ( #106 ), #107, .F. );
#83 = ADVANCED_FACE( '', ( #108 ), #109, .T. );
#84 = ADVANCED_FACE( '', ( #110 ), #111, .F. );
#85 = ADVANCED_FACE( '', ( #112 ), #113, .F. );
#86 = ADVANCED_FACE( '', ( #114, #115 ), #116, .F. );
#87 = ADVANCED_FACE( '', ( #117, #118, #119 ), #120, .F. );
#89 = FACE_OUTER_BOUND( '', #121, .T. );
#90 = FACE_OUTER_BOUND( '', #122, .T. );
#91 = CYLINDRICAL_SURFACE( '', #123, 0.850000221413000 );
#92 = FACE_OUTER_BOUND( '', #124, .T. );
#93 = PLANE( '', #125 );
#94 = FACE_OUTER_BOUND( '', #126, .T. );
#95 = PLANE( '', #127 );
#96 = FACE_OUTER_BOUND( '', #128, .T. );
#97 = FACE_BOUND( '', #129, .T. );
#98 = FACE_BOUND( '', #130, .T. );
#99 = PLANE( '', #131 );
#100 = FACE_OUTER_BOUND( '', #132, .T. );
#101 = PLANE( '', #133 );
#102 = FACE_OUTER_BOUND( '', #134, .T. );
#103 = CYLINDRICAL_SURFACE( '', #135, 2.50000000000000 );
#104 = FACE_OUTER_BOUND( '', #136, .T. );
#105 = PLANE( '', #137 );
#106 = FACE_OUTER_BOUND( '', #138, .T. );
#107 = PLANE( '', #139 );
#108 = FACE_OUTER_BOUND( '', #140, .T. );
#109 = CYLINDRICAL_SURFACE( '', #141, 4.45000000000000 );
#110 = FACE_OUTER_BOUND( '', #142, .T. );
#111 = PLANE( '', #143 );
#112 = FACE_OUTER_BOUND( '', #144, .T. );
#113 = PLANE( '', #145 );
#114 = FACE_OUTER_BOUND( '', #146, .T. );
#115 = FACE_OUTER_BOUND( '', #147, .T. );
#116 = CYLINDRICAL_SURFACE( '', #148, 0.849999570584000 );
#117 = FACE_OUTER_BOUND( '', #149, .T. );
#118 = FACE_BOUND( '', #150, .T. );
#119 = FACE_BOUND( '', #151, .T. );
#120 = PLANE( '', #152 );
#121 = EDGE_LOOP( '', ( #153 ) );
#122 = EDGE_LOOP( '', ( #154 ) );
#123 = AXIS2_PLACEMENT_3D( '', #155, #156, #157 );
#124 = EDGE_LOOP( '', ( #158, #159, #160 ) );
#125 = AXIS2_PLACEMENT_3D( '', #161, #162, #163 );
#126 = EDGE_LOOP( '', ( #164, #165, #166, #167, #168, #169, #170, #171, #172 ) );
#127 = AXIS2_PLACEMENT_3D( '', #173, #174, #175 );
#128 = EDGE_LOOP( '', ( #176, #177, #178, #179 ) );
#129 = EDGE_LOOP( '', ( #180 ) );
#130 = EDGE_LOOP( '', ( #181 ) );
#131 = AXIS2_PLACEMENT_3D( '', #182, #183, #184 );
#132 = EDGE_LOOP( '', ( #185, #186, #187, #188 ) );
#133 = AXIS2_PLACEMENT_3D( '', #189, #190, #191 );
#134 = EDGE_LOOP( '', ( #192, #193, #194, #195 ) );
#135 = AXIS2_PLACEMENT_3D( '', #196, #197, #198 );
#136 = EDGE_LOOP( '', ( #199, #200, #201, #202 ) );
#137 = AXIS2_PLACEMENT_3D( '', #203, #204, #205 );
#138 = EDGE_LOOP( '', ( #206, #207, #208, #209, #210, #211, #212, #213 ) );
#139 = AXIS2_PLACEMENT_3D( '', #214, #215, #216 );
#140 = EDGE_LOOP( '', ( #217, #218, #219, #220, #221 ) );
#141 = AXIS2_PLACEMENT_3D( '', #222, #223, #224 );
#142 = EDGE_LOOP( '', ( #225, #226, #227, #228 ) );
#143 = AXIS2_PLACEMENT_3D( '', #229, #230, #231 );
#144 = EDGE_LOOP( '', ( #232, #233, #234, #235, #236 ) );
#145 = AXIS2_PLACEMENT_3D( '', #237, #238, #239 );
#146 = EDGE_LOOP( '', ( #240 ) );
#147 = EDGE_LOOP( '', ( #241 ) );
#148 = AXIS2_PLACEMENT_3D( '', #242, #243, #244 );
#149 = EDGE_LOOP( '', ( #245, #246, #247, #248 ) );
#150 = EDGE_LOOP( '', ( #249 ) );
#151 = EDGE_LOOP( '', ( #250 ) );
#152 = AXIS2_PLACEMENT_3D( '', #251, #252, #253 );
#153 = ORIENTED_EDGE( '', *, *, #254, .F. );
#154 = ORIENTED_EDGE( '', *, *, #255, .T. );
#155 = CARTESIAN_POINT( '', ( 4312.97228060000, 479.876694243000, -201.813710548000 ) );
#156 = DIRECTION( '', ( 0.00381048401220573, 0.499996354734997, 0.866019125344994 ) );
#157 = DIRECTION( '', ( -0.999970961267338, 0.00762080193126258, 2.01832116020077E-010 ) );
#158 = ORIENTED_EDGE( '', *, *, #256, .F. );
#159 = ORIENTED_EDGE( '', *, *, #257, .F. );
#160 = ORIENTED_EDGE( '', *, *, #258, .T. );
#161 = CARTESIAN_POINT( '', ( 4335.05760324000, 464.299085897000, -209.122919200000 ) );
#162 = DIRECTION( '', ( 0.00562129288956178, -0.930179712793295, -0.367061443050116 ) );
#163 = DIRECTION( '', ( 0.000000000000000, 0.367067242562671, -0.930194409485156 ) );
#164 = ORIENTED_EDGE( '', *, *, #259, .T. );
#165 = ORIENTED_EDGE( '', *, *, #260, .F. );
#166 = ORIENTED_EDGE( '', *, *, #261, .F. );
#167 = ORIENTED_EDGE( '', *, *, #262, .F. );
#168 = ORIENTED_EDGE( '', *, *, #263, .T. );
#169 = ORIENTED_EDGE( '', *, *, #256, .T. );
#170 = ORIENTED_EDGE( '', *, *, #264, .F. );
#171 = ORIENTED_EDGE( '', *, *, #265, .T. );
#172 = ORIENTED_EDGE( '', *, *, #266, .T. );
#173 = CARTESIAN_POINT( '', ( 4307.95661397000, 471.526091773000, -214.377667273000 ) );
#174 = DIRECTION( '', ( 0.999894796387552, 0.00982134089405561, -0.0106741472791952 ) );
#175 = DIRECTION( '', ( 0.000000000000000, -0.735892351709303, -0.677098550209459 ) );
#176 = ORIENTED_EDGE( '', *, *, #267, .F. );
#177 = ORIENTED_EDGE( '', *, *, #268, .T. );
#178 = ORIENTED_EDGE( '', *, *, #269, .F. );
#179 = ORIENTED_EDGE( '', *, *, #265, .F. );
#180 = ORIENTED_EDGE( '', *, *, #254, .T. );
#181 = ORIENTED_EDGE( '', *, *, #270, .T. );
#182 = CARTESIAN_POINT( '', ( 4305.15511991000, 466.512497051000, -197.016586203000 ) );
#183 = DIRECTION( '', ( -0.00381048401219997, -0.499996354734996, -0.866019125344994 ) );
#184 = DIRECTION( '', ( 4.23048708531046E-019, -0.866025412620690, 0.499999984695164 ) );
#185 = ORIENTED_EDGE( '', *, *, #271, .T. );
#186 = ORIENTED_EDGE( '', *, *, #266, .F. );
#187 = ORIENTED_EDGE( '', *, *, #269, .T. );
#188 = ORIENTED_EDGE( '', *, *, #272, .T. );
#189 = CARTESIAN_POINT( '', ( 4304.74336672000, 492.344339015000, -211.928794792000 ) );
#190 = DIRECTION( '', ( 0.0138033355561995, -0.865969203568969, 0.499906797710982 ) );
#191 = DIRECTION( '', ( -0.999872986333592, -0.0159377288326890, -8.67200057789629E-019 ) );
#192 = ORIENTED_EDGE( '', *, *, #261, .T. );
#193 = ORIENTED_EDGE( '', *, *, #273, .F. );
#194 = ORIENTED_EDGE( '', *, *, #274, .F. );
#195 = ORIENTED_EDGE( '', *, *, #275, .T. );
#196 = CARTESIAN_POINT( '', ( 4319.92725599000, 480.011663594000, -222.129642946000 ) );
#197 = DIRECTION( '', ( 0.999897073167801, 0.0100738613079057, -0.0102156932615846 ) );
#198 = DIRECTION( '', ( 0.00381048401217997, 0.499996354734997, 0.866019125344994 ) );
#199 = ORIENTED_EDGE( '', *, *, #276, .T. );
#200 = ORIENTED_EDGE( '', *, *, #277, .F. );
#201 = ORIENTED_EDGE( '', *, *, #273, .T. );
#202 = ORIENTED_EDGE( '', *, *, #260, .T. );
#203 = CARTESIAN_POINT( '', ( 4334.73411445000, 482.629323281000, -222.709782143000 ) );
#204 = DIRECTION( '', ( -0.0111070784172040, 0.994226947360359, -0.106721178552039 ) );
#205 = DIRECTION( '', ( -0.994627731310421, 0.000000000000000, 0.103516549924565 ) );
#206 = ORIENTED_EDGE( '', *, *, #278, .F. );
#207 = ORIENTED_EDGE( '', *, *, #272, .F. );
#208 = ORIENTED_EDGE( '', *, *, #268, .F. );
#209 = ORIENTED_EDGE( '', *, *, #279, .T. );
#210 = ORIENTED_EDGE( '', *, *, #280, .F. );
#211 = ORIENTED_EDGE( '', *, *, #281, .T. );
#212 = ORIENTED_EDGE( '', *, *, #274, .T. );
#213 = ORIENTED_EDGE( '', *, *, #277, .T. );
#214 = CARTESIAN_POINT( '', ( 4331.92623534000, 471.662316513000, -214.648374892000 ) );
#215 = DIRECTION( '', ( -0.999894942216173, -0.00981221457460170, 0.0106688788379018 ) );
#216 = DIRECTION( '', ( -0.00981277305982188, 0.999951853583400, 0.000000000000000 ) );
#217 = ORIENTED_EDGE( '', *, *, #257, .T. );
#218 = ORIENTED_EDGE( '', *, *, #263, .F. );
#219 = ORIENTED_EDGE( '', *, *, #282, .F. );
#220 = ORIENTED_EDGE( '', *, *, #280, .T. );
#221 = ORIENTED_EDGE( '', *, *, #283, .F. );
#222 = CARTESIAN_POINT( '', ( 4319.85372784000, 468.285229571000, -207.333832936000 ) );
#223 = DIRECTION( '', ( 0.999897073167802, 0.0100738613078774, -0.0102156932615336 ) );
#224 = DIRECTION( '', ( -0.00381048401214997, -0.499996354734996, -0.866019125344994 ) );
#225 = ORIENTED_EDGE( '', *, *, #276, .F. );
#226 = ORIENTED_EDGE( '', *, *, #259, .F. );
#227 = ORIENTED_EDGE( '', *, *, #271, .F. );
#228 = ORIENTED_EDGE( '', *, *, #278, .T. );
#229 = CARTESIAN_POINT( '', ( 4315.88677181000, 482.267622735000, -222.495484560000 ) );
#230 = DIRECTION( '', ( 0.00948649189517357, 0.106884768235040, 0.994226157768374 ) );
#231 = DIRECTION( '', ( 0.996084447531308, -0.0884068627780062, 0.000000000000000 ) );
#232 = ORIENTED_EDGE( '', *, *, #283, .T. );
#233 = ORIENTED_EDGE( '', *, *, #279, .F. );
#234 = ORIENTED_EDGE( '', *, *, #267, .T. );
#235 = ORIENTED_EDGE( '', *, *, #264, .T. );
#236 = ORIENTED_EDGE( '', *, *, #258, .F. );
#237 = CARTESIAN_POINT( '', ( 4320.20937760000, 463.996844081000, -209.031498261000 ) );
#238 = DIRECTION( '', ( -0.0134974048768039, 0.366852258249106, -0.930181294522269 ) );
#239 = DIRECTION( '', ( -0.999894739173412, 1.27277444919966E-018, 0.0145089825051160 ) );
#240 = ORIENTED_EDGE( '', *, *, #270, .F. );
#241 = ORIENTED_EDGE( '', *, *, #284, .T. );
#242 = CARTESIAN_POINT( '', ( 4326.97340295000, 480.041362772000, -201.970386899000 ) );
#243 = DIRECTION( '', ( 0.00381048401220654, 0.499996354734996, 0.866019125344994 ) );
#244 = DIRECTION( '', ( -0.999970961259488, 0.00762080296134372, -3.92919077049168E-010 ) );
#245 = ORIENTED_EDGE( '', *, *, #262, .T. );
#246 = ORIENTED_EDGE( '', *, *, #275, .F. );
#247 = ORIENTED_EDGE( '', *, *, #281, .F. );
#248 = ORIENTED_EDGE( '', *, *, #282, .T. );
#249 = ORIENTED_EDGE( '', *, *, #255, .F. );
#250 = ORIENTED_EDGE( '', *, *, #284, .F. );
#251 = CARTESIAN_POINT( '', ( 0.253765190680000, 33.2980455744000, 57.6739090814000 ) );
#252 = DIRECTION( '', ( 0.00381048401219997, 0.499996354734996, 0.866019125344994 ) );
#253 = DIRECTION( '', ( 0.999970961264674, -0.00762080228081427, 3.75575926845216E-019 ) );
#254 = EDGE_CURVE( '', #285, #285, #286, .T. );
#255 = EDGE_CURVE( '', #287, #287, #288, .T. );
#256 = EDGE_CURVE( '', #289, #290, #291, .T. );
#257 = EDGE_CURVE( '', #292, #289, #293, .T. );
#258 = EDGE_CURVE( '', #292, #290, #294, .T. );
#259 = EDGE_CURVE( '', #295, #296, #297, .T. );
#260 = EDGE_CURVE( '', #298, #296, #299, .T. );
#261 = EDGE_CURVE( '', #300, #298, #301, .T. );
#262 = EDGE_CURVE( '', #302, #300, #303, .T. );
#263 = EDGE_CURVE( '', #302, #289, #304, .T. );
#264 = EDGE_CURVE( '', #305, #290, #306, .T. );
#265 = EDGE_CURVE( '', #305, #307, #308, .T. );
#266 = EDGE_CURVE( '', #307, #295, #309, .T. );
#267 = EDGE_CURVE( '', #310, #305, #311, .T. );
#268 = EDGE_CURVE( '', #310, #312, #313, .T. );
#269 = EDGE_CURVE( '', #307, #312, #314, .T. );
#270 = EDGE_CURVE( '', #315, #315, #316, .T. );
#271 = EDGE_CURVE( '', #317, #295, #318, .T. );
#272 = EDGE_CURVE( '', #312, #317, #319, .T. );
#273 = EDGE_CURVE( '', #320, #298, #321, .T. );
#274 = EDGE_CURVE( '', #322, #320, #323, .T. );
#275 = EDGE_CURVE( '', #322, #300, #324, .T. );
#276 = EDGE_CURVE( '', #296, #325, #326, .T. );
#277 = EDGE_CURVE( '', #320, #325, #327, .T. );
#278 = EDGE_CURVE( '', #317, #325, #328, .T. );
#279 = EDGE_CURVE( '', #310, #329, #330, .T. );
#280 = EDGE_CURVE( '', #331, #329, #332, .T. );
#281 = EDGE_CURVE( '', #331, #322, #333, .T. );
#282 = EDGE_CURVE( '', #331, #302, #334, .T. );
#283 = EDGE_CURVE( '', #292, #329, #335, .T. );
#284 = EDGE_CURVE( '', #336, #336, #337, .T. );
#285 = VERTEX_POINT( '', #338 );
#286 = CIRCLE( '', #339, 0.850000221413000 );
#287 = VERTEX_POINT( '', #340 );
#288 = CIRCLE( '', #341, 0.850000221413000 );
#289 = VERTEX_POINT( '', #342 );
#290 = VERTEX_POINT( '', #343 );
#291 = LINE( '', #344, #345 );
#292 = VERTEX_POINT( '', #346 );
#293 = LINE( '', #347, #348 );
#294 = B_SPLINE_CURVE_WITH_KNOTS( '', 1, ( #349, #350 ), .UNSPECIFIED., .F., .F., ( 2, 2 ), ( -4.91098717574000, 4.86101973834000 ), .UNSPECIFIED. );
#295 = VERTEX_POINT( '', #351 );
#296 = VERTEX_POINT( '', #352 );
#297 = LINE( '', #353, #354 );
#298 = VERTEX_POINT( '', #355 );
#299 = B_SPLINE_CURVE_WITH_KNOTS( '', 1, ( #356, #357 ), .UNSPECIFIED., .F., .F., ( 2, 2 ), ( -4.35482299756000, -4.19866924221000 ), .UNSPECIFIED. );
#300 = VERTEX_POINT( '', #358 );
#301 = B_SPLINE_CURVE_WITH_KNOTS( '', 3, ( #359, #360, #361, #362, #363, #364 ), .UNSPECIFIED., .F., .F., ( 4, 2, 4 ), ( 0.000000000000000, 0.500000000000000, 1.00000000000000 ), .UNSPECIFIED. );
#302 = VERTEX_POINT( '', #365 );
#303 = B_SPLINE_CURVE_WITH_KNOTS( '', 1, ( #366, #367 ), .UNSPECIFIED., .F., .F., ( 2, 2 ), ( -8.98909778398000, 8.56113420873000 ), .UNSPECIFIED. );
#304 = B_SPLINE_CURVE_WITH_KNOTS( '', 4, ( #368, #369, #370, #371, #372 ), .UNSPECIFIED., .F., .F., ( 5, 5 ), ( 0.000000000000000, 4.22530442750000 ), .UNSPECIFIED. );
#305 = VERTEX_POINT( '', #373 );
#306 = LINE( '', #374, #375 );
#307 = VERTEX_POINT( '', #376 );
#308 = LINE( '', #377, #378 );
#309 = LINE( '', #379, #380 );
#310 = VERTEX_POINT( '', #381 );
#311 = LINE( '', #382, #383 );
#312 = VERTEX_POINT( '', #384 );
#313 = LINE( '', #385, #386 );
#314 = LINE( '', #387, #388 );
#315 = VERTEX_POINT( '', #389 );
#316 = CIRCLE( '', #390, 0.849999570584000 );
#317 = VERTEX_POINT( '', #391 );
#318 = LINE( '', #392, #393 );
#319 = LINE( '', #394, #395 );
#320 = VERTEX_POINT( '', #396 );
#321 = LINE( '', #397, #398 );
#322 = VERTEX_POINT( '', #399 );
#323 = B_SPLINE_CURVE_WITH_KNOTS( '', 2, ( #400, #401, #402, #403, #404, #405, #406, #407, #408 ), .UNSPECIFIED., .F., .F., ( 3, 2, 2, 2, 3 ), ( 0.000000000000000, 0.250000000000000, 0.500000000000000, 0.750000000000000, 1.00000000000000 ), .UNSPECIFIED. );
#324 = B_SPLINE_CURVE_WITH_KNOTS( '', 1, ( #409, #410 ), .UNSPECIFIED., .F., .F., ( 2, 2 ), ( -11.8372863096000, 12.1341615053000 ), .UNSPECIFIED. );
#325 = VERTEX_POINT( '', #411 );
#326 = B_SPLINE_CURVE_WITH_KNOTS( '', 1, ( #412, #413 ), .UNSPECIFIED., .F., .F., ( 2, 2 ), ( -11.9837219117000, 11.9877479820000 ), .UNSPECIFIED. );
#327 = B_SPLINE_CURVE_WITH_KNOTS( '', 1, ( #414, #415 ), .UNSPECIFIED., .F., .F., ( 2, 2 ), ( -4.35482298863000, -4.18894764238000 ), .UNSPECIFIED. );
#328 = LINE( '', #416, #417 );
#329 = VERTEX_POINT( '', #418 );
#330 = LINE( '', #419, #420 );
#331 = VERTEX_POINT( '', #421 );
#332 = B_SPLINE_CURVE_WITH_KNOTS( '', 4, ( #422, #423, #424, #425, #426 ), .UNSPECIFIED., .F., .F., ( 5, 5 ), ( 0.000000000000000, 4.21932136237000 ), .UNSPECIFIED. );
#333 = B_SPLINE_CURVE_WITH_KNOTS( '', 1, ( #427, #428 ), .UNSPECIFIED., .F., .F., ( 2, 2 ), ( -8.52989348139000, 9.02033851035000 ), .UNSPECIFIED. );
#334 = B_SPLINE_CURVE_WITH_KNOTS( '', 1, ( #429, #430 ), .UNSPECIFIED., .F., .F., ( 2, 2 ), ( -12.1800868526000, 11.7911760030000 ), .UNSPECIFIED. );
#335 = B_SPLINE_CURVE_WITH_KNOTS( '', 2, ( #431, #432, #433 ), .UNSPECIFIED., .F., .F., ( 3, 3 ), ( 0.000000000000000, 20.0807372528000 ), .UNSPECIFIED. );
#336 = VERTEX_POINT( '', #434 );
#337 = CIRCLE( '', #435, 0.849999570584000 );
#338 = CARTESIAN_POINT( '', ( 4313.81252958048, 478.596366300923, -204.031303683321 ) );
#339 = AXIS2_PLACEMENT_3D( '', #436, #437, #438 );
#340 = CARTESIAN_POINT( '', ( 4313.76511739048, 472.375129465923, -214.806802408321 ) );
#341 = AXIS2_PLACEMENT_3D( '', #439, #440, #441 );
#342 = CARTESIAN_POINT( '', ( 4308.08931478000, 464.027152563000, -208.846806782000 ) );
#343 = CARTESIAN_POINT( '', ( 4308.08935419000, 464.026084124000, -208.844098622000 ) );
#344 = CARTESIAN_POINT( '', ( 4308.08933449000, 464.026618345000, -208.845452706000 ) );
#345 = VECTOR( '', #442, 1000.00000000000 );
#346 = CARTESIAN_POINT( '', ( 4317.86031644000, 464.125594410000, -208.946634612000 ) );
#347 = CARTESIAN_POINT( '', ( 4319.87874259000, 464.145929849000, -208.967256357000 ) );
#348 = VECTOR( '', #443, 1000.00000000000 );
#349 = CARTESIAN_POINT( '', ( 4317.86031644000, 464.125594410000, -208.946634612000 ) );
#350 = CARTESIAN_POINT( '', ( 4308.08935419000, 464.026084124000, -208.844098622000 ) );
#351 = CARTESIAN_POINT( '', ( 4307.72324708000, 486.099080527000, -222.829494346000 ) );
#352 = CARTESIAN_POINT( '', ( 4307.76427932000, 482.358303341000, -222.427731782000 ) );
#353 = CARTESIAN_POINT( '', ( 4307.74376320000, 484.228691934000, -222.628613064000 ) );
#354 = VECTOR( '', #444, 1000.00000000000 );
#355 = CARTESIAN_POINT( '', ( 4307.76577283000, 482.374985013000, -222.272478817000 ) );
#356 = CARTESIAN_POINT( '', ( 4307.76577283000, 482.374985015000, -222.272478806000 ) );
#357 = CARTESIAN_POINT( '', ( 4307.76427932000, 482.358303341000, -222.427731782000 ) );
#358 = CARTESIAN_POINT( '', ( 4307.80386962000, 481.139416621000, -219.840636261000 ) );
#359 = CARTESIAN_POINT( '', ( 4307.80386962001, 481.139416620690, -219.840636260656 ) );
#360 = CARTESIAN_POINT( '', ( 4307.79708374968, 481.555876246625, -220.081049470155 ) );
#361 = CARTESIAN_POINT( '', ( 4307.78976701091, 481.900331460699, -220.444428026021 ) );
#362 = CARTESIAN_POINT( '', ( 4307.77635025816, 482.335969624561, -221.301849799958 ) );
#363 = CARTESIAN_POINT( '', ( 4307.77027416985, 482.426359898049, -221.794332879506 ) );
#364 = CARTESIAN_POINT( '', ( 4307.76577283000, 482.374985013227, -222.272478818024 ) );
#365 = CARTESIAN_POINT( '', ( 4308.04680881000, 465.941463120000, -211.067163006000 ) );
#366 = CARTESIAN_POINT( '', ( 4308.04680881000, 465.941463120000, -211.067163006000 ) );
#367 = CARTESIAN_POINT( '', ( 4307.80386962000, 481.139416621000, -219.840636261000 ) );
#368 = CARTESIAN_POINT( '', ( 4308.04680881000, 465.941463120000, -211.067163006000 ) );
#369 = CARTESIAN_POINT( '', ( 4308.05714826000, 465.294640402000, -210.693765245000 ) );
#370 = CARTESIAN_POINT( '', ( 4308.06821861000, 464.731092542000, -210.175280726000 ) );
#371 = CARTESIAN_POINT( '', ( 4308.07920583000, 464.301250092000, -209.541559094000 ) );
#372 = CARTESIAN_POINT( '', ( 4308.08931478000, 464.027152563000, -208.846806782000 ) );
#373 = CARTESIAN_POINT( '', ( 4308.01284569000, 477.660785266000, -203.465627135000 ) );
#374 = CARTESIAN_POINT( '', ( 4308.05109994000, 470.843434695000, -206.154862878000 ) );
#375 = VECTOR( '', #445, 1000.00000000000 );
#376 = CARTESIAN_POINT( '', ( 4307.77764172000, 492.374833771000, -211.959751756000 ) );
#377 = CARTESIAN_POINT( '', ( 4307.89524371000, 485.017809526000, -207.712689450000 ) );
#378 = VECTOR( '', #446, 1000.00000000000 );
#379 = CARTESIAN_POINT( '', ( 4307.75044440000, 489.236957149000, -217.394623051000 ) );
#380 = VECTOR( '', #447, 1000.00000000000 );
#381 = CARTESIAN_POINT( '', ( 4331.98158197000, 477.910169472000, -203.715071603000 ) );
#382 = CARTESIAN_POINT( '', ( 4319.99721383000, 477.785477369000, -203.590349369000 ) );
#383 = VECTOR( '', #448, 1000.00000000000 );
#384 = CARTESIAN_POINT( '', ( 4331.74669274000, 492.615725039000, -212.204294209000 ) );
#385 = CARTESIAN_POINT( '', ( 4331.86413736000, 485.262947263000, -207.959682911000 ) );
#386 = VECTOR( '', #449, 1000.00000000000 );
#387 = CARTESIAN_POINT( '', ( 4319.76216723000, 492.495279405000, -212.082022982000 ) );
#388 = VECTOR( '', #450, 1000.00000000000 );
#389 = CARTESIAN_POINT( '', ( 4327.81365127966, 478.761034832163, -204.187980033174 ) );
#390 = AXIS2_PLACEMENT_3D( '', #451, #452, #453 );
#391 = CARTESIAN_POINT( '', ( 4331.69225071000, 486.334504669000, -223.083505983000 ) );
#392 = CARTESIAN_POINT( '', ( 4319.70774889000, 486.216792598000, -222.956500165000 ) );
#393 = VECTOR( '', #454, 1000.00000000000 );
#394 = CARTESIAN_POINT( '', ( 4331.71947173000, 489.475114854000, -217.643900096000 ) );
#395 = VECTOR( '', #455, 1000.00000000000 );
#396 = CARTESIAN_POINT( '', ( 4331.73477743000, 482.616470297000, -222.517364022000 ) );
#397 = CARTESIAN_POINT( '', ( 4319.73711855000, 482.495595104000, -222.394787002000 ) );
#398 = VECTOR( '', #456, 1000.00000000000 );
#399 = CARTESIAN_POINT( '', ( 4331.77285013000, 481.380901662000, -220.085521219000 ) );
#400 = CARTESIAN_POINT( '', ( 4331.77285012746, 481.380901661975, -220.085521218973 ) );
#401 = CARTESIAN_POINT( '', ( 4331.76782542020, 481.695364993978, -220.267227067969 ) );
#402 = CARTESIAN_POINT( '', ( 4331.76255682151, 481.945458181911, -220.530992099111 ) );
#403 = CARTESIAN_POINT( '', ( 4331.75729984684, 482.194999593381, -220.794175189829 ) );
#404 = CARTESIAN_POINT( '', ( 4331.75222872869, 482.359628764513, -221.118033834758 ) );
#405 = CARTESIAN_POINT( '', ( 4331.74717187083, 482.523794988193, -221.440981769068 ) );
#406 = CARTESIAN_POINT( '', ( 4331.74270975293, 482.589552625951, -221.798697056899 ) );
#407 = CARTESIAN_POINT( '', ( 4331.73825648951, 482.655179776554, -222.155702507033 ) );
#408 = CARTESIAN_POINT( '', ( 4331.73477742684, 482.616470296969, -222.517364021966 ) );
#409 = CARTESIAN_POINT( '', ( 4331.77285013000, 481.380901662000, -220.085521219000 ) );
#410 = CARTESIAN_POINT( '', ( 4307.80386962000, 481.139416621000, -219.840636261000 ) );
#411 = CARTESIAN_POINT( '', ( 4331.73319164000, 482.598750089000, -222.682282505000 ) );
#412 = CARTESIAN_POINT( '', ( 4307.76427932000, 482.358303341000, -222.427731782000 ) );
#413 = CARTESIAN_POINT( '', ( 4331.73319164000, 482.598750089000, -222.682282505000 ) );
#414 = CARTESIAN_POINT( '', ( 4331.73477743000, 482.616470298000, -222.517364010000 ) );
#415 = CARTESIAN_POINT( '', ( 4331.73319164000, 482.598750089000, -222.682282505000 ) );
#416 = CARTESIAN_POINT( '', ( 4331.71272118000, 484.466627379000, -222.882894244000 ) );
#417 = VECTOR( '', #457, 1000.00000000000 );
#418 = CARTESIAN_POINT( '', ( 4332.05802395000, 464.270189812000, -209.095623909000 ) );
#419 = CARTESIAN_POINT( '', ( 4332.01980296000, 471.090179642000, -206.405347756000 ) );
#420 = VECTOR( '', #458, 1000.00000000000 );
#421 = CARTESIAN_POINT( '', ( 4332.01560438000, 466.182946298000, -211.312046075000 ) );
#422 = CARTESIAN_POINT( '', ( 4332.01560438000, 466.182946298000, -211.312046075000 ) );
#423 = CARTESIAN_POINT( '', ( 4332.02592133000, 465.537039406000, -210.939176967000 ) );
#424 = CARTESIAN_POINT( '', ( 4332.03696708000, 464.974172779000, -210.421633086000 ) );
#425 = CARTESIAN_POINT( '', ( 4332.04793177000, 464.544558762000, -209.789131913000 ) );
#426 = CARTESIAN_POINT( '', ( 4332.05802395000, 464.270189813000, -209.095623909000 ) );
#427 = CARTESIAN_POINT( '', ( 4332.01560438000, 466.182946298000, -211.312046075000 ) );
#428 = CARTESIAN_POINT( '', ( 4331.77285013000, 481.380901662000, -220.085521219000 ) );
#429 = CARTESIAN_POINT( '', ( 4332.01560438000, 466.182946298000, -211.312046075000 ) );
#430 = CARTESIAN_POINT( '', ( 4308.04680881000, 465.941463120000, -211.067163006000 ) );
#431 = CARTESIAN_POINT( '', ( 4317.86031644000, 464.125594410000, -208.946634612000 ) );
#432 = CARTESIAN_POINT( '', ( 4324.95917020000, 464.197891176000, -209.021129630000 ) );
#433 = CARTESIAN_POINT( '', ( 4332.05802395000, 464.270189812000, -209.095623909000 ) );
#434 = CARTESIAN_POINT( '', ( 4327.76623908965, 472.539797996163, -214.963478758174 ) );
#435 = AXIS2_PLACEMENT_3D( '', #459, #460, #461 );
#436 = CARTESIAN_POINT( '', ( 4312.96253553000, 478.597985757000, -204.028498703000 ) );
#437 = DIRECTION( '', ( -0.00381048401219997, -0.499996354734996, -0.866019125344994 ) );
#438 = DIRECTION( '', ( 0.999992740079443, -0.00190524194778115, -0.00329997598895003 ) );
#439 = CARTESIAN_POINT( '', ( 4312.91512334000, 472.376748922000, -214.803997428000 ) );
#440 = DIRECTION( '', ( -0.00381048401219997, -0.499996354734996, -0.866019125344994 ) );
#441 = DIRECTION( '', ( 0.999992740079443, -0.00190524194778115, -0.00329997598895003 ) );
#442 = DIRECTION( '', ( 0.0135339119993003, -0.366962854172007, 0.930137138751017 ) );
#443 = DIRECTION( '', ( -0.999897073167802, -0.0100738613078980, 0.0102156932614980 ) );
#444 = DIRECTION( '', ( 0.0109055378118968, -0.994222824764708, 0.106780353819969 ) );
#445 = DIRECTION( '', ( 0.00521979255592235, -0.930227509976419, -0.366946226917165 ) );
#446 = DIRECTION( '', ( -0.0138425056755997, 0.865968809240980, -0.499906397696989 ) );
#447 = DIRECTION( '', ( -0.00433372774587832, -0.500001544930806, -0.866013668408664 ) );
#448 = DIRECTION( '', ( -0.999891736508100, -0.0104034357187010, 0.0104059496473010 ) );
#449 = DIRECTION( '', ( -0.0138319679055971, 0.865968915455816, -0.499906505386894 ) );
#450 = DIRECTION( '', ( 0.999897468813236, 0.0100490657250024, -0.0102013792665024 ) );
#451 = CARTESIAN_POINT( '', ( 4326.96365788000, 478.762654287000, -204.185175055000 ) );
#452 = DIRECTION( '', ( -0.00381048401219997, -0.499996354734996, -0.866019125344994 ) );
#453 = DIRECTION( '', ( 0.999992740079443, -0.00190524194778115, -0.00329997598895002 ) );
#454 = DIRECTION( '', ( -0.999895626703655, -0.00982099936407661, 0.0105963989352963 ) );
#455 = DIRECTION( '', ( -0.00433372774558832, -0.500001544930807, -0.866013668408665 ) );
#456 = DIRECTION( '', ( -0.999897073167802, -0.0100738613077980, 0.0102156932615980 ) );
#457 = DIRECTION( '', ( 0.0108959010667980, -0.994222919453817, 0.106780455948980 ) );
#458 = DIRECTION( '', ( 0.00521323616246186, -0.930227574269332, -0.366946157137131 ) );
#459 = CARTESIAN_POINT( '', ( 4326.91624569000, 472.541417451000, -214.960673780000 ) );
#460 = DIRECTION( '', ( -0.00381048401219997, -0.499996354734996, -0.866019125344994 ) );
#461 = DIRECTION( '', ( 0.999992740079443, -0.00190524194778115, -0.00329997598895002 ) );
ENDSEC;
END-ISO-10303-21;
