ISO-10303-21;
HEADER;
FILE_DESCRIPTION (( 'STEP AP214' ),
    '1' );
FILE_NAME ('Entretoise roulette guidage haut plastique Quantité 10x.STEP',
    '2023-10-15T18:09:07',
    ( '' ),
    ( '' ),
    'SwSTEP 2.0',
    'SolidWorks 2021',
    '' );
FILE_SCHEMA (( 'AUTOMOTIVE_DESIGN' ));
ENDSEC;

DATA;
#1 = CARTESIAN_POINT ( 'NONE',  ( 0.000000000000000000, 0.000000000000000000, 10.00000000000000000 ) ) ;
#2 = CLOSED_SHELL ( 'NONE', ( #111, #129, #113, #43 ) ) ;
#3 = ORIENTED_EDGE ( 'NONE', *, *, #51, .T. ) ;
#4 = AXIS2_PLACEMENT_3D ( 'NONE', #46, #61, #62 ) ;
#5 = UNCERTAINTY_MEASURE_WITH_UNIT (LENGTH_MEASURE( 1.000000000000000082E-05 ), #117, 'distance_accuracy_value', 'NONE');
#6 = UNCERTAINTY_MEASURE_WITH_UNIT (LENGTH_MEASURE( 1.000000000000000082E-05 ), #29, 'distance_accuracy_value', 'NONE');
#7 = PRESENTATION_STYLE_ASSIGNMENT (( #123 ) ) ;
#8 = EDGE_CURVE ( 'NONE', #93, #93, #82, .T. ) ;
#9 = DIRECTION ( 'NONE',  ( -1.000000000000000000, 0.000000000000000000, -0.000000000000000000 ) ) ;
#10 = VERTEX_POINT ( 'NONE', #1 ) ;
#11 = SURFACE_STYLE_FILL_AREA ( #83 ) ;
#12 = VERTEX_POINT ( 'NONE', #75 ) ;
#13 = PRODUCT_DEFINITION_FORMATION_WITH_SPECIFIED_SOURCE ( 'ANY', '', #69, .NOT_KNOWN. ) ;
#14 = CARTESIAN_POINT ( 'NONE',  ( -88.98999999999999488, 0.000000000000000000, 0.000000000000000000 ) ) ;
#15 = PRODUCT_DEFINITION_SHAPE ( 'NONE', 'NONE',  #128 ) ;
#16 = EDGE_CURVE ( 'NONE', #10, #10, #44, .T. ) ;
#17 = AXIS2_PLACEMENT_3D ( 'NONE', #103, #91, #24 ) ;
#18 = AXIS2_PLACEMENT_3D ( 'NONE', #14, #100, #54 ) ;
#19 = DIRECTION ( 'NONE',  ( 0.000000000000000000, 0.000000000000000000, 1.000000000000000000 ) ) ;
#20 = CARTESIAN_POINT ( 'NONE',  ( 1.600000000005818990, 0.000000000000000000, 11.70000000000072760 ) ) ;
#21 =( NAMED_UNIT ( * ) SI_UNIT ( $, .STERADIAN. ) SOLID_ANGLE_UNIT ( ) );
#22 = PLANE ( 'NONE',  #52 ) ;
#23 = FACE_OUTER_BOUND ( 'NONE', #119, .T. ) ;
#24 = DIRECTION ( 'NONE',  ( 0.000000000000000000, 0.000000000000000000, 1.000000000000000000 ) ) ;
#25 = PRESENTATION_LAYER_ASSIGNMENT (  '', '', ( #134 ) ) ;
#26 = SURFACE_SIDE_STYLE ('',( #124 ) ) ;
#27 = FACE_OUTER_BOUND ( 'NONE', #98, .T. ) ;
#28 = FACE_OUTER_BOUND ( 'NONE', #78, .T. ) ;
#29 =( LENGTH_UNIT ( ) NAMED_UNIT ( * ) SI_UNIT ( .MILLI., .METRE. ) );
#30 = EDGE_LOOP ( 'NONE', ( #3 ) ) ;
#31 = FACE_BOUND ( 'NONE', #63, .T. ) ;
#32 = EDGE_LOOP ( 'NONE', ( #131 ) ) ;
#33 = COLOUR_RGB ( '',0.7921568627450980005, 0.8196078431372548767, 0.9333333333333333481 ) ;
#34 = DIRECTION ( 'NONE',  ( 0.000000000000000000, 0.000000000000000000, 1.000000000000000000 ) ) ;
#35 =( GEOMETRIC_REPRESENTATION_CONTEXT ( 3 ) GLOBAL_UNCERTAINTY_ASSIGNED_CONTEXT ( ( #6 ) ) GLOBAL_UNIT_ASSIGNED_CONTEXT ( ( #29, #104, #58 ) ) REPRESENTATION_CONTEXT ( 'NONE', 'WORKASPACE' ) );
#36 = FILL_AREA_STYLE ('',( #133 ) ) ;
#37 = CIRCLE ( 'NONE', #55, 11.70000000000072760 ) ;
#38 = DIRECTION ( 'NONE',  ( -0.000000000000000000, 0.000000000000000000, 1.000000000000000000 ) ) ;
#39 = SURFACE_STYLE_USAGE ( .BOTH. , #115 ) ;
#40 = APPLICATION_CONTEXT ( 'automotive_design' ) ;
#41 = FILL_AREA_STYLE_COLOUR ( '', #33 ) ;
#42 = DIRECTION ( 'NONE',  ( 0.000000000000000000, 0.000000000000000000, 1.000000000000000000 ) ) ;
#43 = ADVANCED_FACE ( 'NONE', ( #23, #67 ), #110, .F. ) ;
#44 = CIRCLE ( 'NONE', #99, 10.00000000000000000 ) ;
#45 = CARTESIAN_POINT ( 'NONE',  ( 0.000000000000000000, 0.000000000000000000, 0.000000000000000000 ) ) ;
#46 = CARTESIAN_POINT ( 'NONE',  ( 0.000000000000000000, 10.00000000000000000, 0.000000000000000000 ) ) ;
#47 = ADVANCED_BREP_SHAPE_REPRESENTATION ( 'Entretoise roulette guidage haut plastique QuantitÚ 10x', ( #85, #72 ), #35 ) ;
#48 = CYLINDRICAL_SURFACE ( 'NONE', #125, 11.70000000000072760 ) ;
#49 =( NAMED_UNIT ( * ) PLANE_ANGLE_UNIT ( ) SI_UNIT ( $, .RADIAN. ) );
#50 = MECHANICAL_DESIGN_GEOMETRIC_PRESENTATION_REPRESENTATION (  '', ( #112 ), #130 ) ;
#51 = EDGE_CURVE ( 'NONE', #12, #12, #37, .T. ) ;
#52 = AXIS2_PLACEMENT_3D ( 'NONE', #116, #9, #38 ) ;
#53 = ORIENTED_EDGE ( 'NONE', *, *, #71, .T. ) ;
#54 = DIRECTION ( 'NONE',  ( 0.000000000000000000, 0.000000000000000000, 1.000000000000000000 ) ) ;
#55 = AXIS2_PLACEMENT_3D ( 'NONE', #45, #114, #19 ) ;
#56 = PRODUCT_RELATED_PRODUCT_CATEGORY ( 'part', '', ( #69 ) ) ;
#57 =( NAMED_UNIT ( * ) SI_UNIT ( $, .STERADIAN. ) SOLID_ANGLE_UNIT ( ) );
#58 =( NAMED_UNIT ( * ) SI_UNIT ( $, .STERADIAN. ) SOLID_ANGLE_UNIT ( ) );
#59 = CARTESIAN_POINT ( 'NONE',  ( -88.98999999999999488, 0.000000000000000000, 0.000000000000000000 ) ) ;
#60 = APPLICATION_CONTEXT ( 'automotive_design' ) ;
#61 = DIRECTION ( 'NONE',  ( 1.000000000000000000, 0.000000000000000000, 0.000000000000000000 ) ) ;
#62 = DIRECTION ( 'NONE',  ( 0.000000000000000000, 0.000000000000000000, -1.000000000000000000 ) ) ;
#63 = EDGE_LOOP ( 'NONE', ( #77 ) ) ;
#64 = DIRECTION ( 'NONE',  ( -1.000000000000000000, -0.000000000000000000, -0.000000000000000000 ) ) ;
#65 = ORIENTED_EDGE ( 'NONE', *, *, #51, .F. ) ;
#66 = APPLICATION_PROTOCOL_DEFINITION ( 'draft international standard', 'automotive_design', 1998, #60 ) ;
#67 = FACE_OUTER_BOUND ( 'NONE', #120, .T. ) ;
#68 = COLOUR_RGB ( '',0.7921568627450980005, 0.8196078431372548767, 0.9333333333333333481 ) ;
#69 = PRODUCT ( 'Entretoise roulette guidage haut plastique Quantité 10x', 'Entretoise roulette guidage haut plastique Quantité 10x', '', ( #121 ) ) ;
#70 =( LENGTH_UNIT ( ) NAMED_UNIT ( * ) SI_UNIT ( .MILLI., .METRE. ) );
#71 = EDGE_CURVE ( 'NONE', #107, #107, #79, .T. ) ;
#72 = AXIS2_PLACEMENT_3D ( 'NONE', #95, #42, #89 ) ;
#73 =( NAMED_UNIT ( * ) PLANE_ANGLE_UNIT ( ) SI_UNIT ( $, .RADIAN. ) );
#74 = PLANE ( 'NONE',  #4 ) ;
#75 = CARTESIAN_POINT ( 'NONE',  ( 0.000000000000000000, 0.000000000000000000, 11.70000000000072760 ) ) ;
#76 = AXIS2_PLACEMENT_3D ( 'NONE', #127, #80, #122 ) ;
#77 = ORIENTED_EDGE ( 'NONE', *, *, #8, .T. ) ;
#78 = EDGE_LOOP ( 'NONE', ( #65 ) ) ;
#79 = CIRCLE ( 'NONE', #17, 11.70000000000072760 ) ;
#80 = DIRECTION ( 'NONE',  ( -1.000000000000000000, -0.000000000000000000, -0.000000000000000000 ) ) ;
#81 = APPLICATION_PROTOCOL_DEFINITION ( 'draft international standard', 'automotive_design', 1998, #40 ) ;
#82 = CIRCLE ( 'NONE', #76, 10.00000000000000000 ) ;
#83 = FILL_AREA_STYLE ('',( #41 ) ) ;
#84 = PRESENTATION_STYLE_ASSIGNMENT (( #39 ) ) ;
#85 = MANIFOLD_SOLID_BREP ( 'Révolution1', #2 ) ;
#86 = ORIENTED_EDGE ( 'NONE', *, *, #16, .T. ) ;
#87 = FACE_OUTER_BOUND ( 'NONE', #96, .T. ) ;
#88 = ORIENTED_EDGE ( 'NONE', *, *, #71, .F. ) ;
#89 = DIRECTION ( 'NONE',  ( 1.000000000000000000, 0.000000000000000000, 0.000000000000000000 ) ) ;
#90 = CARTESIAN_POINT ( 'NONE',  ( 0.000000000000000000, 0.000000000000000000, 0.000000000000000000 ) ) ;
#91 = DIRECTION ( 'NONE',  ( -1.000000000000000000, -0.000000000000000000, -0.000000000000000000 ) ) ;
#92 = FACE_BOUND ( 'NONE', #32, .T. ) ;
#93 = VERTEX_POINT ( 'NONE', #94 ) ;
#94 = CARTESIAN_POINT ( 'NONE',  ( 1.600000000005818990, 0.000000000000000000, 10.00000000000000000 ) ) ;
#95 = CARTESIAN_POINT ( 'NONE',  ( 0.000000000000000000, 0.000000000000000000, 0.000000000000000000 ) ) ;
#96 = EDGE_LOOP ( 'NONE', ( #88 ) ) ;
#97 = ORIENTED_EDGE ( 'NONE', *, *, #8, .F. ) ;
#98 = EDGE_LOOP ( 'NONE', ( #53 ) ) ;
#99 = AXIS2_PLACEMENT_3D ( 'NONE', #90, #132, #34 ) ;
#100 = DIRECTION ( 'NONE',  ( -1.000000000000000000, -0.000000000000000000, -0.000000000000000000 ) ) ;
#101 = FACE_OUTER_BOUND ( 'NONE', #30, .T. ) ;
#102 = MECHANICAL_DESIGN_GEOMETRIC_PRESENTATION_REPRESENTATION (  '', ( #134 ), #118 ) ;
#103 = CARTESIAN_POINT ( 'NONE',  ( 1.600000000005818990, 0.000000000000000000, 0.000000000000000000 ) ) ;
#104 =( NAMED_UNIT ( * ) PLANE_ANGLE_UNIT ( ) SI_UNIT ( $, .RADIAN. ) );
#105 = PRESENTATION_LAYER_ASSIGNMENT (  '', '', ( #112 ) ) ;
#106 = PRODUCT_DEFINITION_CONTEXT ( 'detailed design', #40, 'design' ) ;
#107 = VERTEX_POINT ( 'NONE', #20 ) ;
#108 = UNCERTAINTY_MEASURE_WITH_UNIT (LENGTH_MEASURE( 1.000000000000000082E-05 ), #70, 'distance_accuracy_value', 'NONE');
#109 = SHAPE_DEFINITION_REPRESENTATION ( #15, #47 ) ;
#110 = CYLINDRICAL_SURFACE ( 'NONE', #18, 10.00000000000000000 ) ;
#111 = ADVANCED_FACE ( 'NONE', ( #92, #101 ), #74, .F. ) ;
#112 = STYLED_ITEM ( 'NONE', ( #84 ), #47 ) ;
#113 = ADVANCED_FACE ( 'NONE', ( #87, #31 ), #22, .F. ) ;
#114 = DIRECTION ( 'NONE',  ( -1.000000000000000000, -0.000000000000000000, -0.000000000000000000 ) ) ;
#115 = SURFACE_SIDE_STYLE ('',( #11 ) ) ;
#116 = CARTESIAN_POINT ( 'NONE',  ( 1.600000000005820766, 11.70000000000072760, 0.000000000000000000 ) ) ;
#117 =( LENGTH_UNIT ( ) NAMED_UNIT ( * ) SI_UNIT ( .MILLI., .METRE. ) );
#118 =( GEOMETRIC_REPRESENTATION_CONTEXT ( 3 ) GLOBAL_UNCERTAINTY_ASSIGNED_CONTEXT ( ( #108 ) ) GLOBAL_UNIT_ASSIGNED_CONTEXT ( ( #70, #73, #57 ) ) REPRESENTATION_CONTEXT ( 'NONE', 'WORKASPACE' ) );
#119 = EDGE_LOOP ( 'NONE', ( #97 ) ) ;
#120 = EDGE_LOOP ( 'NONE', ( #86 ) ) ;
#121 = PRODUCT_CONTEXT ( 'NONE', #60, 'mechanical' ) ;
#122 = DIRECTION ( 'NONE',  ( 0.000000000000000000, 0.000000000000000000, 1.000000000000000000 ) ) ;
#123 = SURFACE_STYLE_USAGE ( .BOTH. , #26 ) ;
#124 = SURFACE_STYLE_FILL_AREA ( #36 ) ;
#125 = AXIS2_PLACEMENT_3D ( 'NONE', #59, #64, #126 ) ;
#126 = DIRECTION ( 'NONE',  ( 0.000000000000000000, 0.000000000000000000, 1.000000000000000000 ) ) ;
#127 = CARTESIAN_POINT ( 'NONE',  ( 1.600000000005818990, 0.000000000000000000, 0.000000000000000000 ) ) ;
#128 = PRODUCT_DEFINITION ( 'UNKNOWN', '', #13, #106 ) ;
#129 = ADVANCED_FACE ( 'NONE', ( #28, #27 ), #48, .T. ) ;
#130 =( GEOMETRIC_REPRESENTATION_CONTEXT ( 3 ) GLOBAL_UNCERTAINTY_ASSIGNED_CONTEXT ( ( #5 ) ) GLOBAL_UNIT_ASSIGNED_CONTEXT ( ( #117, #49, #21 ) ) REPRESENTATION_CONTEXT ( 'NONE', 'WORKASPACE' ) );
#131 = ORIENTED_EDGE ( 'NONE', *, *, #16, .F. ) ;
#132 = DIRECTION ( 'NONE',  ( -1.000000000000000000, -0.000000000000000000, -0.000000000000000000 ) ) ;
#133 = FILL_AREA_STYLE_COLOUR ( '', #68 ) ;
#134 = STYLED_ITEM ( 'NONE', ( #7 ), #85 ) ;
ENDSEC;
END-ISO-10303-21;
