ISO-10303-21;
HEADER;
FILE_DESCRIPTION((''),'2;1');
FILE_NAME('PLAQUE','2023-09-16T',('franck'),(''),
'CREO PARAMETRIC BY PTC INC, 2016130','CREO PARAMETRIC BY PTC INC, 2016130','');
FILE_SCHEMA(('CONFIG_CONTROL_DESIGN'));
ENDSEC;
DATA;
#1=DIRECTION('',(0.E0,0.E0,1.E0));
#2=VECTOR('',#1,4.955E1);
#3=CARTESIAN_POINT('',(-6.25E1,0.E0,-1.3E1));
#4=LINE('',#3,#2);
#5=CARTESIAN_POINT('',(-4.75E1,0.E0,3.655E1));
#6=DIRECTION('',(0.E0,1.E0,0.E0));
#7=DIRECTION('',(-1.E0,0.E0,0.E0));
#8=AXIS2_PLACEMENT_3D('',#5,#6,#7);
#10=CARTESIAN_POINT('',(0.E0,0.E0,-1.351281007752E2));
#11=DIRECTION('',(0.E0,1.E0,0.E0));
#12=DIRECTION('',(-2.666620246513E-1,0.E0,9.637901040210E-1));
#13=AXIS2_PLACEMENT_3D('',#10,#11,#12);
#15=CARTESIAN_POINT('',(4.75E1,0.E0,3.655E1));
#16=DIRECTION('',(0.E0,1.E0,0.E0));
#17=DIRECTION('',(2.666620246513E-1,0.E0,9.637901040210E-1));
#18=AXIS2_PLACEMENT_3D('',#15,#16,#17);
#20=DIRECTION('',(0.E0,0.E0,-1.E0));
#21=VECTOR('',#20,4.955E1);
#22=CARTESIAN_POINT('',(6.25E1,0.E0,3.655E1));
#23=LINE('',#22,#21);
#24=CARTESIAN_POINT('',(5.15E1,0.E0,-1.3E1));
#25=DIRECTION('',(0.E0,1.E0,0.E0));
#26=DIRECTION('',(1.E0,0.E0,0.E0));
#27=AXIS2_PLACEMENT_3D('',#24,#25,#26);
#29=DIRECTION('',(-1.E0,0.E0,0.E0));
#30=VECTOR('',#29,1.03E2);
#31=CARTESIAN_POINT('',(5.15E1,0.E0,-2.4E1));
#32=LINE('',#31,#30);
#33=CARTESIAN_POINT('',(-5.15E1,0.E0,-1.3E1));
#34=DIRECTION('',(0.E0,1.E0,0.E0));
#35=DIRECTION('',(0.E0,0.E0,-1.E0));
#36=AXIS2_PLACEMENT_3D('',#33,#34,#35);
#38=DIRECTION('',(0.E0,0.E0,1.E0));
#39=VECTOR('',#38,3.95E1);
#40=CARTESIAN_POINT('',(-3.8E1,0.E0,-4.E0));
#41=LINE('',#40,#39);
#42=DIRECTION('',(-1.E0,0.E0,0.E0));
#43=VECTOR('',#42,7.6E1);
#44=CARTESIAN_POINT('',(3.8E1,0.E0,-4.E0));
#45=LINE('',#44,#43);
#46=DIRECTION('',(0.E0,0.E0,-1.E0));
#47=VECTOR('',#46,3.95E1);
#48=CARTESIAN_POINT('',(3.8E1,0.E0,3.55E1));
#49=LINE('',#48,#47);
#50=DIRECTION('',(1.E0,0.E0,0.E0));
#51=VECTOR('',#50,7.6E1);
#52=CARTESIAN_POINT('',(-3.8E1,0.E0,3.55E1));
#53=LINE('',#52,#51);
#54=DIRECTION('',(0.E0,1.E0,0.E0));
#55=VECTOR('',#54,1.7E0);
#56=CARTESIAN_POINT('',(-6.25E1,0.E0,-1.3E1));
#57=LINE('',#56,#55);
#58=DIRECTION('',(0.E0,1.E0,0.E0));
#59=VECTOR('',#58,1.7E0);
#60=CARTESIAN_POINT('',(-5.15E1,0.E0,-2.4E1));
#61=LINE('',#60,#59);
#62=DIRECTION('',(0.E0,1.E0,0.E0));
#63=VECTOR('',#62,1.7E0);
#64=CARTESIAN_POINT('',(5.15E1,0.E0,-2.4E1));
#65=LINE('',#64,#63);
#66=DIRECTION('',(0.E0,1.E0,0.E0));
#67=VECTOR('',#66,1.7E0);
#68=CARTESIAN_POINT('',(6.25E1,0.E0,-1.3E1));
#69=LINE('',#68,#67);
#70=DIRECTION('',(0.E0,1.E0,0.E0));
#71=VECTOR('',#70,1.7E0);
#72=CARTESIAN_POINT('',(6.25E1,0.E0,3.655E1));
#73=LINE('',#72,#71);
#74=DIRECTION('',(0.E0,1.E0,0.E0));
#75=VECTOR('',#74,1.7E0);
#76=CARTESIAN_POINT('',(5.149993036977E1,0.E0,5.100685156032E1));
#77=LINE('',#76,#75);
#78=DIRECTION('',(0.E0,1.E0,0.E0));
#79=VECTOR('',#78,1.7E0);
#80=CARTESIAN_POINT('',(-5.149993036977E1,0.E0,5.100685156032E1));
#81=LINE('',#80,#79);
#82=DIRECTION('',(0.E0,1.E0,0.E0));
#83=VECTOR('',#82,1.7E0);
#84=CARTESIAN_POINT('',(-6.25E1,0.E0,3.655E1));
#85=LINE('',#84,#83);
#86=DIRECTION('',(0.E0,0.E0,1.E0));
#87=VECTOR('',#86,4.955E1);
#88=CARTESIAN_POINT('',(-6.25E1,1.7E0,-1.3E1));
#89=LINE('',#88,#87);
#90=CARTESIAN_POINT('',(-5.15E1,1.7E0,-1.3E1));
#91=DIRECTION('',(0.E0,1.E0,0.E0));
#92=DIRECTION('',(0.E0,0.E0,-1.E0));
#93=AXIS2_PLACEMENT_3D('',#90,#91,#92);
#95=DIRECTION('',(-1.E0,0.E0,0.E0));
#96=VECTOR('',#95,1.03E2);
#97=CARTESIAN_POINT('',(5.15E1,1.7E0,-2.4E1));
#98=LINE('',#97,#96);
#99=CARTESIAN_POINT('',(5.15E1,1.7E0,-1.3E1));
#100=DIRECTION('',(0.E0,1.E0,0.E0));
#101=DIRECTION('',(1.E0,0.E0,0.E0));
#102=AXIS2_PLACEMENT_3D('',#99,#100,#101);
#104=DIRECTION('',(0.E0,0.E0,-1.E0));
#105=VECTOR('',#104,4.955E1);
#106=CARTESIAN_POINT('',(6.25E1,1.7E0,3.655E1));
#107=LINE('',#106,#105);
#108=CARTESIAN_POINT('',(4.75E1,1.7E0,3.655E1));
#109=DIRECTION('',(0.E0,1.E0,0.E0));
#110=DIRECTION('',(2.666620246513E-1,0.E0,9.637901040210E-1));
#111=AXIS2_PLACEMENT_3D('',#108,#109,#110);
#113=CARTESIAN_POINT('',(0.E0,1.7E0,-1.351281007752E2));
#114=DIRECTION('',(0.E0,1.E0,0.E0));
#115=DIRECTION('',(-2.666620246513E-1,0.E0,9.637901040210E-1));
#116=AXIS2_PLACEMENT_3D('',#113,#114,#115);
#118=CARTESIAN_POINT('',(-4.75E1,1.7E0,3.655E1));
#119=DIRECTION('',(0.E0,1.E0,0.E0));
#120=DIRECTION('',(-1.E0,0.E0,0.E0));
#121=AXIS2_PLACEMENT_3D('',#118,#119,#120);
#123=DIRECTION('',(0.E0,0.E0,1.E0));
#124=VECTOR('',#123,3.95E1);
#125=CARTESIAN_POINT('',(-3.8E1,1.7E0,-4.E0));
#126=LINE('',#125,#124);
#127=DIRECTION('',(1.E0,0.E0,0.E0));
#128=VECTOR('',#127,7.6E1);
#129=CARTESIAN_POINT('',(-3.8E1,1.7E0,3.55E1));
#130=LINE('',#129,#128);
#131=DIRECTION('',(0.E0,0.E0,-1.E0));
#132=VECTOR('',#131,3.95E1);
#133=CARTESIAN_POINT('',(3.8E1,1.7E0,3.55E1));
#134=LINE('',#133,#132);
#135=DIRECTION('',(-1.E0,0.E0,0.E0));
#136=VECTOR('',#135,7.6E1);
#137=CARTESIAN_POINT('',(3.8E1,1.7E0,-4.E0));
#138=LINE('',#137,#136);
#139=DIRECTION('',(0.E0,-1.E0,0.E0));
#140=VECTOR('',#139,1.7E0);
#141=CARTESIAN_POINT('',(-3.8E1,1.7E0,-4.E0));
#142=LINE('',#141,#140);
#143=DIRECTION('',(0.E0,-1.E0,0.E0));
#144=VECTOR('',#143,1.7E0);
#145=CARTESIAN_POINT('',(-3.8E1,1.7E0,3.55E1));
#146=LINE('',#145,#144);
#147=DIRECTION('',(0.E0,-1.E0,0.E0));
#148=VECTOR('',#147,1.7E0);
#149=CARTESIAN_POINT('',(3.8E1,1.7E0,3.55E1));
#150=LINE('',#149,#148);
#151=DIRECTION('',(0.E0,-1.E0,0.E0));
#152=VECTOR('',#151,1.7E0);
#153=CARTESIAN_POINT('',(3.8E1,1.7E0,-4.E0));
#154=LINE('',#153,#152);
#155=CARTESIAN_POINT('',(-6.25E1,0.E0,-1.3E1));
#156=CARTESIAN_POINT('',(-6.25E1,0.E0,3.655E1));
#157=VERTEX_POINT('',#155);
#158=VERTEX_POINT('',#156);
#159=CARTESIAN_POINT('',(-5.149993036977E1,0.E0,5.100685156032E1));
#160=VERTEX_POINT('',#159);
#161=CARTESIAN_POINT('',(5.149993036977E1,0.E0,5.100685156032E1));
#162=VERTEX_POINT('',#161);
#163=CARTESIAN_POINT('',(6.25E1,0.E0,3.655E1));
#164=VERTEX_POINT('',#163);
#165=CARTESIAN_POINT('',(6.25E1,0.E0,-1.3E1));
#166=VERTEX_POINT('',#165);
#167=CARTESIAN_POINT('',(5.15E1,0.E0,-2.4E1));
#168=VERTEX_POINT('',#167);
#169=CARTESIAN_POINT('',(-5.15E1,0.E0,-2.4E1));
#170=VERTEX_POINT('',#169);
#171=CARTESIAN_POINT('',(-6.25E1,1.7E0,-1.3E1));
#172=CARTESIAN_POINT('',(-6.25E1,1.7E0,3.655E1));
#173=VERTEX_POINT('',#171);
#174=VERTEX_POINT('',#172);
#175=CARTESIAN_POINT('',(-5.149993036977E1,1.7E0,5.100685156032E1));
#176=VERTEX_POINT('',#175);
#177=CARTESIAN_POINT('',(5.149993036977E1,1.7E0,5.100685156032E1));
#178=VERTEX_POINT('',#177);
#179=CARTESIAN_POINT('',(6.25E1,1.7E0,3.655E1));
#180=VERTEX_POINT('',#179);
#181=CARTESIAN_POINT('',(6.25E1,1.7E0,-1.3E1));
#182=VERTEX_POINT('',#181);
#183=CARTESIAN_POINT('',(5.15E1,1.7E0,-2.4E1));
#184=VERTEX_POINT('',#183);
#185=CARTESIAN_POINT('',(-5.15E1,1.7E0,-2.4E1));
#186=VERTEX_POINT('',#185);
#187=CARTESIAN_POINT('',(-3.8E1,0.E0,-4.E0));
#188=CARTESIAN_POINT('',(-3.8E1,0.E0,3.55E1));
#189=VERTEX_POINT('',#187);
#190=VERTEX_POINT('',#188);
#191=CARTESIAN_POINT('',(3.8E1,0.E0,3.55E1));
#192=VERTEX_POINT('',#191);
#193=CARTESIAN_POINT('',(3.8E1,0.E0,-4.E0));
#194=VERTEX_POINT('',#193);
#195=CARTESIAN_POINT('',(-3.8E1,1.7E0,-4.E0));
#196=CARTESIAN_POINT('',(-3.8E1,1.7E0,3.55E1));
#197=VERTEX_POINT('',#195);
#198=VERTEX_POINT('',#196);
#199=CARTESIAN_POINT('',(3.8E1,1.7E0,3.55E1));
#200=VERTEX_POINT('',#199);
#201=CARTESIAN_POINT('',(3.8E1,1.7E0,-4.E0));
#202=VERTEX_POINT('',#201);
#203=CARTESIAN_POINT('',(0.E0,0.E0,0.E0));
#204=DIRECTION('',(0.E0,1.E0,0.E0));
#205=DIRECTION('',(1.E0,0.E0,0.E0));
#206=AXIS2_PLACEMENT_3D('',#203,#204,#205);
#207=PLANE('',#206);
#209=ORIENTED_EDGE('',*,*,#208,.T.);
#211=ORIENTED_EDGE('',*,*,#210,.T.);
#213=ORIENTED_EDGE('',*,*,#212,.T.);
#215=ORIENTED_EDGE('',*,*,#214,.T.);
#217=ORIENTED_EDGE('',*,*,#216,.T.);
#219=ORIENTED_EDGE('',*,*,#218,.T.);
#221=ORIENTED_EDGE('',*,*,#220,.T.);
#223=ORIENTED_EDGE('',*,*,#222,.T.);
#224=EDGE_LOOP('',(#209,#211,#213,#215,#217,#219,#221,#223));
#225=FACE_OUTER_BOUND('',#224,.F.);
#227=ORIENTED_EDGE('',*,*,#226,.F.);
#229=ORIENTED_EDGE('',*,*,#228,.F.);
#231=ORIENTED_EDGE('',*,*,#230,.F.);
#233=ORIENTED_EDGE('',*,*,#232,.F.);
#234=EDGE_LOOP('',(#227,#229,#231,#233));
#235=FACE_BOUND('',#234,.F.);
#236=ADVANCED_FACE('',(#225,#235),#207,.F.);
#237=CARTESIAN_POINT('',(-6.25E1,0.E0,-1.3E1));
#238=DIRECTION('',(-1.E0,0.E0,0.E0));
#239=DIRECTION('',(0.E0,0.E0,1.E0));
#240=AXIS2_PLACEMENT_3D('',#237,#238,#239);
#241=PLANE('',#240);
#242=ORIENTED_EDGE('',*,*,#208,.F.);
#244=ORIENTED_EDGE('',*,*,#243,.T.);
#246=ORIENTED_EDGE('',*,*,#245,.T.);
#248=ORIENTED_EDGE('',*,*,#247,.F.);
#249=EDGE_LOOP('',(#242,#244,#246,#248));
#250=FACE_OUTER_BOUND('',#249,.F.);
#251=ADVANCED_FACE('',(#250),#241,.T.);
#252=CARTESIAN_POINT('',(-5.15E1,0.E0,-1.3E1));
#253=DIRECTION('',(0.E0,1.E0,0.E0));
#254=DIRECTION('',(1.E0,0.E0,0.E0));
#255=AXIS2_PLACEMENT_3D('',#252,#253,#254);
#256=CYLINDRICAL_SURFACE('',#255,1.1E1);
#257=ORIENTED_EDGE('',*,*,#222,.F.);
#259=ORIENTED_EDGE('',*,*,#258,.T.);
#261=ORIENTED_EDGE('',*,*,#260,.T.);
#262=ORIENTED_EDGE('',*,*,#243,.F.);
#263=EDGE_LOOP('',(#257,#259,#261,#262));
#264=FACE_OUTER_BOUND('',#263,.F.);
#265=ADVANCED_FACE('',(#264),#256,.T.);
#266=CARTESIAN_POINT('',(5.15E1,0.E0,-2.4E1));
#267=DIRECTION('',(0.E0,0.E0,-1.E0));
#268=DIRECTION('',(-1.E0,0.E0,0.E0));
#269=AXIS2_PLACEMENT_3D('',#266,#267,#268);
#270=PLANE('',#269);
#271=ORIENTED_EDGE('',*,*,#220,.F.);
#273=ORIENTED_EDGE('',*,*,#272,.T.);
#275=ORIENTED_EDGE('',*,*,#274,.T.);
#276=ORIENTED_EDGE('',*,*,#258,.F.);
#277=EDGE_LOOP('',(#271,#273,#275,#276));
#278=FACE_OUTER_BOUND('',#277,.F.);
#279=ADVANCED_FACE('',(#278),#270,.T.);
#280=CARTESIAN_POINT('',(5.15E1,0.E0,-1.3E1));
#281=DIRECTION('',(0.E0,1.E0,0.E0));
#282=DIRECTION('',(1.E0,0.E0,0.E0));
#283=AXIS2_PLACEMENT_3D('',#280,#281,#282);
#284=CYLINDRICAL_SURFACE('',#283,1.1E1);
#285=ORIENTED_EDGE('',*,*,#218,.F.);
#287=ORIENTED_EDGE('',*,*,#286,.T.);
#289=ORIENTED_EDGE('',*,*,#288,.T.);
#290=ORIENTED_EDGE('',*,*,#272,.F.);
#291=EDGE_LOOP('',(#285,#287,#289,#290));
#292=FACE_OUTER_BOUND('',#291,.F.);
#293=ADVANCED_FACE('',(#292),#284,.T.);
#294=CARTESIAN_POINT('',(6.25E1,0.E0,3.655E1));
#295=DIRECTION('',(1.E0,0.E0,0.E0));
#296=DIRECTION('',(0.E0,0.E0,-1.E0));
#297=AXIS2_PLACEMENT_3D('',#294,#295,#296);
#298=PLANE('',#297);
#299=ORIENTED_EDGE('',*,*,#216,.F.);
#301=ORIENTED_EDGE('',*,*,#300,.T.);
#303=ORIENTED_EDGE('',*,*,#302,.T.);
#304=ORIENTED_EDGE('',*,*,#286,.F.);
#305=EDGE_LOOP('',(#299,#301,#303,#304));
#306=FACE_OUTER_BOUND('',#305,.F.);
#307=ADVANCED_FACE('',(#306),#298,.T.);
#308=CARTESIAN_POINT('',(4.75E1,0.E0,3.655E1));
#309=DIRECTION('',(0.E0,1.E0,0.E0));
#310=DIRECTION('',(1.E0,0.E0,0.E0));
#311=AXIS2_PLACEMENT_3D('',#308,#309,#310);
#312=CYLINDRICAL_SURFACE('',#311,1.5E1);
#313=ORIENTED_EDGE('',*,*,#214,.F.);
#315=ORIENTED_EDGE('',*,*,#314,.T.);
#317=ORIENTED_EDGE('',*,*,#316,.T.);
#318=ORIENTED_EDGE('',*,*,#300,.F.);
#319=EDGE_LOOP('',(#313,#315,#317,#318));
#320=FACE_OUTER_BOUND('',#319,.F.);
#321=ADVANCED_FACE('',(#320),#312,.T.);
#322=CARTESIAN_POINT('',(0.E0,0.E0,-1.351281007752E2));
#323=DIRECTION('',(0.E0,1.E0,0.E0));
#324=DIRECTION('',(1.E0,0.E0,0.E0));
#325=AXIS2_PLACEMENT_3D('',#322,#323,#324);
#326=CYLINDRICAL_SURFACE('',#325,1.931281007752E2);
#327=ORIENTED_EDGE('',*,*,#212,.F.);
#329=ORIENTED_EDGE('',*,*,#328,.T.);
#331=ORIENTED_EDGE('',*,*,#330,.T.);
#332=ORIENTED_EDGE('',*,*,#314,.F.);
#333=EDGE_LOOP('',(#327,#329,#331,#332));
#334=FACE_OUTER_BOUND('',#333,.F.);
#335=ADVANCED_FACE('',(#334),#326,.T.);
#336=CARTESIAN_POINT('',(-4.75E1,0.E0,3.655E1));
#337=DIRECTION('',(0.E0,1.E0,0.E0));
#338=DIRECTION('',(1.E0,0.E0,0.E0));
#339=AXIS2_PLACEMENT_3D('',#336,#337,#338);
#340=CYLINDRICAL_SURFACE('',#339,1.5E1);
#341=ORIENTED_EDGE('',*,*,#210,.F.);
#342=ORIENTED_EDGE('',*,*,#247,.T.);
#344=ORIENTED_EDGE('',*,*,#343,.T.);
#345=ORIENTED_EDGE('',*,*,#328,.F.);
#346=EDGE_LOOP('',(#341,#342,#344,#345));
#347=FACE_OUTER_BOUND('',#346,.F.);
#348=ADVANCED_FACE('',(#347),#340,.T.);
#349=CARTESIAN_POINT('',(0.E0,1.7E0,0.E0));
#350=DIRECTION('',(0.E0,1.E0,0.E0));
#351=DIRECTION('',(1.E0,0.E0,0.E0));
#352=AXIS2_PLACEMENT_3D('',#349,#350,#351);
#353=PLANE('',#352);
#354=ORIENTED_EDGE('',*,*,#245,.F.);
#355=ORIENTED_EDGE('',*,*,#260,.F.);
#356=ORIENTED_EDGE('',*,*,#274,.F.);
#357=ORIENTED_EDGE('',*,*,#288,.F.);
#358=ORIENTED_EDGE('',*,*,#302,.F.);
#359=ORIENTED_EDGE('',*,*,#316,.F.);
#360=ORIENTED_EDGE('',*,*,#330,.F.);
#361=ORIENTED_EDGE('',*,*,#343,.F.);
#362=EDGE_LOOP('',(#354,#355,#356,#357,#358,#359,#360,#361));
#363=FACE_OUTER_BOUND('',#362,.F.);
#365=ORIENTED_EDGE('',*,*,#364,.T.);
#367=ORIENTED_EDGE('',*,*,#366,.T.);
#369=ORIENTED_EDGE('',*,*,#368,.T.);
#371=ORIENTED_EDGE('',*,*,#370,.T.);
#372=EDGE_LOOP('',(#365,#367,#369,#371));
#373=FACE_BOUND('',#372,.F.);
#374=ADVANCED_FACE('',(#363,#373),#353,.T.);
#375=CARTESIAN_POINT('',(-3.8E1,1.7E0,-4.E0));
#376=DIRECTION('',(-1.E0,0.E0,0.E0));
#377=DIRECTION('',(0.E0,0.E0,1.E0));
#378=AXIS2_PLACEMENT_3D('',#375,#376,#377);
#379=PLANE('',#378);
#380=ORIENTED_EDGE('',*,*,#226,.T.);
#382=ORIENTED_EDGE('',*,*,#381,.F.);
#383=ORIENTED_EDGE('',*,*,#364,.F.);
#385=ORIENTED_EDGE('',*,*,#384,.T.);
#386=EDGE_LOOP('',(#380,#382,#383,#385));
#387=FACE_OUTER_BOUND('',#386,.F.);
#388=ADVANCED_FACE('',(#387),#379,.F.);
#389=CARTESIAN_POINT('',(-3.8E1,1.7E0,3.55E1));
#390=DIRECTION('',(0.E0,0.E0,1.E0));
#391=DIRECTION('',(1.E0,0.E0,0.E0));
#392=AXIS2_PLACEMENT_3D('',#389,#390,#391);
#393=PLANE('',#392);
#394=ORIENTED_EDGE('',*,*,#232,.T.);
#396=ORIENTED_EDGE('',*,*,#395,.F.);
#397=ORIENTED_EDGE('',*,*,#366,.F.);
#398=ORIENTED_EDGE('',*,*,#381,.T.);
#399=EDGE_LOOP('',(#394,#396,#397,#398));
#400=FACE_OUTER_BOUND('',#399,.F.);
#401=ADVANCED_FACE('',(#400),#393,.F.);
#402=CARTESIAN_POINT('',(3.8E1,1.7E0,3.55E1));
#403=DIRECTION('',(1.E0,0.E0,0.E0));
#404=DIRECTION('',(0.E0,0.E0,-1.E0));
#405=AXIS2_PLACEMENT_3D('',#402,#403,#404);
#406=PLANE('',#405);
#407=ORIENTED_EDGE('',*,*,#230,.T.);
#409=ORIENTED_EDGE('',*,*,#408,.F.);
#410=ORIENTED_EDGE('',*,*,#368,.F.);
#411=ORIENTED_EDGE('',*,*,#395,.T.);
#412=EDGE_LOOP('',(#407,#409,#410,#411));
#413=FACE_OUTER_BOUND('',#412,.F.);
#414=ADVANCED_FACE('',(#413),#406,.F.);
#415=CARTESIAN_POINT('',(3.8E1,1.7E0,-4.E0));
#416=DIRECTION('',(0.E0,0.E0,-1.E0));
#417=DIRECTION('',(-1.E0,0.E0,0.E0));
#418=AXIS2_PLACEMENT_3D('',#415,#416,#417);
#419=PLANE('',#418);
#420=ORIENTED_EDGE('',*,*,#228,.T.);
#421=ORIENTED_EDGE('',*,*,#384,.F.);
#422=ORIENTED_EDGE('',*,*,#370,.F.);
#423=ORIENTED_EDGE('',*,*,#408,.T.);
#424=EDGE_LOOP('',(#420,#421,#422,#423));
#425=FACE_OUTER_BOUND('',#424,.F.);
#426=ADVANCED_FACE('',(#425),#419,.F.);
#427=CLOSED_SHELL('',(#236,#251,#265,#279,#293,#307,#321,#335,#348,#374,#388,
#401,#414,#426));
#428=MANIFOLD_SOLID_BREP('',#427);
#429=DIMENSIONAL_EXPONENTS(1.E0,0.E0,0.E0,0.E0,0.E0,0.E0,0.E0);
#431=LENGTH_MEASURE_WITH_UNIT(LENGTH_MEASURE(2.54E1),#430);
#432=(CONVERSION_BASED_UNIT('INCH',#431)LENGTH_UNIT()NAMED_UNIT(#429));
#433=DIMENSIONAL_EXPONENTS(0.E0,0.E0,0.E0,0.E0,0.E0,0.E0,0.E0);
#435=PLANE_ANGLE_MEASURE_WITH_UNIT(PLANE_ANGLE_MEASURE(1.745329251994E-2),#434);
#436=(CONVERSION_BASED_UNIT('DEGREE',#435)NAMED_UNIT(*)PLANE_ANGLE_UNIT());
#438=UNCERTAINTY_MEASURE_WITH_UNIT(LENGTH_MEASURE(1.600880995609E-2),#432,
'closure',
'Maximum model space distance between geometric entities at asserted connectivities');
#439=(GEOMETRIC_REPRESENTATION_CONTEXT(3)GLOBAL_UNCERTAINTY_ASSIGNED_CONTEXT((
#438))GLOBAL_UNIT_ASSIGNED_CONTEXT((#432,#436,#437))REPRESENTATION_CONTEXT
('ID1','3'));
#441=APPLICATION_CONTEXT(
'CONFIGURATION CONTROLLED 3D DESIGNS OF MECHANICAL PARTS AND ASSEMBLIES');
#442=APPLICATION_PROTOCOL_DEFINITION('international standard',
'config_control_design',1994,#441);
#443=DESIGN_CONTEXT('',#441,'design');
#444=MECHANICAL_CONTEXT('',#441,'mechanical');
#445=PRODUCT('PLAQUE','PLAQUE','NOT SPECIFIED',(#444));
#446=PRODUCT_DEFINITION_FORMATION_WITH_SPECIFIED_SOURCE('1','LAST_VERSION',#445,
.MADE.);
#450=PRODUCT_CATEGORY('part','');
#451=PRODUCT_RELATED_PRODUCT_CATEGORY('detail','',(#445));
#452=PRODUCT_CATEGORY_RELATIONSHIP('','',#450,#451);
#453=SECURITY_CLASSIFICATION_LEVEL('unclassified');
#454=SECURITY_CLASSIFICATION('','',#453);
#455=CC_DESIGN_SECURITY_CLASSIFICATION(#454,(#446));
#456=APPROVAL_STATUS('approved');
#457=APPROVAL(#456,'');
#458=CC_DESIGN_APPROVAL(#457,(#454,#446,#447));
#459=CALENDAR_DATE(123,16,9);
#460=COORDINATED_UNIVERSAL_TIME_OFFSET(2,0,.AHEAD.);
#461=LOCAL_TIME(15,39,6.E0,#460);
#462=DATE_AND_TIME(#459,#461);
#463=APPROVAL_DATE_TIME(#462,#457);
#464=DATE_TIME_ROLE('creation_date');
#465=CC_DESIGN_DATE_AND_TIME_ASSIGNMENT(#462,#464,(#447));
#466=DATE_TIME_ROLE('classification_date');
#467=CC_DESIGN_DATE_AND_TIME_ASSIGNMENT(#462,#466,(#454));
#468=PERSON('UNSPECIFIED','UNSPECIFIED',$,$,$,$);
#469=ORGANIZATION('UNSPECIFIED','UNSPECIFIED','UNSPECIFIED');
#470=PERSON_AND_ORGANIZATION(#468,#469);
#471=APPROVAL_ROLE('approver');
#472=APPROVAL_PERSON_ORGANIZATION(#470,#457,#471);
#473=PERSON_AND_ORGANIZATION_ROLE('creator');
#474=CC_DESIGN_PERSON_AND_ORGANIZATION_ASSIGNMENT(#470,#473,(#446,#447));
#475=PERSON_AND_ORGANIZATION_ROLE('design_supplier');
#476=CC_DESIGN_PERSON_AND_ORGANIZATION_ASSIGNMENT(#470,#475,(#446));
#477=PERSON_AND_ORGANIZATION_ROLE('classification_officer');
#478=CC_DESIGN_PERSON_AND_ORGANIZATION_ASSIGNMENT(#470,#477,(#454));
#479=PERSON_AND_ORGANIZATION_ROLE('design_owner');
#480=CC_DESIGN_PERSON_AND_ORGANIZATION_ASSIGNMENT(#470,#479,(#445));
#9=CIRCLE('',#8,1.5E1);
#14=CIRCLE('',#13,1.931281007752E2);
#19=CIRCLE('',#18,1.5E1);
#28=CIRCLE('',#27,1.1E1);
#37=CIRCLE('',#36,1.1E1);
#94=CIRCLE('',#93,1.1E1);
#103=CIRCLE('',#102,1.1E1);
#112=CIRCLE('',#111,1.5E1);
#117=CIRCLE('',#116,1.931281007752E2);
#122=CIRCLE('',#121,1.5E1);
#208=EDGE_CURVE('',#157,#158,#4,.T.);
#210=EDGE_CURVE('',#158,#160,#9,.T.);
#212=EDGE_CURVE('',#160,#162,#14,.T.);
#214=EDGE_CURVE('',#162,#164,#19,.T.);
#216=EDGE_CURVE('',#164,#166,#23,.T.);
#218=EDGE_CURVE('',#166,#168,#28,.T.);
#220=EDGE_CURVE('',#168,#170,#32,.T.);
#222=EDGE_CURVE('',#170,#157,#37,.T.);
#226=EDGE_CURVE('',#189,#190,#41,.T.);
#228=EDGE_CURVE('',#194,#189,#45,.T.);
#230=EDGE_CURVE('',#192,#194,#49,.T.);
#232=EDGE_CURVE('',#190,#192,#53,.T.);
#243=EDGE_CURVE('',#157,#173,#57,.T.);
#245=EDGE_CURVE('',#173,#174,#89,.T.);
#247=EDGE_CURVE('',#158,#174,#85,.T.);
#258=EDGE_CURVE('',#170,#186,#61,.T.);
#260=EDGE_CURVE('',#186,#173,#94,.T.);
#272=EDGE_CURVE('',#168,#184,#65,.T.);
#274=EDGE_CURVE('',#184,#186,#98,.T.);
#286=EDGE_CURVE('',#166,#182,#69,.T.);
#288=EDGE_CURVE('',#182,#184,#103,.T.);
#300=EDGE_CURVE('',#164,#180,#73,.T.);
#302=EDGE_CURVE('',#180,#182,#107,.T.);
#314=EDGE_CURVE('',#162,#178,#77,.T.);
#316=EDGE_CURVE('',#178,#180,#112,.T.);
#328=EDGE_CURVE('',#160,#176,#81,.T.);
#330=EDGE_CURVE('',#176,#178,#117,.T.);
#343=EDGE_CURVE('',#174,#176,#122,.T.);
#364=EDGE_CURVE('',#197,#198,#126,.T.);
#366=EDGE_CURVE('',#198,#200,#130,.T.);
#368=EDGE_CURVE('',#200,#202,#134,.T.);
#370=EDGE_CURVE('',#202,#197,#138,.T.);
#381=EDGE_CURVE('',#198,#190,#146,.T.);
#384=EDGE_CURVE('',#197,#189,#142,.T.);
#395=EDGE_CURVE('',#200,#192,#150,.T.);
#408=EDGE_CURVE('',#202,#194,#154,.T.);
#430=(LENGTH_UNIT()NAMED_UNIT(*)SI_UNIT(.MILLI.,.METRE.));
#434=(NAMED_UNIT(*)PLANE_ANGLE_UNIT()SI_UNIT($,.RADIAN.));
#437=(NAMED_UNIT(*)SI_UNIT($,.STERADIAN.)SOLID_ANGLE_UNIT());
#440=ADVANCED_BREP_SHAPE_REPRESENTATION('',(#428),#439);
#447=PRODUCT_DEFINITION('design','',#446,#443);
#448=PRODUCT_DEFINITION_SHAPE('','SHAPE FOR PLAQUE.',#447);
#449=SHAPE_DEFINITION_REPRESENTATION(#448,#440);
ENDSEC;
END-ISO-10303-21;
