ISO-10303-21;
HEADER;
FILE_DESCRIPTION (( 'STEP AP214' ),
    '1' );
FILE_NAME ('Axe fileté M12 B.STEP',
    '2023-09-19T07:16:54',
    ( '' ),
    ( '' ),
    'SwSTEP 2.0',
    'SolidWorks 2023',
    '' );
FILE_SCHEMA (( 'AUTOMOTIVE_DESIGN' ));
ENDSEC;

DATA;
#1 = CARTESIAN_POINT ( 'NONE',  ( -5.000000000000031974, 0.000000000000000000, 185.0000000000000000 ) ) ;
#2 = DIRECTION ( 'NONE',  ( -0.000000000000000000, -0.000000000000000000, -1.000000000000000000 ) ) ;
#3 = DIRECTION ( 'NONE',  ( -1.000000000000000000, 0.000000000000000000, 0.000000000000000000 ) ) ;
#4 = EDGE_CURVE ( 'NONE', #244, #14, #86, .T. ) ;
#5 = DIRECTION ( 'NONE',  ( 1.000000000000000000, 0.000000000000000000, 0.000000000000000000 ) ) ;
#6 = CARTESIAN_POINT ( 'NONE',  ( -5.000000000000031974, 0.000000000000000000, 185.0000000000000000 ) ) ;
#7 = CONICAL_SURFACE ( 'NONE', #16, 5.000000000000031974, 0.7853981633974322918 ) ;
#8 = CARTESIAN_POINT ( 'NONE',  ( -3.999999999999986233, 4.898587196589396065E-16, 166.9999999999999716 ) ) ;
#9 = EDGE_CURVE ( 'NONE', #96, #208, #22, .T. ) ;
#10 = ORIENTED_EDGE ( 'NONE', *, *, #228, .T. ) ;
#11 = LINE ( 'NONE', #204, #66 ) ;
#12 = AXIS2_PLACEMENT_3D ( 'NONE', #209, #185, #27 ) ;
#13 = EDGE_LOOP ( 'NONE', ( #282, #273 ) ) ;
#14 = VERTEX_POINT ( 'NONE', #229 ) ;
#15 = CYLINDRICAL_SURFACE ( 'NONE', #50, 6.000000000000000888 ) ;
#16 = AXIS2_PLACEMENT_3D ( 'NONE', #80, #280, #326 ) ;
#17 = AXIS2_PLACEMENT_3D ( 'NONE', #306, #213, #54 ) ;
#18 = ORIENTED_EDGE ( 'NONE', *, *, #268, .T. ) ;
#19 = DIRECTION ( 'NONE',  ( -1.000000000000000000, 0.000000000000000000, 0.000000000000000000 ) ) ;
#20 = DIRECTION ( 'NONE',  ( -0.000000000000000000, -0.000000000000000000, 1.000000000000000000 ) ) ;
#21 = CARTESIAN_POINT ( 'NONE',  ( 0.000000000000000000, 0.000000000000000000, 185.0000000000000000 ) ) ;
#22 = CIRCLE ( 'NONE', #290, 3.999999999999986233 ) ;
#23 = AXIS2_PLACEMENT_3D ( 'NONE', #205, #302, #19 ) ;
#24 = VERTEX_POINT ( 'NONE', #103 ) ;
#25 = VECTOR ( 'NONE', #30, 1000.000000000000000 ) ;
#26 = ORIENTED_EDGE ( 'NONE', *, *, #221, .F. ) ;
#27 = DIRECTION ( 'NONE',  ( 1.000000000000000000, 0.000000000000000000, 0.000000000000000000 ) ) ;
#28 = EDGE_CURVE ( 'NONE', #93, #222, #138, .T. ) ;
#29 = ADVANCED_BREP_SHAPE_REPRESENTATION ( 'Axe filet\X2\00e9\X0\ M12 B', ( #159, #319 ), #298 ) ;
#30 = DIRECTION ( 'NONE',  ( -0.8571673007021113344, 1.049727191138617463E-16, 0.5150380749100558209 ) ) ;
#31 = AXIS2_PLACEMENT_3D ( 'NONE', #85, #82, #242 ) ;
#32 = SHAPE_DEFINITION_REPRESENTATION ( #38, #29 ) ;
#33 = VECTOR ( 'NONE', #65, 1000.000000000000114 ) ;
#34 = DIRECTION ( 'NONE',  ( 1.000000000000000000, 0.000000000000000000, 0.000000000000000000 ) ) ;
#35 = AXIS2_PLACEMENT_3D ( 'NONE', #258, #308, #77 ) ;
#36 = VERTEX_POINT ( 'NONE', #128 ) ;
#37 = ORIENTED_EDGE ( 'NONE', *, *, #217, .T. ) ;
#38 = PRODUCT_DEFINITION_SHAPE ( 'NONE', 'NONE',  #94 ) ;
#39 = AXIS2_PLACEMENT_3D ( 'NONE', #116, #142, #34 ) ;
#40 = EDGE_CURVE ( 'NONE', #324, #64, #154, .T. ) ;
#41 = EDGE_LOOP ( 'NONE', ( #26, #69, #146, #320 ) ) ;
#42 = ORIENTED_EDGE ( 'NONE', *, *, #40, .F. ) ;
#43 = DIRECTION ( 'NONE',  ( -0.000000000000000000, -0.000000000000000000, 1.000000000000000000 ) ) ;
#44 = ORIENTED_EDGE ( 'NONE', *, *, #132, .T. ) ;
#45 = ADVANCED_FACE ( 'NONE', ( #237 ), #184, .T. ) ;
#46 = FACE_BOUND ( 'NONE', #318, .T. ) ;
#47 = CARTESIAN_POINT ( 'NONE',  ( 6.000000000000000888, 7.347880794884120722E-16, 185.0000000000000000 ) ) ;
#48 = EDGE_LOOP ( 'NONE', ( #179, #117, #91, #37 ) ) ;
#49 = LINE ( 'NONE', #111, #311 ) ;
#50 = AXIS2_PLACEMENT_3D ( 'NONE', #125, #95, #180 ) ;
#51 = CARTESIAN_POINT ( 'NONE',  ( -6.000000000000000888, 7.347880794884120722E-16, 0.9999999999999731326 ) ) ;
#52 = CIRCLE ( 'NONE', #35, 5.000000000000005329 ) ;
#53 =( NAMED_UNIT ( * ) SI_UNIT ( $, .STERADIAN. ) SOLID_ANGLE_UNIT ( ) );
#54 = DIRECTION ( 'NONE',  ( 1.000000000000000000, 0.000000000000000000, 0.000000000000000000 ) ) ;
#55 = CARTESIAN_POINT ( 'NONE',  ( 3.999999999999986233, 0.000000000000000000, 166.9999999999999716 ) ) ;
#56 = ADVANCED_FACE ( 'NONE', ( #253 ), #76, .F. ) ;
#57 = AXIS2_PLACEMENT_3D ( 'NONE', #104, #257, #329 ) ;
#58 = LINE ( 'NONE', #55, #249 ) ;
#59 = DIRECTION ( 'NONE',  ( 0.000000000000000000, 0.000000000000000000, 1.000000000000000000 ) ) ;
#60 = ADVANCED_FACE ( 'NONE', ( #227 ), #7, .T. ) ;
#61 = AXIS2_PLACEMENT_3D ( 'NONE', #283, #256, #254 ) ;
#62 = ORIENTED_EDGE ( 'NONE', *, *, #294, .F. ) ;
#63 = DIRECTION ( 'NONE',  ( 1.000000000000000000, 0.000000000000000000, 0.000000000000000000 ) ) ;
#64 = VERTEX_POINT ( 'NONE', #157 ) ;
#65 = DIRECTION ( 'NONE',  ( 0.7071067811865555663, 0.000000000000000000, 0.7071067811865394681 ) ) ;
#66 = VECTOR ( 'NONE', #322, 1000.000000000000114 ) ;
#67 = CIRCLE ( 'NONE', #135, 3.999999999999989786 ) ;
#68 = ORIENTED_EDGE ( 'NONE', *, *, #9, .T. ) ;
#69 = ORIENTED_EDGE ( 'NONE', *, *, #202, .T. ) ;
#70 =( LENGTH_UNIT ( ) NAMED_UNIT ( * ) SI_UNIT ( .MILLI., .METRE. ) );
#71 = FACE_OUTER_BOUND ( 'NONE', #13, .T. ) ;
#72 = ADVANCED_FACE ( 'NONE', ( #102 ), #120, .T. ) ;
#73 = AXIS2_PLACEMENT_3D ( 'NONE', #143, #289, #167 ) ;
#74 = AXIS2_PLACEMENT_3D ( 'NONE', #165, #20, #137 ) ;
#75 = ORIENTED_EDGE ( 'NONE', *, *, #166, .F. ) ;
#76 = CYLINDRICAL_SURFACE ( 'NONE', #141, 3.999999999999988010 ) ;
#77 = DIRECTION ( 'NONE',  ( 1.000000000000000000, 0.000000000000000000, 0.000000000000000000 ) ) ;
#78 = ORIENTED_EDGE ( 'NONE', *, *, #28, .T. ) ;
#79 = LINE ( 'NONE', #81, #251 ) ;
#80 = CARTESIAN_POINT ( 'NONE',  ( 0.000000000000000000, 0.000000000000000000, 185.0000000000000000 ) ) ;
#81 = CARTESIAN_POINT ( 'NONE',  ( -6.000000000000000888, 0.000000000000000000, 185.0000000000000000 ) ) ;
#82 = DIRECTION ( 'NONE',  ( 0.000000000000000000, 0.000000000000000000, 1.000000000000000000 ) ) ;
#83 = LINE ( 'NONE', #47, #315 ) ;
#84 = PLANE ( 'NONE',  #31 ) ;
#85 = CARTESIAN_POINT ( 'NONE',  ( 0.000000000000000000, 0.000000000000000000, 0.000000000000000000 ) ) ;
#86 = CIRCLE ( 'NONE', #57, 3.999999999999989786 ) ;
#87 = PRODUCT_DEFINITION_FORMATION_WITH_SPECIFIED_SOURCE ( 'ANY', '', #123, .NOT_KNOWN. ) ;
#88 = DIRECTION ( 'NONE',  ( 1.000000000000000000, 0.000000000000000000, 0.000000000000000000 ) ) ;
#89 = ADVANCED_FACE ( 'NONE', ( #46, #71 ), #181, .T. ) ;
#90 = UNCERTAINTY_MEASURE_WITH_UNIT (LENGTH_MEASURE( 1.000000000000000082E-05 ), #70, 'distance_accuracy_value', 'NONE');
#91 = ORIENTED_EDGE ( 'NONE', *, *, #328, .T. ) ;
#92 = COLOUR_RGB ( '',0.7921568627450980005, 0.8196078431372548767, 0.9333333333333333481 ) ;
#93 = VERTEX_POINT ( 'NONE', #6 ) ;
#94 = PRODUCT_DEFINITION ( 'UNKNOWN', '', #87, #218 ) ;
#95 = DIRECTION ( 'NONE',  ( -0.000000000000000000, -0.000000000000000000, -1.000000000000000000 ) ) ;
#96 = VERTEX_POINT ( 'NONE', #8 ) ;
#97 = FILL_AREA_STYLE ('',( #262 ) ) ;
#98 = ORIENTED_EDGE ( 'NONE', *, *, #105, .T. ) ;
#99 = SURFACE_STYLE_USAGE ( .BOTH. , #121 ) ;
#100 = CONICAL_SURFACE ( 'NONE', #226, 3.999999999999986233, 1.029744258676652535 ) ;
#101 = DIRECTION ( 'NONE',  ( 0.000000000000000000, 0.000000000000000000, 1.000000000000000000 ) ) ;
#102 = FACE_OUTER_BOUND ( 'NONE', #279, .T. ) ;
#103 = CARTESIAN_POINT ( 'NONE',  ( 5.000000000000005329, 0.000000000000000000, 0.000000000000000000 ) ) ;
#104 = CARTESIAN_POINT ( 'NONE',  ( 0.000000000000000000, 0.000000000000000000, 185.0000000000000000 ) ) ;
#105 = EDGE_CURVE ( 'NONE', #222, #255, #269, .T. ) ;
#106 = ORIENTED_EDGE ( 'NONE', *, *, #245, .F. ) ;
#107 = DIRECTION ( 'NONE',  ( 0.000000000000000000, 0.000000000000000000, 1.000000000000000000 ) ) ;
#108 = CARTESIAN_POINT ( 'NONE',  ( 0.000000000000000000, 0.000000000000000000, 185.0000000000000000 ) ) ;
#109 = CARTESIAN_POINT ( 'NONE',  ( 0.000000000000000000, 0.000000000000000000, 0.000000000000000000 ) ) ;
#110 = CIRCLE ( 'NONE', #74, 6.000000000000000888 ) ;
#111 = CARTESIAN_POINT ( 'NONE',  ( 3.999999999999988010, 0.000000000000000000, 185.0000000000000000 ) ) ;
#112 = DIRECTION ( 'NONE',  ( 0.8571673007021113344, 0.000000000000000000, 0.5150380749100558209 ) ) ;
#113 = PRODUCT_CONTEXT ( 'NONE', #252, 'mechanical' ) ;
#114 = DIRECTION ( 'NONE',  ( 1.000000000000000000, 0.000000000000000000, 0.000000000000000000 ) ) ;
#115 = AXIS2_PLACEMENT_3D ( 'NONE', #261, #281, #139 ) ;
#116 = CARTESIAN_POINT ( 'NONE',  ( 0.000000000000000000, 0.000000000000000000, 166.9999999999999716 ) ) ;
#117 = ORIENTED_EDGE ( 'NONE', *, *, #228, .F. ) ;
#118 = ADVANCED_FACE ( 'NONE', ( #312 ), #84, .F. ) ;
#119 = ORIENTED_EDGE ( 'NONE', *, *, #300, .T. ) ;
#120 = CONICAL_SURFACE ( 'NONE', #23, 5.000000000000031974, 0.7853981633974322918 ) ;
#121 = SURFACE_SIDE_STYLE ('',( #325 ) ) ;
#122 = ORIENTED_EDGE ( 'NONE', *, *, #241, .F. ) ;
#123 = PRODUCT ( 'Axe filet\X2\00e9\X0\ M12 B', 'Axe filet\X2\00e9\X0\ M12 B', '', ( #113 ) ) ;
#124 = ORIENTED_EDGE ( 'NONE', *, *, #202, .F. ) ;
#125 = CARTESIAN_POINT ( 'NONE',  ( 0.000000000000000000, 0.000000000000000000, 185.0000000000000000 ) ) ;
#126 = ADVANCED_FACE ( 'NONE', ( #193 ), #134, .T. ) ;
#127 = VECTOR ( 'NONE', #263, 1000.000000000000000 ) ;
#128 = CARTESIAN_POINT ( 'NONE',  ( 5.000000000000031974, 6.735557395310462731E-16, 185.0000000000000000 ) ) ;
#129 = ORIENTED_EDGE ( 'NONE', *, *, #4, .T. ) ;
#130 = CARTESIAN_POINT ( 'NONE',  ( 6.000000000000000888, 7.347880794884120722E-16, 184.0000000000000000 ) ) ;
#131 = DIRECTION ( 'NONE',  ( 0.000000000000000000, 0.000000000000000000, 1.000000000000000000 ) ) ;
#132 = EDGE_CURVE ( 'NONE', #188, #208, #58, .T. ) ;
#133 = APPLICATION_PROTOCOL_DEFINITION ( 'draft international standard', 'automotive_design', 1998, #252 ) ;
#134 = CONICAL_SURFACE ( 'NONE', #73, 6.000000000000000888, 0.7853981633974596033 ) ;
#135 = AXIS2_PLACEMENT_3D ( 'NONE', #310, #192, #216 ) ;
#136 = ORIENTED_EDGE ( 'NONE', *, *, #217, .F. ) ;
#137 = DIRECTION ( 'NONE',  ( 1.000000000000000000, 0.000000000000000000, 0.000000000000000000 ) ) ;
#138 = LINE ( 'NONE', #1, #225 ) ;
#139 = DIRECTION ( 'NONE',  ( 1.000000000000000000, 0.000000000000000000, 0.000000000000000000 ) ) ;
#140 = ADVANCED_FACE ( 'NONE', ( #266 ), #207, .F. ) ;
#141 = AXIS2_PLACEMENT_3D ( 'NONE', #108, #212, #231 ) ;
#142 = DIRECTION ( 'NONE',  ( -0.000000000000000000, -0.000000000000000000, 1.000000000000000000 ) ) ;
#143 = CARTESIAN_POINT ( 'NONE',  ( 0.000000000000000000, 0.000000000000000000, 0.9999999999999731326 ) ) ;
#144 = CLOSED_SHELL ( 'NONE', ( #56, #140, #72, #156, #170, #45, #89, #118, #126, #60, #174, #236 ) ) ;
#145 = EDGE_LOOP ( 'NONE', ( #42, #147, #293, #62 ) ) ;
#146 = ORIENTED_EDGE ( 'NONE', *, *, #245, .T. ) ;
#147 = ORIENTED_EDGE ( 'NONE', *, *, #300, .F. ) ;
#148 =( GEOMETRIC_REPRESENTATION_CONTEXT ( 3 ) GLOBAL_UNCERTAINTY_ASSIGNED_CONTEXT ( ( #90 ) ) GLOBAL_UNIT_ASSIGNED_CONTEXT ( ( #70, #323, #182 ) ) REPRESENTATION_CONTEXT ( 'NONE', 'WORKASPACE' ) );
#149 = CARTESIAN_POINT ( 'NONE',  ( -4.864583467031828823E-15, 0.000000000000000000, 164.5965575238897429 ) ) ;
#150 = ORIENTED_EDGE ( 'NONE', *, *, #195, .T. ) ;
#151 = ORIENTED_EDGE ( 'NONE', *, *, #105, .F. ) ;
#152 = LINE ( 'NONE', #297, #33 ) ;
#153 = AXIS2_PLACEMENT_3D ( 'NONE', #206, #190, #3 ) ;
#154 = LINE ( 'NONE', #51, #278 ) ;
#155 = CARTESIAN_POINT ( 'NONE',  ( -6.000000000000000888, 0.000000000000000000, 184.0000000000000000 ) ) ;
#156 = ADVANCED_FACE ( 'NONE', ( #317 ), #171, .T. ) ;
#157 = CARTESIAN_POINT ( 'NONE',  ( -6.000000000000000888, 0.000000000000000000, 0.9999999999999731326 ) ) ;
#158 = CARTESIAN_POINT ( 'NONE',  ( -5.000000000000005329, 6.735557395310446954E-16, 0.000000000000000000 ) ) ;
#159 = MANIFOLD_SOLID_BREP ( 'Diamètre du perçage Ø8.0 (8)1', #144 ) ;
#160 = CARTESIAN_POINT ( 'NONE',  ( 0.000000000000000000, 0.000000000000000000, 166.9999999999999716 ) ) ;
#161 =( NAMED_UNIT ( * ) PLANE_ANGLE_UNIT ( ) SI_UNIT ( $, .RADIAN. ) );
#162 = AXIS2_PLACEMENT_3D ( 'NONE', #309, #107, #5 ) ;
#163 = DIRECTION ( 'NONE',  ( -0.7071067811865555663, 8.659560562355030233E-17, 0.7071067811865394681 ) ) ;
#164 = FACE_OUTER_BOUND ( 'NONE', #48, .T. ) ;
#165 = CARTESIAN_POINT ( 'NONE',  ( 0.000000000000000000, 0.000000000000000000, 0.9999999999999731326 ) ) ;
#166 = EDGE_CURVE ( 'NONE', #36, #255, #11, .T. ) ;
#167 = DIRECTION ( 'NONE',  ( 1.000000000000000000, 0.000000000000000000, 0.000000000000000000 ) ) ;
#168 = CARTESIAN_POINT ( 'NONE',  ( 0.000000000000000000, 0.000000000000000000, 0.000000000000000000 ) ) ;
#169 = AXIS2_PLACEMENT_3D ( 'NONE', #21, #131, #305 ) ;
#170 = ADVANCED_FACE ( 'NONE', ( #291 ), #15, .T. ) ;
#171 = CONICAL_SURFACE ( 'NONE', #240, 6.000000000000000888, 0.7853981633974596033 ) ;
#172 = AXIS2_PLACEMENT_3D ( 'NONE', #109, #285, #239 ) ;
#173 = EDGE_LOOP ( 'NONE', ( #307, #177, #68 ) ) ;
#174 = ADVANCED_FACE ( 'NONE', ( #199 ), #100, .F. ) ;
#175 = ORIENTED_EDGE ( 'NONE', *, *, #9, .F. ) ;
#176 = DIRECTION ( 'NONE',  ( 1.000000000000000000, 0.000000000000000000, 0.000000000000000000 ) ) ;
#177 = ORIENTED_EDGE ( 'NONE', *, *, #288, .T. ) ;
#178 = LINE ( 'NONE', #275, #127 ) ;
#179 = ORIENTED_EDGE ( 'NONE', *, *, #195, .F. ) ;
#180 = DIRECTION ( 'NONE',  ( -1.000000000000000000, 0.000000000000000000, 0.000000000000000000 ) ) ;
#181 = PLANE ( 'NONE',  #169 ) ;
#182 =( NAMED_UNIT ( * ) SI_UNIT ( $, .STERADIAN. ) SOLID_ANGLE_UNIT ( ) );
#183 = EDGE_CURVE ( 'NONE', #93, #36, #243, .T. ) ;
#184 = CYLINDRICAL_SURFACE ( 'NONE', #153, 6.000000000000000888 ) ;
#185 = DIRECTION ( 'NONE',  ( 0.000000000000000000, 0.000000000000000000, -1.000000000000000000 ) ) ;
#186 = ORIENTED_EDGE ( 'NONE', *, *, #241, .T. ) ;
#187 = LINE ( 'NONE', #189, #25 ) ;
#188 = VERTEX_POINT ( 'NONE', #149 ) ;
#189 = CARTESIAN_POINT ( 'NONE',  ( -3.999999999999986233, 4.898587196589396065E-16, 166.9999999999999716 ) ) ;
#190 = DIRECTION ( 'NONE',  ( -0.000000000000000000, -0.000000000000000000, -1.000000000000000000 ) ) ;
#191 = EDGE_CURVE ( 'NONE', #24, #223, #152, .T. ) ;
#192 = DIRECTION ( 'NONE',  ( -0.000000000000000000, -0.000000000000000000, 1.000000000000000000 ) ) ;
#193 = FACE_OUTER_BOUND ( 'NONE', #145, .T. ) ;
#194 =( LENGTH_UNIT ( ) NAMED_UNIT ( * ) SI_UNIT ( .MILLI., .METRE. ) );
#195 = EDGE_CURVE ( 'NONE', #96, #244, #178, .T. ) ;
#196 = APPLICATION_PROTOCOL_DEFINITION ( 'draft international standard', 'automotive_design', 1998, #271 ) ;
#197 = ORIENTED_EDGE ( 'NONE', *, *, #191, .F. ) ;
#198 = EDGE_LOOP ( 'NONE', ( #122, #246, #276, #197 ) ) ;
#199 = FACE_OUTER_BOUND ( 'NONE', #327, .T. ) ;
#200 = EDGE_LOOP ( 'NONE', ( #75, #247, #78, #124 ) ) ;
#201 = CARTESIAN_POINT ( 'NONE',  ( 0.000000000000000000, 0.000000000000000000, 185.0000000000000000 ) ) ;
#202 = EDGE_CURVE ( 'NONE', #255, #222, #219, .T. ) ;
#203 = EDGE_LOOP ( 'NONE', ( #175, #150, #129, #303 ) ) ;
#204 = CARTESIAN_POINT ( 'NONE',  ( 5.000000000000031974, 6.123233995736805725E-16, 185.0000000000000000 ) ) ;
#205 = CARTESIAN_POINT ( 'NONE',  ( 0.000000000000000000, 0.000000000000000000, 185.0000000000000000 ) ) ;
#206 = CARTESIAN_POINT ( 'NONE',  ( 0.000000000000000000, 0.000000000000000000, 185.0000000000000000 ) ) ;
#207 = CONICAL_SURFACE ( 'NONE', #39, 3.999999999999986233, 1.029744258676652535 ) ;
#208 = VERTEX_POINT ( 'NONE', #238 ) ;
#209 = CARTESIAN_POINT ( 'NONE',  ( 0.000000000000000000, 0.000000000000000000, 184.0000000000000000 ) ) ;
#210 = EDGE_LOOP ( 'NONE', ( #98, #284, #18, #106 ) ) ;
#211 = CARTESIAN_POINT ( 'NONE',  ( -3.999999999999989786, 4.898587196589400010E-16, 185.0000000000000000 ) ) ;
#212 = DIRECTION ( 'NONE',  ( -0.000000000000000000, -0.000000000000000000, 1.000000000000000000 ) ) ;
#213 = DIRECTION ( 'NONE',  ( -0.000000000000000000, -0.000000000000000000, 1.000000000000000000 ) ) ;
#214 = AXIS2_PLACEMENT_3D ( 'NONE', #313, #220, #264 ) ;
#215 = AXIS2_PLACEMENT_3D ( 'NONE', #201, #101, #176 ) ;
#216 = DIRECTION ( 'NONE',  ( 1.000000000000000000, 0.000000000000000000, 0.000000000000000000 ) ) ;
#217 = EDGE_CURVE ( 'NONE', #14, #244, #67, .T. ) ;
#218 = PRODUCT_DEFINITION_CONTEXT ( 'detailed design', #271, 'design' ) ;
#219 = CIRCLE ( 'NONE', #12, 6.000000000000000888 ) ;
#220 = DIRECTION ( 'NONE',  ( 0.000000000000000000, 0.000000000000000000, -1.000000000000000000 ) ) ;
#221 = EDGE_CURVE ( 'NONE', #255, #223, #83, .T. ) ;
#222 = VERTEX_POINT ( 'NONE', #155 ) ;
#223 = VERTEX_POINT ( 'NONE', #286 ) ;
#224 = ORIENTED_EDGE ( 'NONE', *, *, #272, .F. ) ;
#225 = VECTOR ( 'NONE', #250, 1000.000000000000114 ) ;
#226 = AXIS2_PLACEMENT_3D ( 'NONE', #295, #43, #63 ) ;
#227 = FACE_OUTER_BOUND ( 'NONE', #200, .T. ) ;
#228 = EDGE_CURVE ( 'NONE', #208, #96, #304, .T. ) ;
#229 = CARTESIAN_POINT ( 'NONE',  ( 3.999999999999989786, 0.000000000000000000, 185.0000000000000000 ) ) ;
#230 = DIRECTION ( 'NONE',  ( -0.000000000000000000, -0.000000000000000000, 1.000000000000000000 ) ) ;
#231 = DIRECTION ( 'NONE',  ( 1.000000000000000000, 0.000000000000000000, 0.000000000000000000 ) ) ;
#232 = PRESENTATION_LAYER_ASSIGNMENT (  '', '', ( #265 ) ) ;
#233 = CIRCLE ( 'NONE', #115, 6.000000000000000888 ) ;
#234 = DIRECTION ( 'NONE',  ( 1.000000000000000000, 0.000000000000000000, 0.000000000000000000 ) ) ;
#235 = CYLINDRICAL_SURFACE ( 'NONE', #61, 3.999999999999988010 ) ;
#236 = ADVANCED_FACE ( 'NONE', ( #164 ), #235, .F. ) ;
#237 = FACE_OUTER_BOUND ( 'NONE', #41, .T. ) ;
#238 = CARTESIAN_POINT ( 'NONE',  ( 3.999999999999986233, 0.000000000000000000, 166.9999999999999716 ) ) ;
#239 = DIRECTION ( 'NONE',  ( 1.000000000000000000, 0.000000000000000000, 0.000000000000000000 ) ) ;
#240 = AXIS2_PLACEMENT_3D ( 'NONE', #267, #316, #114 ) ;
#241 = EDGE_CURVE ( 'NONE', #324, #24, #52, .T. ) ;
#242 = DIRECTION ( 'NONE',  ( 1.000000000000000000, 0.000000000000000000, -0.000000000000000000 ) ) ;
#243 = CIRCLE ( 'NONE', #215, 5.000000000000031974 ) ;
#244 = VERTEX_POINT ( 'NONE', #211 ) ;
#245 = EDGE_CURVE ( 'NONE', #222, #64, #79, .T. ) ;
#246 = ORIENTED_EDGE ( 'NONE', *, *, #40, .T. ) ;
#247 = ORIENTED_EDGE ( 'NONE', *, *, #183, .F. ) ;
#248 = ORIENTED_EDGE ( 'NONE', *, *, #288, .F. ) ;
#249 = VECTOR ( 'NONE', #112, 1000.000000000000000 ) ;
#250 = DIRECTION ( 'NONE',  ( -0.7071067811865362485, 0.000000000000000000, -0.7071067811865587860 ) ) ;
#251 = VECTOR ( 'NONE', #287, 1000.000000000000000 ) ;
#252 = APPLICATION_CONTEXT ( 'automotive_design' ) ;
#253 = FACE_OUTER_BOUND ( 'NONE', #203, .T. ) ;
#254 = DIRECTION ( 'NONE',  ( 1.000000000000000000, 0.000000000000000000, 0.000000000000000000 ) ) ;
#255 = VERTEX_POINT ( 'NONE', #130 ) ;
#256 = DIRECTION ( 'NONE',  ( -0.000000000000000000, -0.000000000000000000, 1.000000000000000000 ) ) ;
#257 = DIRECTION ( 'NONE',  ( -0.000000000000000000, -0.000000000000000000, 1.000000000000000000 ) ) ;
#258 = CARTESIAN_POINT ( 'NONE',  ( 0.000000000000000000, 0.000000000000000000, 0.000000000000000000 ) ) ;
#259 = CIRCLE ( 'NONE', #172, 5.000000000000005329 ) ;
#260 = DIRECTION ( 'NONE',  ( -0.000000000000000000, -0.000000000000000000, 1.000000000000000000 ) ) ;
#261 = CARTESIAN_POINT ( 'NONE',  ( 0.000000000000000000, 0.000000000000000000, 0.9999999999999731326 ) ) ;
#262 = FILL_AREA_STYLE_COLOUR ( '', #92 ) ;
#263 = DIRECTION ( 'NONE',  ( -0.000000000000000000, -0.000000000000000000, 1.000000000000000000 ) ) ;
#264 = DIRECTION ( 'NONE',  ( 1.000000000000000000, 0.000000000000000000, 0.000000000000000000 ) ) ;
#265 = STYLED_ITEM ( 'NONE', ( #277 ), #159 ) ;
#266 = FACE_OUTER_BOUND ( 'NONE', #173, .T. ) ;
#267 = CARTESIAN_POINT ( 'NONE',  ( 0.000000000000000000, 0.000000000000000000, 0.9999999999999731326 ) ) ;
#268 = EDGE_CURVE ( 'NONE', #223, #64, #110, .T. ) ;
#269 = CIRCLE ( 'NONE', #214, 6.000000000000000888 ) ;
#270 = CIRCLE ( 'NONE', #162, 5.000000000000031974 ) ;
#271 = APPLICATION_CONTEXT ( 'automotive_design' ) ;
#272 = EDGE_CURVE ( 'NONE', #36, #93, #270, .T. ) ;
#273 = ORIENTED_EDGE ( 'NONE', *, *, #272, .T. ) ;
#274 = ORIENTED_EDGE ( 'NONE', *, *, #4, .F. ) ;
#275 = CARTESIAN_POINT ( 'NONE',  ( -3.999999999999988010, 4.898587196589398038E-16, 185.0000000000000000 ) ) ;
#276 = ORIENTED_EDGE ( 'NONE', *, *, #268, .F. ) ;
#277 = PRESENTATION_STYLE_ASSIGNMENT (( #99 ) ) ;
#278 = VECTOR ( 'NONE', #163, 1000.000000000000114 ) ;
#279 = EDGE_LOOP ( 'NONE', ( #224, #299, #151, #296 ) ) ;
#280 = DIRECTION ( 'NONE',  ( 0.000000000000000000, 0.000000000000000000, -1.000000000000000000 ) ) ;
#281 = DIRECTION ( 'NONE',  ( -0.000000000000000000, -0.000000000000000000, 1.000000000000000000 ) ) ;
#282 = ORIENTED_EDGE ( 'NONE', *, *, #183, .T. ) ;
#283 = CARTESIAN_POINT ( 'NONE',  ( 0.000000000000000000, 0.000000000000000000, 185.0000000000000000 ) ) ;
#284 = ORIENTED_EDGE ( 'NONE', *, *, #221, .T. ) ;
#285 = DIRECTION ( 'NONE',  ( -0.000000000000000000, -0.000000000000000000, -1.000000000000000000 ) ) ;
#286 = CARTESIAN_POINT ( 'NONE',  ( 6.000000000000000888, 7.347880794884120722E-16, 0.9999999999999731326 ) ) ;
#287 = DIRECTION ( 'NONE',  ( -0.000000000000000000, -0.000000000000000000, -1.000000000000000000 ) ) ;
#288 = EDGE_CURVE ( 'NONE', #188, #96, #187, .T. ) ;
#289 = DIRECTION ( 'NONE',  ( -0.000000000000000000, -0.000000000000000000, 1.000000000000000000 ) ) ;
#290 = AXIS2_PLACEMENT_3D ( 'NONE', #160, #260, #234 ) ;
#291 = FACE_OUTER_BOUND ( 'NONE', #210, .T. ) ;
#292 = UNCERTAINTY_MEASURE_WITH_UNIT (LENGTH_MEASURE( 1.000000000000000082E-05 ), #194, 'distance_accuracy_value', 'NONE');
#293 = ORIENTED_EDGE ( 'NONE', *, *, #191, .T. ) ;
#294 = EDGE_CURVE ( 'NONE', #64, #223, #233, .T. ) ;
#295 = CARTESIAN_POINT ( 'NONE',  ( 0.000000000000000000, 0.000000000000000000, 166.9999999999999716 ) ) ;
#296 = ORIENTED_EDGE ( 'NONE', *, *, #28, .F. ) ;
#297 = CARTESIAN_POINT ( 'NONE',  ( 6.000000000000000888, 0.000000000000000000, 0.9999999999999731326 ) ) ;
#298 =( GEOMETRIC_REPRESENTATION_CONTEXT ( 3 ) GLOBAL_UNCERTAINTY_ASSIGNED_CONTEXT ( ( #292 ) ) GLOBAL_UNIT_ASSIGNED_CONTEXT ( ( #194, #161, #53 ) ) REPRESENTATION_CONTEXT ( 'NONE', 'WORKASPACE' ) );
#299 = ORIENTED_EDGE ( 'NONE', *, *, #166, .T. ) ;
#300 = EDGE_CURVE ( 'NONE', #24, #324, #259, .T. ) ;
#301 = EDGE_LOOP ( 'NONE', ( #119, #186 ) ) ;
#302 = DIRECTION ( 'NONE',  ( 0.000000000000000000, 0.000000000000000000, -1.000000000000000000 ) ) ;
#303 = ORIENTED_EDGE ( 'NONE', *, *, #328, .F. ) ;
#304 = CIRCLE ( 'NONE', #17, 3.999999999999986233 ) ;
#305 = DIRECTION ( 'NONE',  ( 1.000000000000000000, 0.000000000000000000, -0.000000000000000000 ) ) ;
#306 = CARTESIAN_POINT ( 'NONE',  ( 0.000000000000000000, 0.000000000000000000, 166.9999999999999716 ) ) ;
#307 = ORIENTED_EDGE ( 'NONE', *, *, #132, .F. ) ;
#308 = DIRECTION ( 'NONE',  ( -0.000000000000000000, -0.000000000000000000, -1.000000000000000000 ) ) ;
#309 = CARTESIAN_POINT ( 'NONE',  ( 0.000000000000000000, 0.000000000000000000, 185.0000000000000000 ) ) ;
#310 = CARTESIAN_POINT ( 'NONE',  ( 0.000000000000000000, 0.000000000000000000, 185.0000000000000000 ) ) ;
#311 = VECTOR ( 'NONE', #230, 1000.000000000000000 ) ;
#312 = FACE_OUTER_BOUND ( 'NONE', #301, .T. ) ;
#313 = CARTESIAN_POINT ( 'NONE',  ( 0.000000000000000000, 0.000000000000000000, 184.0000000000000000 ) ) ;
#314 = MECHANICAL_DESIGN_GEOMETRIC_PRESENTATION_REPRESENTATION (  '', ( #265 ), #148 ) ;
#315 = VECTOR ( 'NONE', #2, 1000.000000000000000 ) ;
#316 = DIRECTION ( 'NONE',  ( -0.000000000000000000, -0.000000000000000000, 1.000000000000000000 ) ) ;
#317 = FACE_OUTER_BOUND ( 'NONE', #198, .T. ) ;
#318 = EDGE_LOOP ( 'NONE', ( #136, #274 ) ) ;
#319 = AXIS2_PLACEMENT_3D ( 'NONE', #168, #59, #88 ) ;
#320 = ORIENTED_EDGE ( 'NONE', *, *, #294, .T. ) ;
#321 = PRODUCT_RELATED_PRODUCT_CATEGORY ( 'part', '', ( #123 ) ) ;
#322 = DIRECTION ( 'NONE',  ( 0.7071067811865362485, 8.659560562354794808E-17, -0.7071067811865587860 ) ) ;
#323 =( NAMED_UNIT ( * ) PLANE_ANGLE_UNIT ( ) SI_UNIT ( $, .RADIAN. ) );
#324 = VERTEX_POINT ( 'NONE', #158 ) ;
#325 = SURFACE_STYLE_FILL_AREA ( #97 ) ;
#326 = DIRECTION ( 'NONE',  ( -1.000000000000000000, 0.000000000000000000, 0.000000000000000000 ) ) ;
#327 = EDGE_LOOP ( 'NONE', ( #248, #44, #10 ) ) ;
#328 = EDGE_CURVE ( 'NONE', #208, #14, #49, .T. ) ;
#329 = DIRECTION ( 'NONE',  ( 1.000000000000000000, 0.000000000000000000, 0.000000000000000000 ) ) ;
ENDSEC;
END-ISO-10303-21;
