ISO-10303-21;
HEADER;
/* Generated by software containing ST-Developer
 * from STEP Tools, Inc. (www.steptools.com) 
 */

FILE_DESCRIPTION(
/* description */ (''),
/* implementation_level */ '2;1');

FILE_NAME(
/* name */ 'Col tuyre graphite 2-H_.step',
/* time_stamp */ '2023-09-19T22:03:10+02:00',
/* author */ (''),
/* organization */ (''),
/* preprocessor_version */ 'ST-DEVELOPER v20',
/* originating_system */ 'Autodesk Translation Framework v12.14.0.127',

/* authorisation */ '');

FILE_SCHEMA (('AUTOMOTIVE_DESIGN { 1 0 10303 214 3 1 1 }'));
ENDSEC;

DATA;
#10=MECHANICAL_DESIGN_GEOMETRIC_PRESENTATION_REPRESENTATION('',(#13),#196);
#11=SHAPE_REPRESENTATION_RELATIONSHIP('SRR','None',#203,#12);
#12=ADVANCED_BREP_SHAPE_REPRESENTATION('',(#14),#195);
#13=STYLED_ITEM('',(#212),#14);
#14=MANIFOLD_SOLID_BREP('Corps3',#102);
#15=TOROIDAL_SURFACE('',#129,17.,3.);
#16=CYLINDRICAL_SURFACE('',#122,30.);
#17=FACE_BOUND('',#29,.T.);
#18=FACE_BOUND('',#32,.T.);
#19=PLANE('',#120);
#20=PLANE('',#124);
#21=FACE_OUTER_BOUND('',#27,.T.);
#22=FACE_OUTER_BOUND('',#28,.T.);
#23=FACE_OUTER_BOUND('',#30,.T.);
#24=FACE_OUTER_BOUND('',#31,.T.);
#25=FACE_OUTER_BOUND('',#33,.T.);
#26=FACE_OUTER_BOUND('',#34,.T.);
#27=EDGE_LOOP('',(#70,#71,#72,#73,#74));
#28=EDGE_LOOP('',(#75));
#29=EDGE_LOOP('',(#76));
#30=EDGE_LOOP('',(#77,#78,#79,#80));
#31=EDGE_LOOP('',(#81));
#32=EDGE_LOOP('',(#82));
#33=EDGE_LOOP('',(#83,#84,#85,#86,#87));
#34=EDGE_LOOP('',(#88,#89,#90,#91,#92,#93));
#35=LINE('',#173,#38);
#36=LINE('',#181,#39);
#37=LINE('',#187,#40);
#38=VECTOR('',#139,15.5162437718571);
#39=VECTOR('',#150,30.);
#40=VECTOR('',#157,15.1701513666156);
#41=CIRCLE('',#117,14.0324875437143);
#42=CIRCLE('',#118,14.0324875437143);
#43=CIRCLE('',#119,17.);
#44=CIRCLE('',#121,30.);
#45=CIRCLE('',#123,30.);
#46=CIRCLE('',#125,16.0712665555337);
#47=CIRCLE('',#127,14.2690361776974);
#48=CIRCLE('',#128,14.2690361776974);
#49=CIRCLE('',#130,3.);
#50=VERTEX_POINT('',#168);
#51=VERTEX_POINT('',#169);
#52=VERTEX_POINT('',#172);
#53=VERTEX_POINT('',#176);
#54=VERTEX_POINT('',#179);
#55=VERTEX_POINT('',#183);
#56=VERTEX_POINT('',#186);
#57=VERTEX_POINT('',#188);
#58=EDGE_CURVE('',#50,#51,#41,.T.);
#59=EDGE_CURVE('',#51,#50,#42,.T.);
#60=EDGE_CURVE('',#50,#52,#35,.T.);
#61=EDGE_CURVE('',#52,#52,#43,.T.);
#62=EDGE_CURVE('',#53,#53,#44,.T.);
#63=EDGE_CURVE('',#54,#54,#45,.T.);
#64=EDGE_CURVE('',#54,#53,#36,.T.);
#65=EDGE_CURVE('',#55,#55,#46,.T.);
#66=EDGE_CURVE('',#55,#56,#37,.T.);
#67=EDGE_CURVE('',#57,#56,#47,.T.);
#68=EDGE_CURVE('',#56,#57,#48,.T.);
#69=EDGE_CURVE('',#51,#57,#49,.T.);
#70=ORIENTED_EDGE('',*,*,#58,.T.);
#71=ORIENTED_EDGE('',*,*,#59,.T.);
#72=ORIENTED_EDGE('',*,*,#60,.T.);
#73=ORIENTED_EDGE('',*,*,#61,.F.);
#74=ORIENTED_EDGE('',*,*,#60,.F.);
#75=ORIENTED_EDGE('',*,*,#62,.F.);
#76=ORIENTED_EDGE('',*,*,#61,.T.);
#77=ORIENTED_EDGE('',*,*,#63,.F.);
#78=ORIENTED_EDGE('',*,*,#64,.T.);
#79=ORIENTED_EDGE('',*,*,#62,.T.);
#80=ORIENTED_EDGE('',*,*,#64,.F.);
#81=ORIENTED_EDGE('',*,*,#63,.T.);
#82=ORIENTED_EDGE('',*,*,#65,.F.);
#83=ORIENTED_EDGE('',*,*,#65,.T.);
#84=ORIENTED_EDGE('',*,*,#66,.T.);
#85=ORIENTED_EDGE('',*,*,#67,.F.);
#86=ORIENTED_EDGE('',*,*,#68,.F.);
#87=ORIENTED_EDGE('',*,*,#66,.F.);
#88=ORIENTED_EDGE('',*,*,#58,.F.);
#89=ORIENTED_EDGE('',*,*,#59,.F.);
#90=ORIENTED_EDGE('',*,*,#69,.T.);
#91=ORIENTED_EDGE('',*,*,#67,.T.);
#92=ORIENTED_EDGE('',*,*,#68,.T.);
#93=ORIENTED_EDGE('',*,*,#69,.F.);
#94=CONICAL_SURFACE('',#116,15.5162437718571,0.147300937349002);
#95=CONICAL_SURFACE('',#126,15.1701513666156,0.213368642151808);
#96=ADVANCED_FACE('',(#21),#94,.F.);
#97=ADVANCED_FACE('',(#22,#17),#19,.T.);
#98=ADVANCED_FACE('',(#23),#16,.T.);
#99=ADVANCED_FACE('',(#24,#18),#20,.T.);
#100=ADVANCED_FACE('',(#25),#95,.F.);
#101=ADVANCED_FACE('',(#26),#15,.T.);
#102=CLOSED_SHELL('',(#96,#97,#98,#99,#100,#101));
#103=DERIVED_UNIT_ELEMENT(#105,1.);
#104=DERIVED_UNIT_ELEMENT(#198,-3.);
#105=(
MASS_UNIT()
NAMED_UNIT(*)
SI_UNIT(.KILO.,.GRAM.)
);
#106=DERIVED_UNIT((#103,#104));
#107=MEASURE_REPRESENTATION_ITEM('density measure',
POSITIVE_RATIO_MEASURE(7850.),#106);
#108=PROPERTY_DEFINITION_REPRESENTATION(#113,#110);
#109=PROPERTY_DEFINITION_REPRESENTATION(#114,#111);
#110=REPRESENTATION('material name',(#112),#195);
#111=REPRESENTATION('density',(#107),#195);
#112=DESCRIPTIVE_REPRESENTATION_ITEM('Acier','Acier');
#113=PROPERTY_DEFINITION('material property','material name',#205);
#114=PROPERTY_DEFINITION('material property','density of part',#205);
#115=AXIS2_PLACEMENT_3D('',#166,#131,#132);
#116=AXIS2_PLACEMENT_3D('',#167,#133,#134);
#117=AXIS2_PLACEMENT_3D('',#170,#135,#136);
#118=AXIS2_PLACEMENT_3D('',#171,#137,#138);
#119=AXIS2_PLACEMENT_3D('',#174,#140,#141);
#120=AXIS2_PLACEMENT_3D('',#175,#142,#143);
#121=AXIS2_PLACEMENT_3D('',#177,#144,#145);
#122=AXIS2_PLACEMENT_3D('',#178,#146,#147);
#123=AXIS2_PLACEMENT_3D('',#180,#148,#149);
#124=AXIS2_PLACEMENT_3D('',#182,#151,#152);
#125=AXIS2_PLACEMENT_3D('',#184,#153,#154);
#126=AXIS2_PLACEMENT_3D('',#185,#155,#156);
#127=AXIS2_PLACEMENT_3D('',#189,#158,#159);
#128=AXIS2_PLACEMENT_3D('',#190,#160,#161);
#129=AXIS2_PLACEMENT_3D('',#191,#162,#163);
#130=AXIS2_PLACEMENT_3D('',#192,#164,#165);
#131=DIRECTION('axis',(0.,0.,1.));
#132=DIRECTION('refdir',(1.,0.,0.));
#133=DIRECTION('center_axis',(0.,0.,1.));
#134=DIRECTION('ref_axis',(0.,1.,0.));
#135=DIRECTION('center_axis',(0.,0.,-1.));
#136=DIRECTION('ref_axis',(1.,0.,0.));
#137=DIRECTION('center_axis',(0.,0.,-1.));
#138=DIRECTION('ref_axis',(1.,0.,0.));
#139=DIRECTION('',(-1.79739985593683E-17,-0.146768836303517,0.989170818761912));
#140=DIRECTION('center_axis',(0.,0.,-1.));
#141=DIRECTION('ref_axis',(1.,0.,0.));
#142=DIRECTION('center_axis',(0.,0.,1.));
#143=DIRECTION('ref_axis',(1.,0.,0.));
#144=DIRECTION('center_axis',(0.,0.,-1.));
#145=DIRECTION('ref_axis',(1.,0.,0.));
#146=DIRECTION('center_axis',(0.,0.,-1.));
#147=DIRECTION('ref_axis',(0.,1.,0.));
#148=DIRECTION('center_axis',(0.,0.,-1.));
#149=DIRECTION('ref_axis',(1.,0.,0.));
#150=DIRECTION('',(0.,0.,1.));
#151=DIRECTION('center_axis',(0.,0.,-1.));
#152=DIRECTION('ref_axis',(-1.,0.,0.));
#153=DIRECTION('center_axis',(0.,0.,-1.));
#154=DIRECTION('ref_axis',(1.,0.,0.));
#155=DIRECTION('center_axis',(0.,0.,-1.));
#156=DIRECTION('ref_axis',(0.,1.,0.));
#157=DIRECTION('',(2.59323058619399E-17,0.211753347005806,0.977323140026797));
#158=DIRECTION('center_axis',(0.,0.,-1.));
#159=DIRECTION('ref_axis',(1.,0.,0.));
#160=DIRECTION('center_axis',(0.,0.,-1.));
#161=DIRECTION('ref_axis',(1.,0.,0.));
#162=DIRECTION('center_axis',(0.,0.,-1.));
#163=DIRECTION('ref_axis',(-1.,0.,0.));
#164=DIRECTION('center_axis',(-1.22464679914735E-16,-1.,0.));
#165=DIRECTION('ref_axis',(1.,-1.22464679914735E-16,0.));
#166=CARTESIAN_POINT('',(0.,0.,0.));
#167=CARTESIAN_POINT('Origin',(0.,0.,-10.));
#168=CARTESIAN_POINT('',(-1.71848409544848E-15,-14.0324875437143,-20.));
#169=CARTESIAN_POINT('',(14.0324875437143,-1.71848409544848E-15,-20.));
#170=CARTESIAN_POINT('Origin',(0.,0.,-20.));
#171=CARTESIAN_POINT('Origin',(0.,0.,-20.));
#172=CARTESIAN_POINT('',(-2.0818995585505E-15,-17.,-1.11022302462516E-15));
#173=CARTESIAN_POINT('',(-1.90019182699949E-15,-15.5162437718571,-10.));
#174=CARTESIAN_POINT('Origin',(0.,0.,0.));
#175=CARTESIAN_POINT('Origin',(0.,30.,0.));
#176=CARTESIAN_POINT('',(-3.67394039744206E-15,-30.,0.));
#177=CARTESIAN_POINT('Origin',(0.,0.,0.));
#178=CARTESIAN_POINT('Origin',(0.,0.,-15.));
#179=CARTESIAN_POINT('',(-3.67394039744206E-15,-30.,-30.));
#180=CARTESIAN_POINT('Origin',(0.,0.,-30.));
#181=CARTESIAN_POINT('',(-3.67394039744206E-15,-30.,-15.));
#182=CARTESIAN_POINT('Origin',(0.,16.0712665555337,-30.));
#183=CARTESIAN_POINT('',(-1.96816251454783E-15,-16.0712665555337,-30.));
#184=CARTESIAN_POINT('Origin',(0.,0.,-30.));
#185=CARTESIAN_POINT('Origin',(0.,0.,-25.8410068203777));
#186=CARTESIAN_POINT('',(-1.74745294819349E-15,-14.2690361776974,-21.6820136407554));
#187=CARTESIAN_POINT('',(-1.85780773137066E-15,-15.1701513666156,-25.8410068203777));
#188=CARTESIAN_POINT('',(14.2690361776974,-1.74745294819349E-15,-21.6820136407554));
#189=CARTESIAN_POINT('Origin',(0.,0.,-21.6820136407554));
#190=CARTESIAN_POINT('Origin',(0.,0.,-21.6820136407554));
#191=CARTESIAN_POINT('Origin',(0.,0.,-20.4403065089105));
#192=CARTESIAN_POINT('Origin',(17.,-2.0818995585505E-15,-20.4403065089105));
#193=UNCERTAINTY_MEASURE_WITH_UNIT(LENGTH_MEASURE(0.01),#197,
'DISTANCE_ACCURACY_VALUE',
'Maximum model space distance between geometric entities at asserted c
onnectivities');
#194=UNCERTAINTY_MEASURE_WITH_UNIT(LENGTH_MEASURE(0.01),#197,
'DISTANCE_ACCURACY_VALUE',
'Maximum model space distance between geometric entities at asserted c
onnectivities');
#195=(
GEOMETRIC_REPRESENTATION_CONTEXT(3)
GLOBAL_UNCERTAINTY_ASSIGNED_CONTEXT((#193))
GLOBAL_UNIT_ASSIGNED_CONTEXT((#197,#199,#200))
REPRESENTATION_CONTEXT('','3D')
);
#196=(
GEOMETRIC_REPRESENTATION_CONTEXT(3)
GLOBAL_UNCERTAINTY_ASSIGNED_CONTEXT((#194))
GLOBAL_UNIT_ASSIGNED_CONTEXT((#197,#199,#200))
REPRESENTATION_CONTEXT('','3D')
);
#197=(
LENGTH_UNIT()
NAMED_UNIT(*)
SI_UNIT(.MILLI.,.METRE.)
);
#198=(
LENGTH_UNIT()
NAMED_UNIT(*)
SI_UNIT($,.METRE.)
);
#199=(
NAMED_UNIT(*)
PLANE_ANGLE_UNIT()
SI_UNIT($,.RADIAN.)
);
#200=(
NAMED_UNIT(*)
SI_UNIT($,.STERADIAN.)
SOLID_ANGLE_UNIT()
);
#201=SHAPE_DEFINITION_REPRESENTATION(#202,#203);
#202=PRODUCT_DEFINITION_SHAPE('',$,#205);
#203=SHAPE_REPRESENTATION('',(#115),#195);
#204=PRODUCT_DEFINITION_CONTEXT('part definition',#209,'design');
#205=PRODUCT_DEFINITION('Col tuy\X\E8re graphite 2-H',
'Col tuy\X\E8re graphite 2-H v5',#206,#204);
#206=PRODUCT_DEFINITION_FORMATION('',$,#211);
#207=PRODUCT_RELATED_PRODUCT_CATEGORY('Col tuy\X\E8re graphite 2-H v5',
'Col tuy\X\E8re graphite 2-H v5',(#211));
#208=APPLICATION_PROTOCOL_DEFINITION('international standard',
'automotive_design',2009,#209);
#209=APPLICATION_CONTEXT(
'Core Data for Automotive Mechanical Design Process');
#210=PRODUCT_CONTEXT('part definition',#209,'mechanical');
#211=PRODUCT('Col tuy\X\E8re graphite 2-H',
'Col tuy\X\E8re graphite 2-H v5',$,(#210));
#212=PRESENTATION_STYLE_ASSIGNMENT((#213));
#213=SURFACE_STYLE_USAGE(.BOTH.,#214);
#214=SURFACE_SIDE_STYLE('',(#215));
#215=SURFACE_STYLE_FILL_AREA(#216);
#216=FILL_AREA_STYLE('Acier - Satin\X\E9',(#217));
#217=FILL_AREA_STYLE_COLOUR('Acier - Satin\X\E9',#218);
#218=COLOUR_RGB('Acier - Satin\X\E9',0.627450980392157,0.627450980392157,
0.627450980392157);
ENDSEC;
END-ISO-10303-21;
