  0
SECTION
  2
HEADER
  9
$ACADVER
  1
AC1015
  9
$ACADMAINTVER
 70
     6
  9
$DWGCODEPAGE
  3
ANSI_1252
  9
$INSBASE
 10
0.0
 20
0.0
 30
0.0
  9
$EXTMIN
 10
-39.0
 20
-50.0
 30
0.0
  9
$EXTMAX
 10
39.0
 20
13.1993588885
 30
0.0
  9
$LIMMIN
 10
0.0
 20
0.0
  9
$LIMMAX
 10
420.0
 20
297.0
  9
$ORTHOMODE
 70
     0
  9
$REGENMODE
 70
     1
  9
$FILLMODE
 70
     1
  9
$QTEXTMODE
 70
     0
  9
$MIRRTEXT
 70
     1
  9
$LTSCALE
 40
1.0
  9
$ATTMODE
 70
     1
  9
$TEXTSIZE
 40
3.5
  9
$TRACEWID
 40
1.0
  9
$TEXTSTYLE
  7
Standard
  9
$CLAYER
  8
0
  9
$CELTYPE
  6
ByLayer
  9
$CECOLOR
 62
   256
  9
$CELTSCALE
 40
1.0
  9
$DISPSILH
 70
     0
  9
$DIMSCALE
 40
1.0
  9
$DIMASZ
 40
3.302
  9
$DIMEXO
 40
0.0
  9
$DIMDLI
 40
3.75
  9
$DIMRND
 40
0.0
  9
$DIMDLE
 40
0.0
  9
$DIMEXE
 40
1.0
  9
$DIMTP
 40
0.0
  9
$DIMTM
 40
0.0
  9
$DIMTXT
 40
3.5
  9
$DIMCEN
 40
2.5
  9
$DIMTSZ
 40
0.0
  9
$DIMTOL
 70
     0
  9
$DIMLIM
 70
     0
  9
$DIMTIH
 70
     1
  9
$DIMTOH
 70
     1
  9
$DIMSE1
 70
     0
  9
$DIMSE2
 70
     0
  9
$DIMTAD
 70
     1
  9
$DIMZIN
 70
     1
  9
$DIMBLK
  1

  9
$DIMASO
 70
     1
  9
$DIMSHO
 70
     1
  9
$DIMPOST
  1

  9
$DIMAPOST
  1

  9
$DIMALT
 70
     0
  9
$DIMALTD
 70
     3
  9
$DIMALTF
 40
0.0393700787
  9
$DIMLFAC
 40
1.0
  9
$DIMTOFL
 70
     1
  9
$DIMTVP
 40
0.0
  9
$DIMTIX
 70
     0
  9
$DIMSOXD
 70
     0
  9
$DIMSAH
 70
     0
  9
$DIMBLK1
  1

  9
$DIMBLK2
  1

  9
$DIMSTYLE
  2
ISO-25
  9
$DIMCLRD
 70
     0
  9
$DIMCLRE
 70
     0
  9
$DIMCLRT
 70
     0
  9
$DIMTFAC
 40
1.0
  9
$DIMGAP
 40
1.524
  9
$DIMJUST
 70
     0
  9
$DIMSD1
 70
     0
  9
$DIMSD2
 70
     0
  9
$DIMTOLJ
 70
     0
  9
$DIMTZIN
 70
     1
  9
$DIMALTZ
 70
     0
  9
$DIMALTTZ
 70
     0
  9
$DIMUPT
 70
     0
  9
$DIMDEC
 70
     2
  9
$DIMTDEC
 70
     2
  9
$DIMALTU
 70
     2
  9
$DIMALTTD
 70
     3
  9
$DIMTXSTY
  7
Standard
  9
$DIMAUNIT
 70
     0
  9
$DIMADEC
 70
     2
  9
$DIMALTRND
 40
0.0
  9
$DIMAZIN
 70
     0
  9
$DIMDSEP
 70
    44
  9
$DIMATFIT
 70
     3
  9
$DIMFRAC
 70
     0
  9
$DIMLDRBLK
  1

  9
$DIMLUNIT
 70
     2
  9
$DIMLWD
 70
    -2
  9
$DIMLWE
 70
    -2
  9
$DIMTMOVE
 70
     0
  9
$LUNITS
 70
     2
  9
$LUPREC
 70
     2
  9
$SKETCHINC
 40
1.0
  9
$FILLETRAD
 40
0.0
  9
$AUNITS
 70
     0
  9
$AUPREC
 70
     2
  9
$MENU
  1
.
  9
$ELEVATION
 40
0.0
  9
$PELEVATION
 40
0.0
  9
$THICKNESS
 40
0.0
  9
$LIMCHECK
 70
     0
  9
$CHAMFERA
 40
0.0
  9
$CHAMFERB
 40
0.0
  9
$CHAMFERC
 40
0.0
  9
$CHAMFERD
 40
0.0
  9
$SKPOLY
 70
     0
  9
$TDCREATE
 40
2460188.712409283
  9
$TDUCREATE
 40
2460188.629075949
  9
$TDUPDATE
 40
2460188.712438623
  9
$TDUUPDATE
 40
2460188.62910529
  9
$TDINDWG
 40
0.0000000116
  9
$TDUSRTIMER
 40
0.0000000116
  9
$USRTIMER
 70
     1
  9
$ANGBASE
 50
0.0
  9
$ANGDIR
 70
     0
  9
$PDMODE
 70
     0
  9
$PDSIZE
 40
-1.0
  9
$PLINEWID
 40
0.0
  9
$SPLFRAME
 70
     0
  9
$SPLINETYPE
 70
     6
  9
$SPLINESEGS
 70
     8
  9
$HANDSEED
  5
112
  9
$SURFTAB1
 70
     6
  9
$SURFTAB2
 70
     6
  9
$SURFTYPE
 70
     6
  9
$SURFU
 70
     6
  9
$SURFV
 70
     6
  9
$UCSBASE
  2

  9
$UCSNAME
  2

  9
$UCSORG
 10
0.0
 20
0.0
 30
0.0
  9
$UCSXDIR
 10
1.0
 20
0.0
 30
0.0
  9
$UCSYDIR
 10
0.0
 20
1.0
 30
0.0
  9
$UCSORTHOREF
  2

  9
$UCSORTHOVIEW
 70
     0
  9
$UCSORGTOP
 10
0.0
 20
0.0
 30
0.0
  9
$UCSORGBOTTOM
 10
0.0
 20
0.0
 30
0.0
  9
$UCSORGLEFT
 10
0.0
 20
0.0
 30
0.0
  9
$UCSORGRIGHT
 10
0.0
 20
0.0
 30
0.0
  9
$UCSORGFRONT
 10
0.0
 20
0.0
 30
0.0
  9
$UCSORGBACK
 10
0.0
 20
0.0
 30
0.0
  9
$PUCSBASE
  2

  9
$PUCSNAME
  2

  9
$PUCSORG
 10
0.0
 20
0.0
 30
0.0
  9
$PUCSXDIR
 10
1.0
 20
0.0
 30
0.0
  9
$PUCSYDIR
 10
0.0
 20
1.0
 30
0.0
  9
$PUCSORTHOREF
  2

  9
$PUCSORTHOVIEW
 70
     0
  9
$PUCSORGTOP
 10
0.0
 20
0.0
 30
0.0
  9
$PUCSORGBOTTOM
 10
0.0
 20
0.0
 30
0.0
  9
$PUCSORGLEFT
 10
0.0
 20
0.0
 30
0.0
  9
$PUCSORGRIGHT
 10
0.0
 20
0.0
 30
0.0
  9
$PUCSORGFRONT
 10
0.0
 20
0.0
 30
0.0
  9
$PUCSORGBACK
 10
0.0
 20
0.0
 30
0.0
  9
$USERI1
 70
     0
  9
$USERI2
 70
     0
  9
$USERI3
 70
     0
  9
$USERI4
 70
     0
  9
$USERI5
 70
     0
  9
$USERR1
 40
0.0
  9
$USERR2
 40
0.0
  9
$USERR3
 40
0.0
  9
$USERR4
 40
0.0
  9
$USERR5
 40
0.0
  9
$WORLDVIEW
 70
     1
  9
$SHADEDGE
 70
     3
  9
$SHADEDIF
 70
    70
  9
$TILEMODE
 70
     1
  9
$MAXACTVP
 70
    64
  9
$PINSBASE
 10
0.0
 20
0.0
 30
0.0
  9
$PLIMCHECK
 70
     0
  9
$PEXTMIN
 10
1.0000000000E+20
 20
1.0000000000E+20
 30
1.0000000000E+20
  9
$PEXTMAX
 10
-1.0000000000E+20
 20
-1.0000000000E+20
 30
-1.0000000000E+20
  9
$PLIMMIN
 10
0.0
 20
0.0
  9
$PLIMMAX
 10
420.0
 20
297.0
  9
$UNITMODE
 70
     0
  9
$VISRETAIN
 70
     1
  9
$PLINEGEN
 70
     0
  9
$PSLTSCALE
 70
     1
  9
$TREEDEPTH
 70
  3020
  9
$CMLSTYLE
  2
Standard
  9
$CMLJUST
 70
     0
  9
$CMLSCALE
 40
20.0
  9
$PROXYGRAPHICS
 70
     1
  9
$MEASUREMENT
 70
     1
  9
$CELWEIGHT
370
    -1
  9
$ENDCAPS
280
     0
  9
$JOINSTYLE
280
     0
  9
$LWDISPLAY
290
     1
  9
$INSUNITS
 70
     4
  9
$HYPERLINKBASE
  1

  9
$STYLESHEET
  1

  9
$XEDIT
290
     1
  9
$CEPSNTYPE
380
     0
  9
$PSTYLEMODE
290
     1
  9
$FINGERPRINTGUID
  2
{7b205193-9f39-4905-9b8d-ebb6017ad8e2}
  9
$VERSIONGUID
  2
{FAEB1C32-E019-11D5-929B-00C0DF256EC4}
  9
$EXTNAMES
290
     1
  9
$PSVPSCALE
 40
0.0
  9
$OLESTARTUP
290
     0
  0
ENDSEC
  0
SECTION
  2
CLASSES
  0
CLASS
  1
ACDBDICTIONARYWDFLT
  2
AcDbDictionaryWithDefault
  3
ObjectDBX Classes
 90
        0
280
     0
281
     0
  0
CLASS
  1
VISUALSTYLE
  2
AcDbVisualStyle
  3
ObjectDBX Classes
 90
     4095
280
     0
281
     0
  0
CLASS
  1
MATERIAL
  2
AcDbMaterial
  3
ObjectDBX Classes
 90
     1153
280
     0
281
     0
  0
CLASS
  1
SCALE
  2
AcDbScale
  3
ObjectDBX Classes
 90
     1153
280
     0
281
     0
  0
CLASS
  1
TABLESTYLE
  2
AcDbTableStyle
  3
ObjectDBX Classes
 90
     4095
280
     0
281
     0
  0
CLASS
  1
MLEADERSTYLE
  2
AcDbMLeaderStyle
  3
ACDB_MLEADERSTYLE_CLASS
 90
     4095
280
     0
281
     0
  0
CLASS
  1
SUN
  2
AcDbSun
  3
SCENEOE
 90
     1153
280
     0
281
     0
  0
CLASS
  1
ACDBPLACEHOLDER
  2
AcDbPlaceHolder
  3
ObjectDBX Classes
 90
        0
280
     0
281
     0
  0
CLASS
  1
LAYOUT
  2
AcDbLayout
  3
ObjectDBX Classes
 90
        0
280
     0
281
     0
  0
ENDSEC
  0
SECTION
  2
TABLES
  0
TABLE
  2
VPORT
  5
8
330
0
100
AcDbSymbolTable
 70
     1
  0
VPORT
  5
29
330
8
100
AcDbSymbolTableRecord
100
AcDbViewportTableRecord
  2
*Active
 70
     0
 10
0.0
 20
0.0
 11
1.0
 21
1.0
 12
0.0
 22
-18.4003205557
 13
0.0
 23
0.0
 14
10.0
 24
10.0
 15
10.0
 25
10.0
 16
0.0
 26
0.0
 36
1.0
 17
0.0
 27
0.0
 37
0.0
 40
64.4633460663
 41
1.234189735
 42
50.0
 43
0.0
 44
0.0
 50
0.0
 51
0.0
 71
     0
 72
   100
 73
     1
 74
     3
 75
     0
 76
     0
 77
     0
 78
     0
281
     0
 65
     1
110
0.0
120
0.0
130
0.0
111
1.0
121
0.0
131
0.0
112
0.0
122
1.0
132
0.0
 79
     0
146
0.0
  0
ENDTAB
  0
TABLE
  2
LTYPE
  5
5
330
0
100
AcDbSymbolTable
 70
     6
  0
LTYPE
  5
14
330
5
100
AcDbSymbolTableRecord
100
AcDbLinetypeTableRecord
  2
ByBlock
 70
     0
  3

 72
    65
 73
     0
 40
0.0
  0
LTYPE
  5
15
330
5
100
AcDbSymbolTableRecord
100
AcDbLinetypeTableRecord
  2
ByLayer
 70
     0
  3

 72
    65
 73
     0
 40
0.0
  0
LTYPE
  5
16
330
5
100
AcDbSymbolTableRecord
100
AcDbLinetypeTableRecord
  2
Continuous
 70
     0
  3
Solid line
 72
    65
 73
     0
 40
0.0
  0
LTYPE
  5
5E
330
5
100
AcDbSymbolTableRecord
100
AcDbLinetypeTableRecord
  2
HIDDEN
 70
     0
  3
Hidden __ __ __ __ __ __ __ __ __ __ __ __ __ __
 72
    65
 73
     2
 40
1.905
 49
1.27
 74
     0
 49
-0.635
 74
     0
  0
LTYPE
  5
5F
330
5
100
AcDbSymbolTableRecord
100
AcDbLinetypeTableRecord
  2
PHANTOM
 70
     0
  3
Phantom ______  __  __  ______  __  __  ______
 72
    65
 73
     6
 40
12.7
 49
6.35
 74
     0
 49
-1.27
 74
     0
 49
1.27
 74
     0
 49
-1.27
 74
     0
 49
1.27
 74
     0
 49
-1.27
 74
     0
  0
LTYPE
  5
60
330
5
100
AcDbSymbolTableRecord
100
AcDbLinetypeTableRecord
  2
CENTER
 70
     0
  3
Center ____ _ ____ _ ____ _ ____ _ ____ _ ____
 72
    65
 73
     4
 40
10.16
 49
6.35
 74
     0
 49
-1.27
 74
     0
 49
1.27
 74
     0
 49
-1.27
 74
     0
  0
LTYPE
  5
61
330
5
100
AcDbSymbolTableRecord
100
AcDbLinetypeTableRecord
  2
CENTERX2
 70
     0
  3
Center (2x) ________  __  ________  __  _____
 72
    65
 73
     4
 40
20.32
 49
12.7
 74
     0
 49
-2.54
 74
     0
 49
2.54
 74
     0
 49
-2.54
 74
     0
  0
LTYPE
  5
62
330
5
100
AcDbSymbolTableRecord
100
AcDbLinetypeTableRecord
  2
DOT2
 70
     0
  3
Dot (.5x) ........................................
 72
    65
 73
     2
 40
0.635
 49
0.0
 74
     0
 49
-0.635
 74
     0
  0
ENDTAB
  0
TABLE
  2
LAYER
  5
2
330
0
100
AcDbSymbolTable
 70
     1
  0
LAYER
  5
10
330
2
100
AcDbSymbolTableRecord
100
AcDbLayerTableRecord
  2
0
 70
     0
 62
     7
  6
Continuous
370
    -3
390
F
  0
ENDTAB
  0
TABLE
  2
STYLE
  5
3
330
0
100
AcDbSymbolTable
 70
     2
  0
STYLE
  5
11
330
3
100
AcDbSymbolTableRecord
100
AcDbTextStyleTableRecord
  2
Standard
 70
     0
 40
0.0
 41
1.0
 50
0.0
 71
     0
 42
3.5
  3
txt
  4

  0
STYLE
  5
10F
330
3
100
AcDbSymbolTableRecord
100
AcDbTextStyleTableRecord
  2
SLDTEXTSTYLE0
 70
     0
 40
0.0
 41
0.7
 50
0.0
 71
     0
 42
3.5
  3
TXT
  4
bigfont
  0
ENDTAB
  0
TABLE
  2
VIEW
  5
6
330
0
100
AcDbSymbolTable
 70
     0
  0
ENDTAB
  0
TABLE
  2
UCS
  5
7
330
0
100
AcDbSymbolTable
 70
     0
  0
ENDTAB
  0
TABLE
  2
APPID
  5
9
330
0
100
AcDbSymbolTable
 70
     1
  0
APPID
  5
12
330
9
100
AcDbSymbolTableRecord
100
AcDbRegAppTableRecord
  2
ACAD
 70
     0
  0
ENDTAB
  0
TABLE
  2
DIMSTYLE
  5
A
330
0
100
AcDbSymbolTable
 70
     1
100
AcDbDimStyleTable
  0
DIMSTYLE
105
27
330
A
100
AcDbSymbolTableRecord
100
AcDbDimStyleTableRecord
  2
ISO-25
 70
     0
 41
2.5
 42
0.625
 43
3.75
 44
1.25
 73
     0
 74
     0
 77
     1
 78
     8
140
2.5
141
2.5
143
0.0393700787
147
0.625
171
     3
172
     1
178
     0
271
     2
272
     2
274
     3
278
    44
283
     0
284
     8
340
11
  0
ENDTAB
  0
TABLE
  2
BLOCK_RECORD
  5
1
330
0
100
AcDbSymbolTable
 70
     1
  0
BLOCK_RECORD
  5
1F
330
1
100
AcDbSymbolTableRecord
100
AcDbBlockTableRecord
  2
*Model_Space
340
22
  0
BLOCK_RECORD
  5
1B
330
1
100
AcDbSymbolTableRecord
100
AcDbBlockTableRecord
  2
*Paper_Space
340
1E
  0
BLOCK_RECORD
  5
23
330
1
100
AcDbSymbolTableRecord
100
AcDbBlockTableRecord
  2
*Paper_Space0
340
26
  0
ENDTAB
  0
ENDSEC
  0
SECTION
  2
BLOCKS
  0
BLOCK
  5
20
330
1F
100
AcDbEntity
  8
0
100
AcDbBlockBegin
  2
*Model_Space
 70
     0
 10
0.0
 20
0.0
 30
0.0
  3
*Model_Space
  1

  0
ENDBLK
  5
21
330
1F
100
AcDbEntity
  8
0
100
AcDbBlockEnd
  0
BLOCK
  5
1C
330
1B
100
AcDbEntity
 67
     1
  8
0
100
AcDbBlockBegin
  2
*Paper_Space
 70
     0
 10
0.0
 20
0.0
 30
0.0
  3
*Paper_Space
  1

  0
ENDBLK
  5
1D
330
1B
100
AcDbEntity
 67
     1
  8
0
100
AcDbBlockEnd
  0
BLOCK
  5
24
330
23
100
AcDbEntity
  8
0
100
AcDbBlockBegin
  2
*Paper_Space0
 70
     0
 10
0.0
 20
0.0
 30
0.0
  3
*Paper_Space0
  1

  0
ENDBLK
  5
25
330
23
100
AcDbEntity
  8
0
100
AcDbBlockEnd
  0
ENDSEC
  0
SECTION
  2
ENTITIES
  0
SPLINE
  5
63
330
1F
100
AcDbEntity
  8
0
  6
Continuous
 62
     7
370
    25
100
AcDbSpline
210
0.0
220
0.0
230
1.0
 70
     8
 71
     3
 72
    15
 73
    11
 74
     0
 42
0.00000001
 43
0.00000001
 40
0.0
 40
0.0
 40
0.0
 40
0.0
 40
0.1268560773098802
 40
0.2472528826355022
 40
0.3619329232386033
 40
0.4750526184743223
 40
0.5933277280144009
 40
0.7168978777558057
 40
0.8532977817968773
 40
1.0
 40
1.0
 40
1.0
 40
1.0
 10
2.071572580645183
 20
-43.95161290322581
 30
0.0
 10
2.094303743606046
 20
-43.96961909415624
 30
0.0
 10
2.138608641620523
 20
-44.00471463476609
 30
0.0
 10
2.194224918596931
 20
-44.06681514124211
 30
0.0
 10
2.233257244848824
 20
-44.13649958158694
 30
0.0
 10
2.262596613183487
 20
-44.21048873108232
 30
0.0
 10
2.272874623721593
 20
-44.29148110159023
 30
0.0
 10
2.27367820360489
 20
-44.37810998047768
 30
0.0
 10
2.257360279226086
 20
-44.47006134259975
 30
0.0
 10
2.238568472837667
 20
-44.5319445191762
 30
0.0
 10
2.228830645161312
 20
-44.56401209677419
 30
0.0
  0
SPLINE
  5
64
330
1F
100
AcDbEntity
  8
0
  6
Continuous
 62
     7
370
    25
100
AcDbSpline
210
0.0
220
0.0
230
1.0
 70
     8
 71
     3
 72
    15
 73
    11
 74
     0
 42
0.00000001
 43
0.00000001
 40
0.0
 40
0.0
 40
0.0
 40
0.0
 40
0.1107323293909951
 40
0.2281425498077969
 40
0.3574270651020103
 40
0.4962474796765253
 40
0.6353678433856024
 40
0.7656160302542752
 40
0.8862672772954416
 40
1.0
 40
1.0
 40
1.0
 40
1.0
 10
2.975806451612926
 20
-43.22580645161291
 30
0.0
 10
2.95407578613238
 20
-43.26373664723205
 30
0.0
 10
2.909303952477132
 20
-43.34188447985558
 30
0.0
 10
2.820191482662658
 20
-43.45171211075662
 30
0.0
 10
2.713180101159958
 20
-43.55988477422095
 30
0.0
 10
2.589603881580286
 20
-43.66261672981754
 30
0.0
 10
2.459935027754007
 20
-43.75822848085
 30
0.0
 10
2.328050672952991
 20
-43.83741376513186
 30
0.0
 10
2.20090742198623
 20
-43.90520748583424
 30
0.0
 10
2.113827387625978
 20
-43.93645185354723
 30
0.0
 10
2.071572580645183
 20
-43.95161290322581
 30
0.0
  0
SPLINE
  5
66
330
1F
100
AcDbEntity
  8
0
  6
Continuous
 62
     7
370
    25
100
AcDbSpline
210
0.0
220
0.0
230
1.0
 70
     8
 71
     3
 72
    11
 73
     7
 74
     0
 42
0.00000001
 43
0.00000001
 40
0.0
 40
0.0
 40
0.0
 40
0.0
 40
0.2141954615714609
 40
0.4519157847108906
 40
0.7147847940891277
 40
1.0
 40
1.0
 40
1.0
 40
1.0
 10
3.790826612903248
 20
-41.69405241935485
 30
0.0
 10
3.775625607004962
 20
-41.73504877614269
 30
0.0
 10
3.743554084767656
 20
-41.82154407633313
 30
0.0
 10
3.683871723748942
 20
-41.95476638364906
 30
0.0
 10
3.611356168030875
 20
-42.09786769307802
 30
0.0
 10
3.556347500136337
 20
-42.19527721599048
 30
0.0
 10
3.52772177419357
 20
-42.24596774193548
 30
0.0
  0
SPLINE
  5
67
330
1F
100
AcDbEntity
  8
0
  6
Continuous
 62
     7
370
    25
100
AcDbSpline
210
0.0
220
0.0
230
1.0
 70
     8
 71
     3
 72
    23
 73
    19
 74
     0
 42
0.00000001
 43
0.00000001
 40
0.0
 40
0.0
 40
0.0
 40
0.0
 40
0.1079736151769439
 40
0.2075318578631479
 40
0.2968058178050144
 40
0.3778645669625376
 40
0.4490232753180342
 40
0.5122027613682216
 40
0.5664196141700973
 40
0.6134515245192586
 40
0.6555096137926721
 40
0.6950730312767965
 40
0.7349075890038659
 40
0.7771890253717599
 40
0.8237513236299744
 40
0.8759794316042724
 40
0.9346843871441323
 40
1.0
 40
1.0
 40
1.0
 40
1.0
 10
2.73084677419357
 20
-41.00000000000001
 30
0.0
 10
2.788319135254165
 20
-40.99996646024864
 30
0.0
 10
2.898784510032446
 20
-40.99990199480582
 30
0.0
 10
3.056567722634998
 20
-41.00833058706056
 30
0.0
 10
3.19984275042087
 20
-41.01830835392818
 30
0.0
 10
3.327675935223668
 20
-41.03263063329302
 30
0.0
 10
3.440422487216192
 20
-41.05319199653169
 30
0.0
 10
3.538905669796928
 20
-41.07360129291715
 30
0.0
 10
3.621188650598554
 20
-41.10370902672866
 30
0.0
 10
3.691479673980524
 20
-41.1340075391824
 30
0.0
 10
3.74743796536375
 20
-41.17437797772786
 30
0.0
 10
3.791594555957053
 20
-41.22232296708643
 30
0.0
 10
3.822367947245188
 20
-41.28007354050728
 30
0.0
 10
3.840310291621686
 20
-41.34664413777195
 30
0.0
 10
3.84587659155656
 20
-41.42193013431085
 30
0.0
 10
3.838433757491319
 20
-41.50558153530364
 30
0.0
 10
3.822663036532076
 20
-41.59829522541958
 30
0.0
 10
3.801809276157096
 20
-41.6610189031727
 30
0.0
 10
3.790826612903248
 20
-41.69405241935484
 30
0.0
  0
SPLINE
  5
69
330
1F
100
AcDbEntity
  8
0
  6
Continuous
 62
     7
370
    25
100
AcDbSpline
210
0.0
220
0.0
230
1.0
 70
     8
 71
     3
 72
    23
 73
    19
 74
     0
 42
0.00000001
 43
0.00000001
 40
0.0
 40
0.0
 40
0.0
 40
0.0
 40
0.0830002526980768
 40
0.1595135354571528
 40
0.2285483699900656
 40
0.2912831050881486
 40
0.3496780418284112
 40
0.405634594645996
 40
0.4596930162388346
 40
0.5119836656837923
 40
0.5640661462850751
 40
0.6176254442164287
 40
0.671350695783304
 40
0.7272667873508215
 40
0.7870911823169566
 40
0.8521448702630462
 40
0.9230854829416697
 40
1.0
 40
1.0
 40
1.0
 40
1.0
 10
-1.463709677419333
 20
-42.29586693548387
 30
0.0
 10
-1.425144485757352
 20
-42.23020324531782
 30
0.0
 10
-1.351028204570079
 20
-42.10400787808621
 30
0.0
 10
-1.24094138367062
 20
-41.92541186455223
 30
0.0
 10
-1.130486709113202
 20
-41.76937867683286
 30
0.0
 10
-1.026309015517599
 20
-41.62934755821326
 30
0.0
 10
-0.9197354948755946
 20
-41.50640445889886
 30
0.0
 10
-0.807442054642404
 20
-41.39988104961624
 30
0.0
 10
-0.6892908433213035
 20
-41.30876799660442
 30
0.0
 10
-0.5652418296059394
 20
-41.23253844320123
 30
0.0
 10
-0.435152736221584
 20
-41.16822461749721
 30
0.0
 10
-0.2983871622860773
 20
-41.11599369600069
 30
0.0
 10
-0.1543855572918642
 20
-41.07407558007751
 30
0.0
 10
-0.0011692966454756
 20
-41.04650384543405
 30
0.0
 10
0.1634038532096198
 20
-41.02543722466721
 30
0.0
 10
0.3425173096439609
 20
-41.01062211094751
 30
0.0
 10
0.5377075408583424
 20
-41.00155609667821
 30
0.0
 10
0.673376411030349
 20
-41.00053248481816
 30
0.0
 10
0.7439516129032477
 20
-41.0
 30
0.0
  0
SPLINE
  5
6C
330
1F
100
AcDbEntity
  8
0
  6
Continuous
 62
     7
370
    25
100
AcDbSpline
210
0.0
220
0.0
230
1.0
 70
     8
 71
     3
 72
    15
 73
    11
 74
     0
 42
0.00000001
 43
0.00000001
 40
0.0
 40
0.0
 40
0.0
 40
0.0
 40
0.1435488502291952
 40
0.2678114936492093
 40
0.3760254015908857
 40
0.4777614736534721
 40
0.5815505582981403
 40
0.69816513432525
 40
0.8343147911251392
 40
1.0
 40
1.0
 40
1.0
 40
1.0
 10
0.6426411290322799
 20
-42.06451612903226
 30
0.0
 10
0.5780716513627817
 20
-42.06596367606159
 30
0.0
 10
0.4576077937198409
 20
-42.06866428795384
 30
0.0
 10
0.2892505647126984
 20
-42.08818189417386
 30
0.0
 10
0.1431212745445157
 20
-42.12681894855778
 30
0.0
 10
0.0163395039670447
 20
-42.19117255447031
 30
0.0
 10
-0.0979210083301879
 20
-42.28158897070428
 30
0.0
 10
-0.2050838247817713
 20
-42.40177583262226
 30
0.0
 10
-0.3103169302952995
 20
-42.55827680556681
 30
0.0
 10
-0.3764824181702121
 20
-42.67684838251854
 30
0.0
 10
-0.4128024193548168
 20
-42.74193548387097
 30
0.0
  0
SPLINE
  5
6E
330
1F
100
AcDbEntity
  8
0
  6
Continuous
 62
     7
370
    25
100
AcDbSpline
210
0.0
220
0.0
230
1.0
 70
     8
 71
     3
 72
    15
 73
    11
 74
     0
 42
0.00000001
 43
0.00000001
 40
0.0
 40
0.0
 40
0.0
 40
0.0
 40
0.1198948125867316
 40
0.21435994355381
 40
0.2901081637781667
 40
0.3642127093405048
 40
0.4627573328305747
 40
0.599532276402049
 40
0.7789248890315602
 40
1.0
 40
1.0
 40
1.0
 40
1.0
 10
2.169858870967763
 20
-42.36995967741935
 30
0.0
 10
2.178040645069677
 20
-42.34101073146678
 30
0.0
 10
2.192668839541287
 20
-42.28925290903515
 30
0.0
 10
2.197861205820144
 20
-42.21550756635246
 30
0.0
 10
2.175876410093242
 20
-42.15545154797952
 30
0.0
 10
2.125255680551458
 20
-42.11527300365353
 30
0.0
 10
2.050485225805467
 20
-42.09197170322329
 30
0.0
 10
1.947784891457618
 20
-42.07500682297178
 30
0.0
 10
1.813165357884586
 20
-42.06551229151302
 30
0.0
 10
1.712712363504669
 20
-42.0648704517253
 30
0.0
 10
1.65725806451615
 20
-42.06451612903226
 30
0.0
  0
SPLINE
  5
6F
330
1F
100
AcDbEntity
  8
0
  6
Continuous
 62
     7
370
    25
100
AcDbSpline
210
0.0
220
0.0
230
1.0
 70
     8
 71
     3
 72
    11
 73
     7
 74
     0
 42
0.00000001
 43
0.00000001
 40
0.0
 40
0.0
 40
0.0
 40
0.0
 40
0.3538679788708919
 40
0.6372826035130313
 40
0.8537492644303067
 40
1.0
 40
1.0
 40
1.0
 40
1.0
 10
1.991431451612925
 20
-42.74193548387097
 30
0.0
 10
2.013490574675284
 20
-42.69853196893583
 30
0.0
 10
2.053216959134396
 20
-42.62036636297246
 30
0.0
 10
2.107979216396485
 20
-42.51638973651671
 30
0.0
 10
2.143849471242928
 20
-42.43498108912971
 30
0.0
 10
2.162385134201352
 20
-42.3886434194682
 30
0.0
 10
2.169858870967763
 20
-42.36995967741935
 30
0.0
  0
SPLINE
  5
71
330
1F
100
AcDbEntity
  8
0
  6
Continuous
 62
     7
370
    25
100
AcDbSpline
210
0.0
220
0.0
230
1.0
 70
     8
 71
     3
 72
    17
 73
    13
 74
     0
 42
0.00000001
 43
0.00000001
 40
0.0
 40
0.0
 40
0.0
 40
0.0
 40
0.1652179492288406
 40
0.2957221402124209
 40
0.403575922688759
 40
0.5021014008158463
 40
0.6001015638229588
 40
0.7058862779146643
 40
0.7661783752265565
 40
0.835741974702808
 40
0.9133386300684145
 40
1.0
 40
1.0
 40
1.0
 40
1.0
 10
0.9042338709677631
 20
-43.41935483870968
 30
0.0
 10
0.9732991163098166
 20
-43.41893528465975
 30
0.0
 10
1.096918385657839
 20
-43.41818432859137
 30
0.0
 10
1.265455009076789
 20
-43.40944032823295
 30
0.0
 10
1.405119913112471
 20
-43.3870370266511
 30
0.0
 10
1.524693317683028
 20
-43.34052727601654
 30
0.0
 10
1.629877577823354
 20
-43.26827641637625
 30
0.0
 10
1.70395651729554
 20
-43.18552995509761
 30
0.0
 10
1.763062832267735
 20
-43.10674077538382
 30
0.0
 10
1.810232866342249
 20
-43.03392461652349
 30
0.0
 10
1.86383537388465
 20
-42.9522091876199
 30
0.0
 10
1.899849833054234
 20
-42.89374730219502
 30
0.0
 10
1.918850806451634
 20
-42.86290322580645
 30
0.0
  0
SPLINE
  5
75
330
1F
100
AcDbEntity
  8
0
  6
Continuous
 62
     7
370
    25
100
AcDbSpline
210
0.0
220
0.0
230
1.0
 70
     8
 71
     3
 72
    15
 73
    11
 74
     0
 42
0.00000001
 43
0.00000001
 40
0.0
 40
0.0
 40
0.0
 40
0.0
 40
0.1408474128281346
 40
0.2583036394072093
 40
0.3591537660272542
 40
0.4577316332131377
 40
0.5624997192144228
 40
0.6833366712087723
 40
0.8283757327075774
 40
1.0
 40
1.0
 40
1.0
 40
1.0
 10
0.8256048387096987
 20
-44.75907258064516
 30
0.0
 10
0.8322598100860974
 20
-44.73760548540115
 30
0.0
 10
0.844464530727805
 20
-44.69823643546486
 30
0.0
 10
0.8458532533877628
 20
-44.64060231033118
 30
0.0
 10
0.83621010794377
 20
-44.59059037853465
 30
0.0
 10
0.8092043616119691
 20
-44.54853414668617
 30
0.0
 10
0.7648608218442037
 20
-44.52084592186734
 30
0.0
 10
0.7109186760733975
 20
-44.49655720832488
 30
0.0
 10
0.6414209002931847
 20
-44.48669449847458
 30
0.0
 10
0.5912198925332751
 20
-44.48486338777687
 30
0.0
 10
0.5640120967742154
 20
-44.48387096774194
 30
0.0
  0
SPLINE
  5
76
330
1F
100
AcDbEntity
  8
0
  6
Continuous
 62
     7
370
    25
100
AcDbSpline
210
0.0
220
0.0
230
1.0
 70
     8
 71
     3
 72
    11
 73
     7
 74
     0
 42
0.00000001
 43
0.00000001
 40
0.0
 40
0.0
 40
0.0
 40
0.0
 40
0.3444164350336437
 40
0.62659098585456
 40
0.8416822594500074
 40
1.0
 40
1.0
 40
1.0
 40
1.0
 10
0.6486895161290536
 20
-45.12046370967742
 30
0.0
 10
0.6704947921984005
 20
-45.07970645165403
 30
0.0
 10
0.710164761570763
 20
-45.00555746255856
 30
0.0
 10
0.761693213706716
 20
-44.90503014097465
 30
0.0
 10
0.7990479572577841
 20
-44.82531890825864
 30
0.0
 10
0.8176977220743332
 20
-44.77879693871984
 30
0.0
 10
0.8256048387096987
 20
-44.75907258064516
 30
0.0
  0
SPLINE
  5
78
330
1F
100
AcDbEntity
  8
0
  6
Continuous
 62
     7
370
    25
100
AcDbSpline
210
0.0
220
0.0
230
1.0
 70
     8
 71
     3
 72
    19
 73
    15
 74
     0
 42
0.00000001
 43
0.00000001
 40
0.0
 40
0.0
 40
0.0
 40
0.0
 40
0.0841220958618589
 40
0.1594559263878669
 40
0.2260097653482743
 40
0.2851781908752344
 40
0.3901351397888829
 40
0.4871531981377375
 40
0.5869164473742513
 40
0.6970279338040192
 40
0.7599585164819223
 40
0.8315232377953976
 40
0.9108720554915112
 40
0.9999999999999999
 40
0.9999999999999999
 40
0.9999999999999999
 40
0.9999999999999999
 10
-0.4732862903225593
 20
-45.93548387096774
 30
0.0
 10
-0.4349696170787631
 20
-45.93528993354671
 30
0.0
 10
-0.3623392271010343
 20
-45.93492231941612
 30
0.0
 10
-0.2595504752471175
 20
-45.92966361457014
 30
0.0
 10
-0.1680452554320761
 20
-45.92486567867427
 30
0.0
 10
-0.0639389287127
 20
-45.91083378399887
 30
0.0
 10
0.0530103972698455
 20
-45.88495125605974
 30
0.0
 10
0.1763544552519872
 20
-45.82107574668416
 30
0.0
 10
0.2834990912214989
 20
-45.72969716295907
 30
0.0
 10
0.360492243303414
 20
-45.63155714509063
 30
0.0
 10
0.4231307686990557
 20
-45.53945294030719
 30
0.0
 10
0.4738475726036135
 20
-45.45627894411881
 30
0.0
 10
0.5291701648888264
 20
-45.36197372116787
 30
0.0
 10
0.5648133298864284
 20
-45.29401577640991
 30
0.0
 10
0.5836693548387315
 20
-45.25806451612903
 30
0.0
  0
SPLINE
  5
7A
330
1F
100
AcDbEntity
  8
0
  6
Continuous
 62
     7
370
    25
100
AcDbSpline
210
0.0
220
0.0
230
1.0
 70
     8
 71
     3
 72
    15
 73
    11
 74
     0
 42
0.00000001
 43
0.00000001
 40
0.0
 40
0.0
 40
0.0
 40
0.0
 40
0.1278846102128879
 40
0.2257688691648864
 40
0.3078738885660194
 40
0.3827364216234353
 40
0.4795347514824594
 40
0.6138841255858577
 40
0.7862132600687571
 40
0.9999999999999999
 40
0.9999999999999999
 40
0.9999999999999999
 40
0.9999999999999999
 10
-1.992943548387075
 20
-45.60735887096774
 30
0.0
 10
-2.002574192047923
 20
-45.63830424577191
 30
0.0
 10
-2.019576234162452
 20
-45.69293554396945
 30
0.0
 10
-2.022792731986012
 20
-45.77131859618744
 30
0.0
 10
-2.004828867560696
 20
-45.83555957942617
 30
0.0
 10
-1.955468433561143
 20
-45.88054863732993
 30
0.0
 10
-1.88123138798773
 20
-45.90507032369981
 30
0.0
 10
-1.781157768489356
 20
-45.92390969261885
 30
0.0
 10
-1.649810636422646
 20
-45.93252907454278
 30
0.0
 10
-1.552414645723721
 20
-45.93443087289815
 30
0.0
 10
-1.498487903225785
 20
-45.93548387096774
 30
0.0
  0
SPLINE
  5
7B
330
1F
100
AcDbEntity
  8
0
  6
Continuous
 62
     7
370
    25
100
AcDbSpline
210
0.0
220
0.0
230
1.0
 70
     8
 71
     3
 72
    11
 73
     7
 74
     0
 42
0.00000001
 43
0.00000001
 40
0.0
 40
0.0
 40
0.0
 40
0.0
 40
0.3019194332642996
 40
0.5669572557057636
 40
0.7988394127985493
 40
1.0
 40
1.0
 40
1.0
 40
1.0
 10
-1.831149193548365
 20
-45.25806451612903
 30
0.0
 10
-1.849693822390251
 20
-45.29213934215613
 30
0.0
 10
-1.884517721476845
 20
-45.35612651132936
 30
0.0
 10
-1.927630092769737
 20
-45.44925574224647
 30
0.0
 10
-1.965383750567448
 20
-45.53065793710645
 30
0.0
 10
-1.984201958998898
 20
-45.58303038808506
 30
0.0
 10
-1.992943548387075
 20
-45.60735887096774
 30
0.0
  0
SPLINE
  5
7E
330
1F
100
AcDbEntity
  8
0
  6
Continuous
 62
     7
370
    25
100
AcDbSpline
210
0.0
220
0.0
230
1.0
 70
     8
 71
     3
 72
    11
 73
     7
 74
     0
 42
0.00000001
 43
0.00000001
 40
0.0
 40
0.0
 40
0.0
 40
0.0
 40
0.2146400782491489
 40
0.4519990146495793
 40
0.71471562646136
 40
1.0
 40
1.0
 40
1.0
 40
1.0
 10
-3.621471774193527
 20
-46.27721774193548
 30
0.0
 10
-3.605807210795983
 20
-46.23469080973344
 30
0.0
 10
-3.572820047921455
 20
-46.14513562689809
 30
0.0
 10
-3.51088893756892
 20
-46.00748755739959
 30
0.0
 10
-3.439452627223914
 20
-45.85783439598667
 30
0.0
 10
-3.383144268943696
 20
-45.75675439956405
 30
0.0
 10
-3.353830645161269
 20
-45.70413306451613
 30
0.0
  0
SPLINE
  5
7F
330
1F
100
AcDbEntity
  8
0
  6
Continuous
 62
     7
370
    25
100
AcDbSpline
210
0.0
220
0.0
230
1.0
 70
     8
 71
     3
 72
    23
 73
    19
 74
     0
 42
0.00000001
 43
0.00000001
 40
0.0
 40
0.0
 40
0.0
 40
0.0
 40
0.107200546022503
 40
0.2051067269501197
 40
0.2937415034709929
 40
0.3734027157292068
 40
0.4440519421857283
 40
0.5060845274706905
 40
0.5593517799523201
 40
0.605609382571371
 40
0.6471753332213721
 40
0.6866799445073382
 40
0.7266296922237891
 40
0.7701899355226197
 40
0.8182291272455166
 40
0.871959150776088
 40
0.9324473535759482
 40
1.0
 40
1.0
 40
1.0
 40
1.0
 10
-2.581149193548365
 20
-47.0
 30
0.0
 10
-2.638625129528694
 20
-47.00006874443021
 30
0.0
 10
-2.748593796151392
 20
-47.00020027309866
 30
0.0
 10
-2.905828584484548
 20
-46.9913800300027
 30
0.0
 10
-3.048295526864734
 20
-46.98248420307849
 30
0.0
 10
-3.175281060113937
 20
-46.96507261873394
 30
0.0
 10
-3.287470735669217
 20
-46.9460473365235
 30
0.0
 10
-3.384783185428768
 20
-46.92334211440749
 30
0.0
 10
-3.465644722309384
 20
-46.89193461282503
 30
0.0
 10
-3.534267343836225
 20
-46.85977985869829
 30
0.0
 10
-3.589574997693926
 20
-46.81842921422753
 30
0.0
 10
-3.629282018961392
 20
-46.76643194156278
 30
0.0
 10
-3.659523653702755
 20
-46.70732614576733
 30
0.0
 10
-3.675439392242641
 20
-46.6379550568122
 30
0.0
 10
-3.678889872901323
 20
-46.55994191153214
 30
0.0
 10
-3.673187012827039
 20
-46.4728938284117
 30
0.0
 10
-3.652029821283703
 20
-46.37749902523608
 30
0.0
 10
-3.632025688287928
 20
-46.31185215578096
 30
0.0
 10
-3.621471774193527
 20
-46.27721774193548
 30
0.0
  0
SPLINE
  5
81
330
1F
100
AcDbEntity
  8
0
  6
Continuous
 62
     7
370
    25
100
AcDbSpline
210
0.0
220
0.0
230
1.0
 70
     8
 71
     3
 72
    23
 73
    19
 74
     0
 42
0.00000001
 43
0.00000001
 40
0.0
 40
0.0
 40
0.0
 40
0.0
 40
0.0799273873582859
 40
0.1536065055079385
 40
0.2209756851404356
 40
0.281891901646733
 40
0.3385243776708154
 40
0.393069593215399
 40
0.4463146533716519
 40
0.4985677237461157
 40
0.5505413950614819
 40
0.6039286926356501
 40
0.6591619503046351
 40
0.7165182614282379
 40
0.7776631133628421
 40
0.8456775892120191
 40
0.919580747153957
 40
1.0
 40
1.0
 40
1.0
 40
1.0
 10
1.608870967741957
 20
-45.7132056451613
 30
0.0
 10
1.572955313454063
 20
-45.77692978600613
 30
0.0
 10
1.50393168675319
 20
-45.89939647627581
 30
0.0
 10
1.398663325981636
 20
-46.07213073374194
 30
0.0
 10
1.294558327773507
 20
-46.22499660648292
 30
0.0
 10
1.191852058857465
 20
-46.35947094032941
 30
0.0
 10
1.091009132328397
 20
-46.48085274876687
 30
0.0
 10
0.9799079562103313
 20
-46.58265325150392
 30
0.0
 10
0.8676907574633148
 20
-46.6771213758111
 30
0.0
 10
0.7451123953814794
 20
-46.75361869588212
 30
0.0
 10
0.6167478992815076
 20
-46.81972650695344
 30
0.0
 10
0.4799197443478018
 20
-46.87394706421072
 30
0.0
 10
0.3344209327223457
 20
-46.91827010091402
 30
0.0
 10
0.1782966244046104
 20
-46.9494008891972
 30
0.0
 10
0.0090101027390441
 20
-46.97176704293066
 30
0.0
 10
-0.1761659632479591
 20
-46.98780307365872
 30
0.0
 10
-0.379402689016558
 20
-46.99890239120471
 30
0.0
 10
-0.5206489285497099
 20
-46.99962397438158
 30
0.0
 10
-0.5942540322580429
 20
-47.0
 30
0.0
  0
SPLINE
  5
83
330
1F
100
AcDbEntity
  8
0
  6
Continuous
 62
     7
370
    25
100
AcDbSpline
210
0.0
220
0.0
230
1.0
 70
     8
 71
     3
 72
    11
 73
     7
 74
     0
 42
0.00000001
 43
0.00000001
 40
0.0
 40
0.0
 40
0.0
 40
0.0
 40
0.2239493769408235
 40
0.4557437035648185
 40
0.7008654582233063
 40
1.0
 40
1.0
 40
1.0
 40
1.0
 10
2.228830645161312
 20
-44.56401209677419
 30
0.0
 10
2.225014406157118
 20
-44.57468937647283
 30
0.0
 10
2.217248245245139
 20
-44.59641796112138
 30
0.0
 10
2.201177727000786
 20
-44.62806397713454
 30
0.0
 10
2.184275894492658
 20
-44.66350403223598
 30
0.0
 10
2.170093387120976
 20
-44.68712063309721
 30
0.0
 10
2.162298387096796
 20
-44.70010080645162
 30
0.0
  0
SPLINE
  5
84
330
1F
100
AcDbEntity
  8
0
  6
Continuous
 62
     7
370
    25
100
AcDbSpline
210
0.0
220
0.0
230
1.0
 70
     8
 71
     3
 72
    15
 73
    11
 74
     0
 42
0.00000001
 43
0.00000001
 40
0.0
 40
0.0
 40
0.0
 40
0.0
 40
0.1268560773098811
 40
0.2472528826355029
 40
0.3619329232386039
 40
0.4750526184743223
 40
0.593327728014401
 40
0.7168978777558057
 40
0.8532977817968772
 40
1.0
 40
1.0
 40
1.0
 40
1.0
 10
7.878024193548407
 20
-43.9516129032258
 30
0.0
 10
7.900755356509272
 20
-43.96961909415624
 30
0.0
 10
7.945060254523748
 20
-44.00471463476607
 30
0.0
 10
8.000676531500154
 20
-44.06681514124209
 30
0.0
 10
8.039708857752052
 20
-44.13649958158694
 30
0.0
 10
8.06904822608671
 20
-44.21048873108233
 30
0.0
 10
8.079326236624818
 20
-44.29148110159021
 30
0.0
 10
8.080129816508116
 20
-44.37810998047767
 30
0.0
 10
8.063811892129312
 20
-44.47006134259975
 30
0.0
 10
8.045020085740891
 20
-44.53194451917619
 30
0.0
 10
8.035282258064536
 20
-44.56401209677419
 30
0.0
  0
SPLINE
  5
85
330
1F
100
AcDbEntity
  8
0
  6
Continuous
 62
     7
370
    25
100
AcDbSpline
210
0.0
220
0.0
230
1.0
 70
     8
 71
     3
 72
    15
 73
    11
 74
     0
 42
0.00000001
 43
0.00000001
 40
0.0
 40
0.0
 40
0.0
 40
0.0
 40
0.110732329390995
 40
0.2281425498077968
 40
0.3574270651020096
 40
0.4962474796765255
 40
0.6353678433856014
 40
0.765616030254274
 40
0.8862672772954404
 40
1.0
 40
1.0
 40
1.0
 40
1.0
 10
8.782258064516151
 20
-43.2258064516129
 30
0.0
 10
8.760527399035604
 20
-43.26373664723204
 30
0.0
 10
8.715755565380357
 20
-43.34188447985557
 30
0.0
 10
8.626643095565884
 20
-43.45171211075661
 30
0.0
 10
8.519631714063184
 20
-43.55988477422095
 30
0.0
 10
8.396055494483509
 20
-43.66261672981752
 30
0.0
 10
8.266386640657233
 20
-43.75822848084998
 30
0.0
 10
8.134502285856215
 20
-43.83741376513186
 30
0.0
 10
8.007359034889458
 20
-43.90520748583423
 30
0.0
 10
7.920279000529202
 20
-43.93645185354722
 30
0.0
 10
7.878024193548407
 20
-43.9516129032258
 30
0.0
  0
SPLINE
  5
87
330
1F
100
AcDbEntity
  8
0
  6
Continuous
 62
     7
370
    25
100
AcDbSpline
210
0.0
220
0.0
230
1.0
 70
     8
 71
     3
 72
    11
 73
     7
 74
     0
 42
0.00000001
 43
0.00000001
 40
0.0
 40
0.0
 40
0.0
 40
0.0
 40
0.2141954615714587
 40
0.4519157847108861
 40
0.7147847940891205
 40
1.0
 40
1.0
 40
1.0
 40
1.0
 10
9.597278225806473
 20
-41.69405241935483
 30
0.0
 10
9.582077219908188
 20
-41.73504877614267
 30
0.0
 10
9.550005697670883
 20
-41.82154407633314
 30
0.0
 10
9.490323336652164
 20
-41.95476638364905
 30
0.0
 10
9.417807780934101
 20
-42.09786769307802
 30
0.0
 10
9.362799113039562
 20
-42.19527721599048
 30
0.0
 10
9.334173387096795
 20
-42.24596774193548
 30
0.0
  0
SPLINE
  5
88
330
1F
100
AcDbEntity
  8
0
  6
Continuous
 62
     7
370
    25
100
AcDbSpline
210
0.0
220
0.0
230
1.0
 70
     8
 71
     3
 72
    23
 73
    19
 74
     0
 42
0.00000001
 43
0.00000001
 40
0.0
 40
0.0
 40
0.0
 40
0.0
 40
0.1079736151769438
 40
0.2075318578631483
 40
0.2968058178050147
 40
0.3778645669625385
 40
0.4490232753180337
 40
0.512202761368223
 40
0.5664196141700973
 40
0.6134515245192584
 40
0.6555096137926721
 40
0.6950730312767964
 40
0.734907589003862
 40
0.7771890253717602
 40
0.8237513236299746
 40
0.8759794316042725
 40
0.934684387144128
 40
1.0
 40
1.0
 40
1.0
 40
1.0
 10
8.537298387096794
 20
-40.99999999999999
 30
0.0
 10
8.594770748157389
 20
-40.99996646024861
 30
0.0
 10
8.70523612293567
 20
-40.9999019948058
 30
0.0
 10
8.863019335538223
 20
-41.00833058706055
 30
0.0
 10
9.006294363324097
 20
-41.01830835392818
 30
0.0
 10
9.134127548126894
 20
-41.03263063329301
 30
0.0
 10
9.24687410011942
 20
-41.05319199653167
 30
0.0
 10
9.345357282700148
 20
-41.07360129291715
 30
0.0
 10
9.427640263501782
 20
-41.10370902672865
 30
0.0
 10
9.497931286883748
 20
-41.13400753918238
 30
0.0
 10
9.553889578266975
 20
-41.17437797772784
 30
0.0
 10
9.598046168860273
 20
-41.22232296708643
 30
0.0
 10
9.62881956014842
 20
-41.28007354050728
 30
0.0
 10
9.646761904524908
 20
-41.34664413777194
 30
0.0
 10
9.652328204459787
 20
-41.42193013431084
 30
0.0
 10
9.644885370394546
 20
-41.50558153530365
 30
0.0
 10
9.629114649435303
 20
-41.59829522541957
 30
0.0
 10
9.60826088906032
 20
-41.66101890317268
 30
0.0
 10
9.597278225806473
 20
-41.69405241935483
 30
0.0
  0
SPLINE
  5
8A
330
1F
100
AcDbEntity
  8
0
  6
Continuous
 62
     7
370
    25
100
AcDbSpline
210
0.0
220
0.0
230
1.0
 70
     8
 71
     3
 72
    23
 73
    19
 74
     0
 42
0.00000001
 43
0.00000001
 40
0.0
 40
0.0
 40
0.0
 40
0.0
 40
0.0830002526980768
 40
0.1595135354571528
 40
0.2285483699900656
 40
0.2912831050881484
 40
0.3496780418284113
 40
0.405634594645996
 40
0.4596930162388345
 40
0.5119836656837934
 40
0.5640661462850752
 40
0.6176254442164288
 40
0.6713506957833034
 40
0.7272667873508214
 40
0.7870911823169566
 40
0.8521448702630461
 40
0.9230854829416697
 40
1.0
 40
1.0
 40
1.0
 40
1.0
 10
4.342741935483893
 20
-42.29586693548387
 30
0.0
 10
4.381307127145875
 20
-42.23020324531782
 30
0.0
 10
4.455423408333147
 20
-42.10400787808622
 30
0.0
 10
4.565510229232604
 20
-41.92541186455221
 30
0.0
 10
4.675964903790023
 20
-41.76937867683285
 30
0.0
 10
4.780142597385626
 20
-41.62934755821325
 30
0.0
 10
4.886716118027633
 20
-41.50640445889886
 30
0.0
 10
4.99900955826082
 20
-41.39988104961622
 30
0.0
 10
5.117160769581925
 20
-41.30876799660442
 30
0.0
 10
5.241209783297282
 20
-41.23253844320121
 30
0.0
 10
5.371298876681642
 20
-41.16822461749722
 30
0.0
 10
5.508064450617147
 20
-41.11599369600066
 30
0.0
 10
5.652066055611364
 20
-41.07407558007754
 30
0.0
 10
5.805282316257747
 20
-41.04650384543403
 30
0.0
 10
5.969855466112843
 20
-41.02543722466719
 30
0.0
 10
6.148968922547189
 20
-41.01062211094753
 30
0.0
 10
6.344159153761566
 20
-41.00155609667819
 30
0.0
 10
6.479828023933575
 20
-41.00053248481815
 30
0.0
 10
6.550403225806473
 20
-40.99999999999999
 30
0.0
  0
SPLINE
  5
8D
330
1F
100
AcDbEntity
  8
0
  6
Continuous
 62
     7
370
    25
100
AcDbSpline
210
0.0
220
0.0
230
1.0
 70
     8
 71
     3
 72
    15
 73
    11
 74
     0
 42
0.00000001
 43
0.00000001
 40
0.0
 40
0.0
 40
0.0
 40
0.0
 40
0.1435488502291952
 40
0.2678114936492093
 40
0.3760254015908857
 40
0.4777614736534721
 40
0.5815505582981403
 40
0.69816513432525
 40
0.8343147911251392
 40
1.0
 40
1.0
 40
1.0
 40
1.0
 10
6.449092741935505
 20
-42.06451612903226
 30
0.0
 10
6.384523264266007
 20
-42.06596367606157
 30
0.0
 10
6.264059406623067
 20
-42.06866428795384
 30
0.0
 10
6.095702177615922
 20
-42.08818189417385
 30
0.0
 10
5.949572887447743
 20
-42.12681894855778
 30
0.0
 10
5.822791116870269
 20
-42.19117255447029
 30
0.0
 10
5.708530604573039
 20
-42.28158897070427
 30
0.0
 10
5.601367788121454
 20
-42.40177583262225
 30
0.0
 10
5.496134682607926
 20
-42.5582768055668
 30
0.0
 10
5.429969194733014
 20
-42.67684838251854
 30
0.0
 10
5.393649193548408
 20
-42.74193548387096
 30
0.0
  0
SPLINE
  5
8F
330
1F
100
AcDbEntity
  8
0
  6
Continuous
 62
     7
370
    25
100
AcDbSpline
210
0.0
220
0.0
230
1.0
 70
     8
 71
     3
 72
    15
 73
    11
 74
     0
 42
0.00000001
 43
0.00000001
 40
0.0
 40
0.0
 40
0.0
 40
0.0
 40
0.1198948125867316
 40
0.2143599435538101
 40
0.290108163778167
 40
0.3642127093405051
 40
0.4627573328305721
 40
0.5995322764020482
 40
0.7789248890315598
 40
1.0
 40
1.0
 40
1.0
 40
1.0
 10
7.976310483870988
 20
-42.36995967741935
 30
0.0
 10
7.984492257972903
 20
-42.34101073146678
 30
0.0
 10
7.999120452444511
 20
-42.28925290903515
 30
0.0
 10
8.00431281872337
 20
-42.21550756635246
 30
0.0
 10
7.982328022996469
 20
-42.15545154797952
 30
0.0
 10
7.93170729345468
 20
-42.11527300365352
 30
0.0
 10
7.856936838708695
 20
-42.09197170322332
 30
0.0
 10
7.754236504360842
 20
-42.07500682297177
 30
0.0
 10
7.619616970787815
 20
-42.06551229151302
 30
0.0
 10
7.519163976407894
 20
-42.06487045172528
 30
0.0
 10
7.463709677419375
 20
-42.06451612903226
 30
0.0
  0
SPLINE
  5
90
330
1F
100
AcDbEntity
  8
0
  6
Continuous
 62
     7
370
    25
100
AcDbSpline
210
0.0
220
0.0
230
1.0
 70
     8
 71
     3
 72
    11
 73
     7
 74
     0
 42
0.00000001
 43
0.00000001
 40
0.0
 40
0.0
 40
0.0
 40
0.0
 40
0.3538679788708918
 40
0.6372826035130321
 40
0.8537492644302913
 40
1.0
 40
1.0
 40
1.0
 40
1.0
 10
7.79788306451615
 20
-42.74193548387096
 30
0.0
 10
7.819942187578507
 20
-42.69853196893582
 30
0.0
 10
7.859668572037619
 20
-42.62036636297245
 30
0.0
 10
7.914430829299709
 20
-42.51638973651669
 30
0.0
 10
7.950301084146155
 20
-42.43498108912972
 30
0.0
 10
7.968836747104576
 20
-42.38864341946817
 30
0.0
 10
7.976310483870988
 20
-42.36995967741935
 30
0.0
  0
SPLINE
  5
92
330
1F
100
AcDbEntity
  8
0
  6
Continuous
 62
     7
370
    25
100
AcDbSpline
210
0.0
220
0.0
230
1.0
 70
     8
 71
     3
 72
    17
 73
    13
 74
     0
 42
0.00000001
 43
0.00000001
 40
0.0
 40
0.0
 40
0.0
 40
0.0
 40
0.1652179492288406
 40
0.2957221402124209
 40
0.403575922688759
 40
0.5021014008158463
 40
0.6001015638229588
 40
0.7058862779146643
 40
0.7661783752265565
 40
0.835741974702808
 40
0.9133386300684145
 40
1.0
 40
1.0
 40
1.0
 40
1.0
 10
6.710685483870988
 20
-43.41935483870967
 30
0.0
 10
6.779750729213043
 20
-43.41893528465975
 30
0.0
 10
6.903369998561065
 20
-43.41818432859137
 30
0.0
 10
7.071906621980014
 20
-43.40944032823294
 30
0.0
 10
7.211571526015698
 20
-43.38703702665109
 30
0.0
 10
7.331144930586254
 20
-43.34052727601653
 30
0.0
 10
7.436329190726579
 20
-43.26827641637624
 30
0.0
 10
7.510408130198765
 20
-43.18552995509761
 30
0.0
 10
7.569514445170961
 20
-43.10674077538381
 30
0.0
 10
7.616684479245474
 20
-43.03392461652348
 30
0.0
 10
7.670286986787875
 20
-42.95220918761989
 30
0.0
 10
7.706301445957461
 20
-42.89374730219502
 30
0.0
 10
7.725302419354859
 20
-42.86290322580644
 30
0.0
  0
SPLINE
  5
96
330
1F
100
AcDbEntity
  8
0
  6
Continuous
 62
     7
370
    25
100
AcDbSpline
210
0.0
220
0.0
230
1.0
 70
     8
 71
     3
 72
    15
 73
    11
 74
     0
 42
0.00000001
 43
0.00000001
 40
0.0
 40
0.0
 40
0.0
 40
0.0
 40
0.1408474128281343
 40
0.2583036394072087
 40
0.3591537660272676
 40
0.4577316332131387
 40
0.5624997192144237
 40
0.6833366712087728
 40
0.8283757327075777
 40
0.9999999999999999
 40
0.9999999999999999
 40
0.9999999999999999
 40
0.9999999999999999
 10
6.632056451612924
 20
-44.75907258064515
 30
0.0
 10
6.638711422989322
 20
-44.73760548540115
 30
0.0
 10
6.65091614363103
 20
-44.69823643546487
 30
0.0
 10
6.652304866290986
 20
-44.64060231033115
 30
0.0
 10
6.642661720847
 20
-44.59059037853464
 30
0.0
 10
6.615655974515191
 20
-44.54853414668618
 30
0.0
 10
6.571312434747433
 20
-44.52084592186736
 30
0.0
 10
6.517370288976622
 20
-44.49655720832487
 30
0.0
 10
6.44787251319641
 20
-44.48669449847458
 30
0.0
 10
6.397671505436501
 20
-44.48486338777688
 30
0.0
 10
6.37046370967744
 20
-44.48387096774193
 30
0.0
  0
SPLINE
  5
97
330
1F
100
AcDbEntity
  8
0
  6
Continuous
 62
     7
370
    25
100
AcDbSpline
210
0.0
220
0.0
230
1.0
 70
     8
 71
     3
 72
    11
 73
     7
 74
     0
 42
0.00000001
 43
0.00000001
 40
0.0
 40
0.0
 40
0.0
 40
0.0
 40
0.3444164350336437
 40
0.62659098585456
 40
0.8416822594500074
 40
1.0
 40
1.0
 40
1.0
 40
1.0
 10
6.455141129032279
 20
-45.12046370967742
 30
0.0
 10
6.476946405101626
 20
-45.07970645165402
 30
0.0
 10
6.51661637447399
 20
-45.00555746255855
 30
0.0
 10
6.56814482660994
 20
-44.90503014097465
 30
0.0
 10
6.605499570161009
 20
-44.82531890825863
 30
0.0
 10
6.624149334977559
 20
-44.77879693871984
 30
0.0
 10
6.632056451612924
 20
-44.75907258064515
 30
0.0
  0
SPLINE
  5
99
330
1F
100
AcDbEntity
  8
0
  6
Continuous
 62
     7
370
    25
100
AcDbSpline
210
0.0
220
0.0
230
1.0
 70
     8
 71
     3
 72
    19
 73
    15
 74
     0
 42
0.00000001
 43
0.00000001
 40
0.0
 40
0.0
 40
0.0
 40
0.0
 40
0.0841220958618592
 40
0.1594559263878676
 40
0.2260097653482754
 40
0.2851781908752357
 40
0.3901351397888847
 40
0.4871531981377397
 40
0.586916447374254
 40
0.6970279338040223
 40
0.7599585164819256
 40
0.8315232377954014
 40
0.9108720554915153
 40
1.0
 40
1.0
 40
1.0
 40
1.0
 10
5.333165322580667
 20
-45.93548387096774
 30
0.0
 10
5.371481995824464
 20
-45.93528993354671
 30
0.0
 10
5.444112385802192
 20
-45.93492231941611
 30
0.0
 10
5.546901137656109
 20
-45.92966361457013
 30
0.0
 10
5.638406357471147
 20
-45.92486567867425
 30
0.0
 10
5.742512684190528
 20
-45.91083378399887
 30
0.0
 10
5.859462010173067
 20
-45.88495125605971
 30
0.0
 10
5.982806068155216
 20
-45.82107574668418
 30
0.0
 10
6.089950704124721
 20
-45.72969716295905
 30
0.0
 10
6.166943856206641
 20
-45.63155714509062
 30
0.0
 10
6.229582381602281
 20
-45.53945294030716
 30
0.0
 10
6.280299185506839
 20
-45.45627894411881
 30
0.0
 10
6.335621777792049
 20
-45.36197372116786
 30
0.0
 10
6.371264942789653
 20
-45.29401577640991
 30
0.0
 10
6.390120967741957
 20
-45.25806451612903
 30
0.0
  0
SPLINE
  5
9B
330
1F
100
AcDbEntity
  8
0
  6
Continuous
 62
     7
370
    25
100
AcDbSpline
210
0.0
220
0.0
230
1.0
 70
     8
 71
     3
 72
    15
 73
    11
 74
     0
 42
0.00000001
 43
0.00000001
 40
0.0
 40
0.0
 40
0.0
 40
0.0
 40
0.1278846102128879
 40
0.2257688691648864
 40
0.3078738885660194
 40
0.3827364216234353
 40
0.4795347514824594
 40
0.6138841255858571
 40
0.7862132600687579
 40
0.9999999999999999
 40
0.9999999999999999
 40
0.9999999999999999
 40
0.9999999999999999
 10
3.81350806451615
 20
-45.60735887096774
 30
0.0
 10
3.803877420855302
 20
-45.63830424577191
 30
0.0
 10
3.786875378740771
 20
-45.69293554396945
 30
0.0
 10
3.783658880917216
 20
-45.77131859618743
 30
0.0
 10
3.80162274534253
 20
-45.83555957942618
 30
0.0
 10
3.850983179342081
 20
-45.88054863732992
 30
0.0
 10
3.925220224915495
 20
-45.9050703236998
 30
0.0
 10
4.02529384441387
 20
-45.92390969261884
 30
0.0
 10
4.156640976480579
 20
-45.93252907454278
 30
0.0
 10
4.254036967179504
 20
-45.93443087289813
 30
0.0
 10
4.30796370967744
 20
-45.93548387096774
 30
0.0
  0
SPLINE
  5
9C
330
1F
100
AcDbEntity
  8
0
  6
Continuous
 62
     7
370
    25
100
AcDbSpline
210
0.0
220
0.0
230
1.0
 70
     8
 71
     3
 72
    11
 73
     7
 74
     0
 42
0.00000001
 43
0.00000001
 40
0.0
 40
0.0
 40
0.0
 40
0.0
 40
0.3019194332642885
 40
0.5669572557057567
 40
0.7988394127985461
 40
1.0
 40
1.0
 40
1.0
 40
1.0
 10
3.97530241935486
 20
-45.25806451612903
 30
0.0
 10
3.956757790512974
 20
-45.29213934215612
 30
0.0
 10
3.921933891426379
 20
-45.35612651132936
 30
0.0
 10
3.878821520133489
 20
-45.44925574224646
 30
0.0
 10
3.841067862335778
 20
-45.53065793710644
 30
0.0
 10
3.822249653904328
 20
-45.58303038808505
 30
0.0
 10
3.813508064516151
 20
-45.60735887096774
 30
0.0
  0
SPLINE
  5
9F
330
1F
100
AcDbEntity
  8
0
  6
Continuous
 62
     7
370
    25
100
AcDbSpline
210
0.0
220
0.0
230
1.0
 70
     8
 71
     3
 72
    11
 73
     7
 74
     0
 42
0.00000001
 43
0.00000001
 40
0.0
 40
0.0
 40
0.0
 40
0.0
 40
0.2146400782491489
 40
0.4519990146495793
 40
0.71471562646136
 40
1.0
 40
1.0
 40
1.0
 40
1.0
 10
2.184979838709698
 20
-46.27721774193547
 30
0.0
 10
2.200644402107243
 20
-46.23469080973343
 30
0.0
 10
2.23363156498177
 20
-46.14513562689807
 30
0.0
 10
2.295562675334305
 20
-46.0074875573996
 30
0.0
 10
2.366998985679311
 20
-45.85783439598666
 30
0.0
 10
2.423307343959531
 20
-45.75675439956404
 30
0.0
 10
2.452620967741957
 20
-45.70413306451612
 30
0.0
  0
SPLINE
  5
A0
330
1F
100
AcDbEntity
  8
0
  6
Continuous
 62
     7
370
    25
100
AcDbSpline
210
0.0
220
0.0
230
1.0
 70
     8
 71
     3
 72
    23
 73
    19
 74
     0
 42
0.00000001
 43
0.00000001
 40
0.0
 40
0.0
 40
0.0
 40
0.0
 40
0.107200546022503
 40
0.2051067269501197
 40
0.2937415034709929
 40
0.3734027157292068
 40
0.4440519421857283
 40
0.5060845274706905
 40
0.5593517799523201
 40
0.605609382571371
 40
0.6471753332213721
 40
0.6866799445073382
 40
0.7266296922237891
 40
0.7701899355226197
 40
0.8182291272455166
 40
0.871959150776088
 40
0.9324473535759482
 40
1.0
 40
1.0
 40
1.0
 40
1.0
 10
3.22530241935486
 20
-46.99999999999999
 30
0.0
 10
3.167826483374531
 20
-47.0000687444302
 30
0.0
 10
3.057857816751833
 20
-47.00020027309866
 30
0.0
 10
2.900623028418678
 20
-46.9913800300027
 30
0.0
 10
2.758156086038491
 20
-46.98248420307848
 30
0.0
 10
2.631170552789288
 20
-46.96507261873393
 30
0.0
 10
2.518980877234007
 20
-46.94604733652348
 30
0.0
 10
2.421668427474458
 20
-46.92334211440748
 30
0.0
 10
2.340806890593839
 20
-46.89193461282504
 30
0.0
 10
2.272184269067003
 20
-46.85977985869828
 30
0.0
 10
2.216876615209297
 20
-46.81842921422753
 30
0.0
 10
2.177169593941833
 20
-46.76643194156277
 30
0.0
 10
2.146927959200472
 20
-46.70732614576733
 30
0.0
 10
2.131012220660583
 20
-46.6379550568122
 30
0.0
 10
2.127561740001902
 20
-46.55994191153213
 30
0.0
 10
2.133264600076186
 20
-46.4728938284117
 30
0.0
 10
2.154421791619521
 20
-46.37749902523606
 30
0.0
 10
2.174425924615297
 20
-46.31185215578095
 30
0.0
 10
2.184979838709698
 20
-46.27721774193547
 30
0.0
  0
SPLINE
  5
A2
330
1F
100
AcDbEntity
  8
0
  6
Continuous
 62
     7
370
    25
100
AcDbSpline
210
0.0
220
0.0
230
1.0
 70
     8
 71
     3
 72
    23
 73
    19
 74
     0
 42
0.00000001
 43
0.00000001
 40
0.0
 40
0.0
 40
0.0
 40
0.0
 40
0.0799273873582859
 40
0.1536065055079385
 40
0.2209756851404356
 40
0.2818919016467331
 40
0.3385243776708155
 40
0.393069593215399
 40
0.446314653371652
 40
0.4985677237461157
 40
0.550541395061482
 40
0.6039286926356502
 40
0.6591619503046352
 40
0.716518261428238
 40
0.7776631133628422
 40
0.8456775892120192
 40
0.9195807471539572
 40
1.0
 40
1.0
 40
1.0
 40
1.0
 10
7.415322580645182
 20
-45.71320564516129
 30
0.0
 10
7.37940692635729
 20
-45.77692978600613
 30
0.0
 10
7.310383299656415
 20
-45.89939647627578
 30
0.0
 10
7.205114938884861
 20
-46.07213073374194
 30
0.0
 10
7.101009940676733
 20
-46.2249966064829
 30
0.0
 10
6.99830367176069
 20
-46.35947094032939
 30
0.0
 10
6.897460745231623
 20
-46.48085274876686
 30
0.0
 10
6.786359569113556
 20
-46.58265325150391
 30
0.0
 10
6.674142370366539
 20
-46.67712137581109
 30
0.0
 10
6.551564008284705
 20
-46.7536186958821
 30
0.0
 10
6.423199512184732
 20
-46.81972650695342
 30
0.0
 10
6.286371357251028
 20
-46.87394706421072
 30
0.0
 10
6.140872545625574
 20
-46.91827010091401
 30
0.0
 10
5.984748237307836
 20
-46.94940088919719
 30
0.0
 10
5.815461715642271
 20
-46.97176704293066
 30
0.0
 10
5.630285649655264
 20
-46.98780307365872
 30
0.0
 10
5.427048923886669
 20
-46.9989023912047
 30
0.0
 10
5.285802684353516
 20
-46.99962397438158
 30
0.0
 10
5.212197580645183
 20
-46.99999999999999
 30
0.0
  0
SPLINE
  5
A4
330
1F
100
AcDbEntity
  8
0
  6
Continuous
 62
     7
370
    25
100
AcDbSpline
210
0.0
220
0.0
230
1.0
 70
     8
 71
     3
 72
    11
 73
     7
 74
     0
 42
0.00000001
 43
0.00000001
 40
0.0
 40
0.0
 40
0.0
 40
0.0
 40
0.223949376940822
 40
0.4557437035648175
 40
0.7008654582233057
 40
1.0
 40
1.0
 40
1.0
 40
1.0
 10
8.035282258064536
 20
-44.56401209677419
 30
0.0
 10
8.031466019060343
 20
-44.57468937647282
 30
0.0
 10
8.023699858148365
 20
-44.59641796112139
 30
0.0
 10
8.00762933990401
 20
-44.62806397713453
 30
0.0
 10
7.990727507395883
 20
-44.66350403223596
 30
0.0
 10
7.976545000024201
 20
-44.6871206330972
 30
0.0
 10
7.968750000000021
 20
-44.70010080645161
 30
0.0
  0
SPLINE
  5
A5
330
1F
100
AcDbEntity
  8
0
  6
Continuous
 62
     7
370
    25
100
AcDbSpline
210
0.0
220
0.0
230
1.0
 70
     8
 71
     3
 72
    15
 73
    11
 74
     0
 42
0.00000001
 43
0.00000001
 40
0.0
 40
0.0
 40
0.0
 40
0.0
 40
0.1268560773098802
 40
0.2472528826355022
 40
0.3619329232386033
 40
0.4750526184743223
 40
0.5933277280144009
 40
0.7168978777558057
 40
0.8532977817968773
 40
1.0
 40
1.0
 40
1.0
 40
1.0
 10
-3.734879032258043
 20
-43.9516129032258
 30
0.0
 10
-3.712147869297179
 20
-43.96961909415624
 30
0.0
 10
-3.667842971282704
 20
-44.00471463476608
 30
0.0
 10
-3.612226694306295
 20
-44.0668151412421
 30
0.0
 10
-3.5731943680544
 20
-44.13649958158693
 30
0.0
 10
-3.543854999719738
 20
-44.21048873108232
 30
0.0
 10
-3.533576989181634
 20
-44.29148110159022
 30
0.0
 10
-3.532773409298335
 20
-44.37810998047767
 30
0.0
 10
-3.54909133367714
 20
-44.47006134259975
 30
0.0
 10
-3.567883140065558
 20
-44.53194451917619
 30
0.0
 10
-3.577620967741914
 20
-44.56401209677419
 30
0.0
  0
SPLINE
  5
A6
330
1F
100
AcDbEntity
  8
0
  6
Continuous
 62
     7
370
    25
100
AcDbSpline
210
0.0
220
0.0
230
1.0
 70
     8
 71
     3
 72
    15
 73
    11
 74
     0
 42
0.00000001
 43
0.00000001
 40
0.0
 40
0.0
 40
0.0
 40
0.0
 40
0.1107323293909951
 40
0.2281425498077969
 40
0.3574270651020103
 40
0.4962474796765253
 40
0.6353678433856024
 40
0.7656160302542752
 40
0.8862672772954416
 40
1.0
 40
1.0
 40
1.0
 40
1.0
 10
-2.830645161290301
 20
-43.2258064516129
 30
0.0
 10
-2.852375826770845
 20
-43.26373664723205
 30
0.0
 10
-2.897147660426094
 20
-43.34188447985557
 30
0.0
 10
-2.986260130240568
 20
-43.45171211075661
 30
0.0
 10
-3.093271511743266
 20
-43.55988477422094
 30
0.0
 10
-3.21684773132294
 20
-43.66261672981752
 30
0.0
 10
-3.346516585149217
 20
-43.75822848084999
 30
0.0
 10
-3.478400939950235
 20
-43.83741376513186
 30
0.0
 10
-3.605544190916995
 20
-43.90520748583424
 30
0.0
 10
-3.692624225277248
 20
-43.93645185354721
 30
0.0
 10
-3.734879032258043
 20
-43.95161290322581
 30
0.0
  0
SPLINE
  5
A8
330
1F
100
AcDbEntity
  8
0
  6
Continuous
 62
     7
370
    25
100
AcDbSpline
210
0.0
220
0.0
230
1.0
 70
     8
 71
     3
 72
    11
 73
     7
 74
     0
 42
0.00000001
 43
0.00000001
 40
0.0
 40
0.0
 40
0.0
 40
0.0
 40
0.2141954615714587
 40
0.4519157847108861
 40
0.7147847940891205
 40
1.0
 40
1.0
 40
1.0
 40
1.0
 10
-2.015624999999977
 20
-41.69405241935483
 30
0.0
 10
-2.030826005898263
 20
-41.73504877614267
 30
0.0
 10
-2.062897528135569
 20
-41.82154407633314
 30
0.0
 10
-2.122579889154284
 20
-41.95476638364905
 30
0.0
 10
-2.195095444872352
 20
-42.09786769307802
 30
0.0
 10
-2.250104112766888
 20
-42.19527721599048
 30
0.0
 10
-2.278729838709656
 20
-42.24596774193548
 30
0.0
  0
SPLINE
  5
A9
330
1F
100
AcDbEntity
  8
0
  6
Continuous
 62
     7
370
    25
100
AcDbSpline
210
0.0
220
0.0
230
1.0
 70
     8
 71
     3
 72
    23
 73
    19
 74
     0
 42
0.00000001
 43
0.00000001
 40
0.0
 40
0.0
 40
0.0
 40
0.0
 40
0.1079736151769439
 40
0.2075318578631479
 40
0.2968058178050143
 40
0.3778645669625376
 40
0.4490232753180333
 40
0.5122027613682227
 40
0.5664196141700971
 40
0.6134515245192582
 40
0.6555096137926719
 40
0.6950730312767963
 40
0.7349075890038618
 40
0.77718902537176
 40
0.8237513236299745
 40
0.8759794316042725
 40
0.934684387144128
 40
1.0
 40
1.0
 40
1.0
 40
1.0
 10
-3.075604838709656
 20
-40.99999999999999
 30
0.0
 10
-3.01813247764906
 20
-40.99996646024862
 30
0.0
 10
-2.907667102870779
 20
-40.9999019948058
 30
0.0
 10
-2.749883890268229
 20
-41.00833058706056
 30
0.0
 10
-2.606608862482354
 20
-41.01830835392816
 30
0.0
 10
-2.478775677679559
 20
-41.03263063329301
 30
0.0
 10
-2.366029125687029
 20
-41.05319199653168
 30
0.0
 10
-2.2675459431063
 20
-41.07360129291715
 30
0.0
 10
-2.18526296230467
 20
-41.10370902672864
 30
0.0
 10
-2.114971938922701
 20
-41.13400753918238
 30
0.0
 10
-2.059013647539474
 20
-41.17437797772784
 30
0.0
 10
-2.014857056946174
 20
-41.22232296708643
 30
0.0
 10
-1.984083665658035
 20
-41.28007354050728
 30
0.0
 10
-1.96614132128154
 20
-41.34664413777195
 30
0.0
 10
-1.960575021346667
 20
-41.42193013431083
 30
0.0
 10
-1.968017855411904
 20
-41.50558153530364
 30
0.0
 10
-1.983788576371151
 20
-41.59829522541957
 30
0.0
 10
-2.004642336746128
 20
-41.66101890317268
 30
0.0
 10
-2.015624999999977
 20
-41.69405241935483
 30
0.0
  0
SPLINE
  5
AB
330
1F
100
AcDbEntity
  8
0
  6
Continuous
 62
     7
370
    25
100
AcDbSpline
210
0.0
220
0.0
230
1.0
 70
     8
 71
     3
 72
    23
 73
    19
 74
     0
 42
0.00000001
 43
0.00000001
 40
0.0
 40
0.0
 40
0.0
 40
0.0
 40
0.0830002526980768
 40
0.1595135354571528
 40
0.2285483699900656
 40
0.2912831050881484
 40
0.3496780418284113
 40
0.405634594645996
 40
0.4596930162388345
 40
0.5119836656837934
 40
0.5640661462850752
 40
0.6176254442164288
 40
0.6713506957833034
 40
0.7272667873508214
 40
0.7870911823169566
 40
0.8521448702630461
 40
0.9230854829416697
 40
1.0
 40
1.0
 40
1.0
 40
1.0
 10
-7.27016129032256
 20
-42.29586693548387
 30
0.0
 10
-7.231596098660577
 20
-42.23020324531782
 30
0.0
 10
-7.157479817473305
 20
-42.10400787808622
 30
0.0
 10
-7.047392996573844
 20
-41.92541186455221
 30
0.0
 10
-6.936938322016427
 20
-41.76937867683285
 30
0.0
 10
-6.832760628420824
 20
-41.62934755821325
 30
0.0
 10
-6.726187107778821
 20
-41.50640445889886
 30
0.0
 10
-6.613893667545629
 20
-41.39988104961622
 30
0.0
 10
-6.495742456224529
 20
-41.30876799660442
 30
0.0
 10
-6.371693442509167
 20
-41.23253844320121
 30
0.0
 10
-6.241604349124808
 20
-41.16822461749722
 30
0.0
 10
-6.104838775189304
 20
-41.11599369600066
 30
0.0
 10
-5.960837170195088
 20
-41.07407558007754
 30
0.0
 10
-5.807620909548702
 20
-41.04650384543403
 30
0.0
 10
-5.643047759693604
 20
-41.02543722466719
 30
0.0
 10
-5.463934303259266
 20
-41.01062211094753
 30
0.0
 10
-5.268744072044883
 20
-41.00155609667819
 30
0.0
 10
-5.133075201872876
 20
-41.00053248481815
 30
0.0
 10
-5.062499999999978
 20
-40.99999999999999
 30
0.0
  0
SPLINE
  5
AE
330
1F
100
AcDbEntity
  8
0
  6
Continuous
 62
     7
370
    25
100
AcDbSpline
210
0.0
220
0.0
230
1.0
 70
     8
 71
     3
 72
    15
 73
    11
 74
     0
 42
0.00000001
 43
0.00000001
 40
0.0
 40
0.0
 40
0.0
 40
0.0
 40
0.1435488502291952
 40
0.2678114936492093
 40
0.3760254015908857
 40
0.4777614736534721
 40
0.5815505582981403
 40
0.69816513432525
 40
0.8343147911251392
 40
1.0
 40
1.0
 40
1.0
 40
1.0
 10
-5.163810483870946
 20
-42.06451612903226
 30
0.0
 10
-5.228379961540445
 20
-42.06596367606157
 30
0.0
 10
-5.348843819183386
 20
-42.06866428795384
 30
0.0
 10
-5.517201048190525
 20
-42.08818189417385
 30
0.0
 10
-5.663330338358712
 20
-42.12681894855778
 30
0.0
 10
-5.79011210893618
 20
-42.19117255447029
 30
0.0
 10
-5.904372621233415
 20
-42.28158897070427
 30
0.0
 10
-6.011535437684995
 20
-42.40177583262225
 30
0.0
 10
-6.116768543198526
 20
-42.5582768055668
 30
0.0
 10
-6.182934031073438
 20
-42.67684838251854
 30
0.0
 10
-6.219254032258042
 20
-42.74193548387096
 30
0.0
  0
SPLINE
  5
B0
330
1F
100
AcDbEntity
  8
0
  6
Continuous
 62
     7
370
    25
100
AcDbSpline
210
0.0
220
0.0
230
1.0
 70
     8
 71
     3
 72
    15
 73
    11
 74
     0
 42
0.00000001
 43
0.00000001
 40
0.0
 40
0.0
 40
0.0
 40
0.0
 40
0.1198948125867318
 40
0.2143599435538103
 40
0.2901081637781671
 40
0.3642127093405053
 40
0.4627573328305722
 40
0.5995322764020483
 40
0.7789248890315598
 40
1.0
 40
1.0
 40
1.0
 40
1.0
 10
-3.636592741935462
 20
-42.36995967741935
 30
0.0
 10
-3.628410967833549
 20
-42.34101073146677
 30
0.0
 10
-3.613782773361939
 20
-42.28925290903516
 30
0.0
 10
-3.608590407083082
 20
-42.21550756635245
 30
0.0
 10
-3.630575202809985
 20
-42.15545154797952
 30
0.0
 10
-3.681195932351767
 20
-42.11527300365353
 30
0.0
 10
-3.755966387097761
 20
-42.09197170322329
 30
0.0
 10
-3.858666721445607
 20
-42.07500682297178
 30
0.0
 10
-3.99328625501864
 20
-42.06551229151301
 30
0.0
 10
-4.093739249398556
 20
-42.06487045172528
 30
0.0
 10
-4.149193548387075
 20
-42.06451612903226
 30
0.0
  0
SPLINE
  5
B1
330
1F
100
AcDbEntity
  8
0
  6
Continuous
 62
     7
370
    25
100
AcDbSpline
210
0.0
220
0.0
230
1.0
 70
     8
 71
     3
 72
    11
 73
     7
 74
     0
 42
0.00000001
 43
0.00000001
 40
0.0
 40
0.0
 40
0.0
 40
0.0
 40
0.3538679788708919
 40
0.6372826035130311
 40
0.8537492644302912
 40
1.0
 40
1.0
 40
1.0
 40
1.0
 10
-3.8150201612903
 20
-42.74193548387096
 30
0.0
 10
-3.792961038227941
 20
-42.69853196893582
 30
0.0
 10
-3.753234653768828
 20
-42.62036636297245
 30
0.0
 10
-3.698472396506744
 20
-42.51638973651669
 30
0.0
 10
-3.662602141660296
 20
-42.43498108912974
 30
0.0
 10
-3.644066478701874
 20
-42.38864341946819
 30
0.0
 10
-3.636592741935462
 20
-42.36995967741935
 30
0.0
  0
SPLINE
  5
B3
330
1F
100
AcDbEntity
  8
0
  6
Continuous
 62
     7
370
    25
100
AcDbSpline
210
0.0
220
0.0
230
1.0
 70
     8
 71
     3
 72
    17
 73
    13
 74
     0
 42
0.00000001
 43
0.00000001
 40
0.0
 40
0.0
 40
0.0
 40
0.0
 40
0.1652179492288406
 40
0.2957221402124209
 40
0.403575922688759
 40
0.5021014008158463
 40
0.6001015638229588
 40
0.7058862779146643
 40
0.7661783752265565
 40
0.835741974702808
 40
0.9133386300684145
 40
1.0
 40
1.0
 40
1.0
 40
1.0
 10
-4.902217741935463
 20
-43.41935483870967
 30
0.0
 10
-4.833152496593409
 20
-43.41893528465975
 30
0.0
 10
-4.709533227245386
 20
-43.41818432859137
 30
0.0
 10
-4.540996603826436
 20
-43.40944032823294
 30
0.0
 10
-4.401331699790754
 20
-43.38703702665109
 30
0.0
 10
-4.281758295220198
 20
-43.34052727601653
 30
0.0
 10
-4.17657403507987
 20
-43.26827641637624
 30
0.0
 10
-4.102495095607687
 20
-43.18552995509761
 30
0.0
 10
-4.043388780635491
 20
-43.10674077538381
 30
0.0
 10
-3.996218746560975
 20
-43.03392461652348
 30
0.0
 10
-3.942616239018575
 20
-42.95220918761989
 30
0.0
 10
-3.90660177984899
 20
-42.89374730219502
 30
0.0
 10
-3.887600806451591
 20
-42.86290322580644
 30
0.0
  0
SPLINE
  5
B7
330
1F
100
AcDbEntity
  8
0
  6
Continuous
 62
     7
370
    25
100
AcDbSpline
210
0.0
220
0.0
230
1.0
 70
     8
 71
     3
 72
    15
 73
    11
 74
     0
 42
0.00000001
 43
0.00000001
 40
0.0
 40
0.0
 40
0.0
 40
0.0
 40
0.1408474128281343
 40
0.2583036394072087
 40
0.3591537660272676
 40
0.4577316332131387
 40
0.5624997192144237
 40
0.6833366712087728
 40
0.8283757327075777
 40
0.9999999999999999
 40
0.9999999999999999
 40
0.9999999999999999
 40
0.9999999999999999
 10
-4.980846774193527
 20
-44.75907258064515
 30
0.0
 10
-4.974191802817128
 20
-44.73760548540115
 30
0.0
 10
-4.96198708217542
 20
-44.69823643546487
 30
0.0
 10
-4.960598359515463
 20
-44.64060231033115
 30
0.0
 10
-4.970241504959453
 20
-44.59059037853464
 30
0.0
 10
-4.997247251291258
 20
-44.54853414668618
 30
0.0
 10
-5.041590791059025
 20
-44.52084592186736
 30
0.0
 10
-5.095532936829827
 20
-44.49655720832487
 30
0.0
 10
-5.165030712610042
 20
-44.48669449847458
 30
0.0
 10
-5.215231720369951
 20
-44.48486338777688
 30
0.0
 10
-5.24243951612901
 20
-44.48387096774193
 30
0.0
  0
SPLINE
  5
B8
330
1F
100
AcDbEntity
  8
0
  6
Continuous
 62
     7
370
    25
100
AcDbSpline
210
0.0
220
0.0
230
1.0
 70
     8
 71
     3
 72
    11
 73
     7
 74
     0
 42
0.00000001
 43
0.00000001
 40
0.0
 40
0.0
 40
0.0
 40
0.0
 40
0.3444164350336437
 40
0.62659098585456
 40
0.8416822594500074
 40
1.0
 40
1.0
 40
1.0
 40
1.0
 10
-5.157762096774172
 20
-45.12046370967742
 30
0.0
 10
-5.135956820704825
 20
-45.07970645165402
 30
0.0
 10
-5.096286851332464
 20
-45.00555746255855
 30
0.0
 10
-5.044758399196507
 20
-44.90503014097465
 30
0.0
 10
-5.007403655645442
 20
-44.82531890825863
 30
0.0
 10
-4.988753890828892
 20
-44.77879693871984
 30
0.0
 10
-4.980846774193527
 20
-44.75907258064515
 30
0.0
  0
SPLINE
  5
BA
330
1F
100
AcDbEntity
  8
0
  6
Continuous
 62
     7
370
    25
100
AcDbSpline
210
0.0
220
0.0
230
1.0
 70
     8
 71
     3
 72
    19
 73
    15
 74
     0
 42
0.00000001
 43
0.00000001
 40
0.0
 40
0.0
 40
0.0
 40
0.0
 40
0.0841220958618592
 40
0.1594559263878676
 40
0.2260097653482754
 40
0.2851781908752357
 40
0.3901351397888847
 40
0.4871531981377397
 40
0.586916447374254
 40
0.6970279338040223
 40
0.7599585164819256
 40
0.8315232377954014
 40
0.9108720554915153
 40
1.0
 40
1.0
 40
1.0
 40
1.0
 10
-6.279737903225786
 20
-45.93548387096774
 30
0.0
 10
-6.24142122998199
 20
-45.93528993354671
 30
0.0
 10
-6.168790840004261
 20
-45.93492231941611
 30
0.0
 10
-6.066002088150342
 20
-45.92966361457013
 30
0.0
 10
-5.9744968683353
 20
-45.92486567867425
 30
0.0
 10
-5.870390541615928
 20
-45.91083378399887
 30
0.0
 10
-5.753441215633377
 20
-45.88495125605971
 30
0.0
 10
-5.630097157651241
 20
-45.82107574668418
 30
0.0
 10
-5.522952521681725
 20
-45.72969716295905
 30
0.0
 10
-5.445959369599812
 20
-45.63155714509062
 30
0.0
 10
-5.38332084420417
 20
-45.53945294030716
 30
0.0
 10
-5.332604040299611
 20
-45.45627894411881
 30
0.0
 10
-5.277281448014401
 20
-45.36197372116786
 30
0.0
 10
-5.241638283016798
 20
-45.29401577640991
 30
0.0
 10
-5.222782258064494
 20
-45.25806451612903
 30
0.0
  0
SPLINE
  5
BC
330
1F
100
AcDbEntity
  8
0
  6
Continuous
 62
     7
370
    25
100
AcDbSpline
210
0.0
220
0.0
230
1.0
 70
     8
 71
     3
 72
    15
 73
    11
 74
     0
 42
0.00000001
 43
0.00000001
 40
0.0
 40
0.0
 40
0.0
 40
0.0
 40
0.127884610212888
 40
0.2257688691648865
 40
0.3078738885660199
 40
0.3827364216234358
 40
0.4795347514824594
 40
0.6138841255858571
 40
0.7862132600687579
 40
0.9999999999999999
 40
0.9999999999999999
 40
0.9999999999999999
 40
0.9999999999999999
 10
-7.799395161290301
 20
-45.60735887096774
 30
0.0
 10
-7.809025804951149
 20
-45.63830424577189
 30
0.0
 10
-7.826027847065679
 20
-45.69293554396947
 30
0.0
 10
-7.82924434488924
 20
-45.77131859618744
 30
0.0
 10
-7.811280480463919
 20
-45.83555957942616
 30
0.0
 10
-7.761920046464372
 20
-45.88054863732992
 30
0.0
 10
-7.687683000890955
 20
-45.90507032369981
 30
0.0
 10
-7.587609381392582
 20
-45.92390969261884
 30
0.0
 10
-7.456262249325871
 20
-45.93252907454278
 30
0.0
 10
-7.358866258626946
 20
-45.93443087289813
 30
0.0
 10
-7.30493951612901
 20
-45.93548387096774
 30
0.0
  0
SPLINE
  5
BD
330
1F
100
AcDbEntity
  8
0
  6
Continuous
 62
     7
370
    25
100
AcDbSpline
210
0.0
220
0.0
230
1.0
 70
     8
 71
     3
 72
    11
 73
     7
 74
     0
 42
0.00000001
 43
0.00000001
 40
0.0
 40
0.0
 40
0.0
 40
0.0
 40
0.3019194332642885
 40
0.5669572557057567
 40
0.7988394127985461
 40
1.0
 40
1.0
 40
1.0
 40
1.0
 10
-7.637600806451591
 20
-45.25806451612903
 30
0.0
 10
-7.656145435293477
 20
-45.29213934215612
 30
0.0
 10
-7.690969334380075
 20
-45.35612651132936
 30
0.0
 10
-7.734081705672962
 20
-45.44925574224646
 30
0.0
 10
-7.771835363470674
 20
-45.53065793710644
 30
0.0
 10
-7.790653571902123
 20
-45.58303038808505
 30
0.0
 10
-7.799395161290301
 20
-45.60735887096774
 30
0.0
  0
SPLINE
  5
C0
330
1F
100
AcDbEntity
  8
0
  6
Continuous
 62
     7
370
    25
100
AcDbSpline
210
0.0
220
0.0
230
1.0
 70
     8
 71
     3
 72
    11
 73
     7
 74
     0
 42
0.00000001
 43
0.00000001
 40
0.0
 40
0.0
 40
0.0
 40
0.0
 40
0.2146400782491487
 40
0.4519990146495793
 40
0.7147156264613599
 40
1.0
 40
1.0
 40
1.0
 40
1.0
 10
-9.427923387096751
 20
-46.27721774193547
 30
0.0
 10
-9.412258823699208
 20
-46.23469080973343
 30
0.0
 10
-9.379271660824683
 20
-46.14513562689809
 30
0.0
 10
-9.317340550472148
 20
-46.00748755739961
 30
0.0
 10
-9.245904240127134
 20
-45.85783439598664
 30
0.0
 10
-9.18959588184692
 20
-45.75675439956403
 30
0.0
 10
-9.160282258064495
 20
-45.70413306451612
 30
0.0
  0
SPLINE
  5
C1
330
1F
100
AcDbEntity
  8
0
  6
Continuous
 62
     7
370
    25
100
AcDbSpline
210
0.0
220
0.0
230
1.0
 70
     8
 71
     3
 72
    23
 73
    19
 74
     0
 42
0.00000001
 43
0.00000001
 40
0.0
 40
0.0
 40
0.0
 40
0.0
 40
0.1072005460225031
 40
0.2051067269501198
 40
0.2937415034709927
 40
0.3734027157292064
 40
0.444051942185728
 40
0.5060845274706897
 40
0.55935177995232
 40
0.6056093825713704
 40
0.6471753332213718
 40
0.6866799445073378
 40
0.726629692223789
 40
0.7701899355226196
 40
0.8182291272455166
 40
0.8719591507760878
 40
0.9324473535759481
 40
1.0
 40
1.0
 40
1.0
 40
1.0
 10
-8.38760080645159
 20
-46.99999999999999
 30
0.0
 10
-8.44507674243192
 20
-47.00006874443019
 30
0.0
 10
-8.555045409054618
 20
-47.00020027309865
 30
0.0
 10
-8.712280197387775
 20
-46.99138003000271
 30
0.0
 10
-8.854747139767959
 20
-46.98248420307847
 30
0.0
 10
-8.981732673017163
 20
-46.96507261873394
 30
0.0
 10
-9.093922348572445
 20
-46.9460473365235
 30
0.0
 10
-9.191234798331994
 20
-46.92334211440749
 30
0.0
 10
-9.272096335212611
 20
-46.89193461282504
 30
0.0
 10
-9.340718956739448
 20
-46.85977985869827
 30
0.0
 10
-9.39602661059715
 20
-46.81842921422753
 30
0.0
 10
-9.435733631864618
 20
-46.76643194156279
 30
0.0
 10
-9.46597526660598
 20
-46.7073261457673
 30
0.0
 10
-9.481891005145867
 20
-46.6379550568122
 30
0.0
 10
-9.485341485804547
 20
-46.55994191153212
 30
0.0
 10
-9.479638625730264
 20
-46.47289382841169
 30
0.0
 10
-9.458481434186929
 20
-46.37749902523608
 30
0.0
 10
-9.438477301191153
 20
-46.31185215578095
 30
0.0
 10
-9.427923387096751
 20
-46.27721774193547
 30
0.0
  0
SPLINE
  5
C3
330
1F
100
AcDbEntity
  8
0
  6
Continuous
 62
     7
370
    25
100
AcDbSpline
210
0.0
220
0.0
230
1.0
 70
     8
 71
     3
 72
    23
 73
    19
 74
     0
 42
0.00000001
 43
0.00000001
 40
0.0
 40
0.0
 40
0.0
 40
0.0
 40
0.0799273873582859
 40
0.1536065055079385
 40
0.2209756851404356
 40
0.2818919016467331
 40
0.3385243776708155
 40
0.393069593215399
 40
0.446314653371652
 40
0.4985677237461157
 40
0.550541395061482
 40
0.6039286926356502
 40
0.6591619503046352
 40
0.716518261428238
 40
0.7776631133628422
 40
0.8456775892120192
 40
0.9195807471539572
 40
1.0
 40
1.0
 40
1.0
 40
1.0
 10
-4.197580645161269
 20
-45.71320564516129
 30
0.0
 10
-4.233496299449161
 20
-45.77692978600613
 30
0.0
 10
-4.302519926150035
 20
-45.89939647627578
 30
0.0
 10
-4.40778828692159
 20
-46.07213073374194
 30
0.0
 10
-4.511893285129718
 20
-46.2249966064829
 30
0.0
 10
-4.61459955404576
 20
-46.35947094032939
 30
0.0
 10
-4.715442480574828
 20
-46.48085274876686
 30
0.0
 10
-4.826543656692896
 20
-46.58265325150391
 30
0.0
 10
-4.938760855439909
 20
-46.67712137581109
 30
0.0
 10
-5.061339217521747
 20
-46.7536186958821
 30
0.0
 10
-5.189703713621718
 20
-46.81972650695342
 30
0.0
 10
-5.326531868555423
 20
-46.87394706421072
 30
0.0
 10
-5.472030680180881
 20
-46.91827010091401
 30
0.0
 10
-5.628154988498615
 20
-46.94940088919719
 30
0.0
 10
-5.79744151016418
 20
-46.97176704293066
 30
0.0
 10
-5.982617576151185
 20
-46.98780307365872
 30
0.0
 10
-6.185854301919783
 20
-46.9989023912047
 30
0.0
 10
-6.327100541452935
 20
-46.99962397438158
 30
0.0
 10
-6.400705645161268
 20
-46.99999999999999
 30
0.0
  0
SPLINE
  5
C5
330
1F
100
AcDbEntity
  8
0
  6
Continuous
 62
     7
370
    25
100
AcDbSpline
210
0.0
220
0.0
230
1.0
 70
     8
 71
     3
 72
    11
 73
     7
 74
     0
 42
0.00000001
 43
0.00000001
 40
0.0
 40
0.0
 40
0.0
 40
0.0
 40
0.2239493769408235
 40
0.4557437035648185
 40
0.7008654582233063
 40
1.0
 40
1.0
 40
1.0
 40
1.0
 10
-3.577620967741914
 20
-44.56401209677419
 30
0.0
 10
-3.581437206746106
 20
-44.57468937647282
 30
0.0
 10
-3.589203367658083
 20
-44.59641796112138
 30
0.0
 10
-3.60527388590244
 20
-44.62806397713452
 30
0.0
 10
-3.622175718410567
 20
-44.66350403223597
 30
0.0
 10
-3.636358225782249
 20
-44.68712063309721
 30
0.0
 10
-3.64415322580643
 20
-44.70010080645161
 30
0.0
  0
LINE
  5
D4
330
1F
100
AcDbEntity
  8
0
  6
Continuous
 62
     7
370
    25
100
AcDbLine
 10
3.5277217742
 20
-42.2459677419
 30
0.0
 11
2.9758064516
 21
-43.2258064516
 31
0.0
  0
LINE
  5
D5
330
1F
100
AcDbEntity
  8
0
  6
Continuous
 62
     7
370
    25
100
AcDbLine
 10
0.7439516129
 20
-41.0
 30
0.0
 11
2.7308467742
 21
-41.0
 31
0.0
  0
LINE
  5
D6
330
1F
100
AcDbEntity
  8
0
  6
Continuous
 62
     7
370
    25
100
AcDbLine
 10
-1.6980846774
 20
-42.7419354839
 30
0.0
 11
-1.4637096774
 21
-42.2958669355
 31
0.0
  0
LINE
  5
D7
330
1F
100
AcDbEntity
  8
0
  6
Continuous
 62
     7
370
    25
100
AcDbLine
 10
-0.4128024194
 20
-42.7419354839
 30
0.0
 11
-1.6980846774
 21
-42.7419354839
 31
0.0
  0
LINE
  5
D8
330
1F
100
AcDbEntity
  8
0
  6
Continuous
 62
     7
370
    25
100
AcDbLine
 10
1.6572580645
 20
-42.064516129
 30
0.0
 11
0.642641129
 21
-42.064516129
 31
0.0
  0
LINE
  5
D9
330
1F
100
AcDbEntity
  8
0
  6
Continuous
 62
     7
370
    25
100
AcDbLine
 10
1.9188508065
 20
-42.8629032258
 30
0.0
 11
1.9914314516
 21
-42.7419354839
 31
0.0
  0
LINE
  5
DA
330
1F
100
AcDbEntity
  8
0
  6
Continuous
 62
     7
370
    25
100
AcDbLine
 10
-0.1194556452
 20
-43.4193548387
 30
0.0
 11
0.904233871
 21
-43.4193548387
 31
0.0
  0
LINE
  5
DB
330
1F
100
AcDbEntity
  8
0
  6
Continuous
 62
     7
370
    25
100
AcDbLine
 10
-0.7106854839
 20
-44.4838709677
 30
0.0
 11
-0.1194556452
 21
-43.4193548387
 31
0.0
  0
LINE
  5
DC
330
1F
100
AcDbEntity
  8
0
  6
Continuous
 62
     7
370
    25
100
AcDbLine
 10
0.5640120968
 20
-44.4838709677
 30
0.0
 11
-0.7106854839
 21
-44.4838709677
 31
0.0
  0
LINE
  5
DD
330
1F
100
AcDbEntity
  8
0
  6
Continuous
 62
     7
370
    25
100
AcDbLine
 10
0.5836693548
 20
-45.2580645161
 30
0.0
 11
0.6486895161
 21
-45.1204637097
 31
0.0
  0
LINE
  5
DE
330
1F
100
AcDbEntity
  8
0
  6
Continuous
 62
     7
370
    25
100
AcDbLine
 10
-1.4984879032
 20
-45.935483871
 30
0.0
 11
-0.4732862903
 21
-45.935483871
 31
0.0
  0
LINE
  5
DF
330
1F
100
AcDbEntity
  8
0
  6
Continuous
 62
     7
370
    25
100
AcDbLine
 10
-3.1164314516
 20
-45.2580645161
 30
0.0
 11
-1.8311491935
 21
-45.2580645161
 31
0.0
  0
LINE
  5
E0
330
1F
100
AcDbEntity
  8
0
  6
Continuous
 62
     7
370
    25
100
AcDbLine
 10
-3.3538306452
 20
-45.7041330645
 30
0.0
 11
-3.1164314516
 21
-45.2580645161
 31
0.0
  0
LINE
  5
E1
330
1F
100
AcDbEntity
  8
0
  6
Continuous
 62
     7
370
    25
100
AcDbLine
 10
-0.5942540323
 20
-47.0
 30
0.0
 11
-2.5811491935
 21
-47.0
 31
0.0
  0
LINE
  5
E2
330
1F
100
AcDbEntity
  8
0
  6
Continuous
 62
     7
370
    25
100
AcDbLine
 10
2.1622983871
 20
-44.7001008065
 30
0.0
 11
1.6088709677
 21
-45.7132056452
 31
0.0
  0
LINE
  5
E3
330
1F
100
AcDbEntity
  8
0
  6
Continuous
 62
     7
370
    25
100
AcDbLine
 10
9.3341733871
 20
-42.2459677419
 30
0.0
 11
8.7822580645
 21
-43.2258064516
 31
0.0
  0
LINE
  5
E4
330
1F
100
AcDbEntity
  8
0
  6
Continuous
 62
     7
370
    25
100
AcDbLine
 10
6.5504032258
 20
-41.0
 30
0.0
 11
8.5372983871
 21
-41.0
 31
0.0
  0
LINE
  5
E5
330
1F
100
AcDbEntity
  8
0
  6
Continuous
 62
     7
370
    25
100
AcDbLine
 10
4.1083669355
 20
-42.7419354839
 30
0.0
 11
4.3427419355
 21
-42.2958669355
 31
0.0
  0
LINE
  5
E6
330
1F
100
AcDbEntity
  8
0
  6
Continuous
 62
     7
370
    25
100
AcDbLine
 10
5.3936491935
 20
-42.7419354839
 30
0.0
 11
4.1083669355
 21
-42.7419354839
 31
0.0
  0
LINE
  5
E7
330
1F
100
AcDbEntity
  8
0
  6
Continuous
 62
     7
370
    25
100
AcDbLine
 10
7.4637096774
 20
-42.064516129
 30
0.0
 11
6.4490927419
 21
-42.064516129
 31
0.0
  0
LINE
  5
E8
330
1F
100
AcDbEntity
  8
0
  6
Continuous
 62
     7
370
    25
100
AcDbLine
 10
7.7253024194
 20
-42.8629032258
 30
0.0
 11
7.7978830645
 21
-42.7419354839
 31
0.0
  0
LINE
  5
E9
330
1F
100
AcDbEntity
  8
0
  6
Continuous
 62
     7
370
    25
100
AcDbLine
 10
5.6869959677
 20
-43.4193548387
 30
0.0
 11
6.7106854839
 21
-43.4193548387
 31
0.0
  0
LINE
  5
EA
330
1F
100
AcDbEntity
  8
0
  6
Continuous
 62
     7
370
    25
100
AcDbLine
 10
5.095766129
 20
-44.4838709677
 30
0.0
 11
5.6869959677
 21
-43.4193548387
 31
0.0
  0
LINE
  5
EB
330
1F
100
AcDbEntity
  8
0
  6
Continuous
 62
     7
370
    25
100
AcDbLine
 10
6.3704637097
 20
-44.4838709677
 30
0.0
 11
5.095766129
 21
-44.4838709677
 31
0.0
  0
LINE
  5
EC
330
1F
100
AcDbEntity
  8
0
  6
Continuous
 62
     7
370
    25
100
AcDbLine
 10
6.3901209677
 20
-45.2580645161
 30
0.0
 11
6.455141129
 21
-45.1204637097
 31
0.0
  0
LINE
  5
ED
330
1F
100
AcDbEntity
  8
0
  6
Continuous
 62
     7
370
    25
100
AcDbLine
 10
4.3079637097
 20
-45.935483871
 30
0.0
 11
5.3331653226
 21
-45.935483871
 31
0.0
  0
LINE
  5
EE
330
1F
100
AcDbEntity
  8
0
  6
Continuous
 62
     7
370
    25
100
AcDbLine
 10
2.6900201613
 20
-45.2580645161
 30
0.0
 11
3.9753024194
 21
-45.2580645161
 31
0.0
  0
LINE
  5
EF
330
1F
100
AcDbEntity
  8
0
  6
Continuous
 62
     7
370
    25
100
AcDbLine
 10
2.4526209677
 20
-45.7041330645
 30
0.0
 11
2.6900201613
 21
-45.2580645161
 31
0.0
  0
LINE
  5
F0
330
1F
100
AcDbEntity
  8
0
  6
Continuous
 62
     7
370
    25
100
AcDbLine
 10
5.2121975806
 20
-47.0
 30
0.0
 11
3.2253024194
 21
-47.0
 31
0.0
  0
LINE
  5
F1
330
1F
100
AcDbEntity
  8
0
  6
Continuous
 62
     7
370
    25
100
AcDbLine
 10
7.96875
 20
-44.7001008065
 30
0.0
 11
7.4153225806
 21
-45.7132056452
 31
0.0
  0
LINE
  5
F2
330
1F
100
AcDbEntity
  8
0
  6
Continuous
 62
     7
370
    25
100
AcDbLine
 10
-2.2787298387
 20
-42.2459677419
 30
0.0
 11
-2.8306451613
 21
-43.2258064516
 31
0.0
  0
LINE
  5
F3
330
1F
100
AcDbEntity
  8
0
  6
Continuous
 62
     7
370
    25
100
AcDbLine
 10
-5.0625
 20
-41.0
 30
0.0
 11
-3.0756048387
 21
-41.0
 31
0.0
  0
LINE
  5
F4
330
1F
100
AcDbEntity
  8
0
  6
Continuous
 62
     7
370
    25
100
AcDbLine
 10
-7.5045362903
 20
-42.7419354839
 30
0.0
 11
-7.2701612903
 21
-42.2958669355
 31
0.0
  0
LINE
  5
F5
330
1F
100
AcDbEntity
  8
0
  6
Continuous
 62
     7
370
    25
100
AcDbLine
 10
-6.2192540323
 20
-42.7419354839
 30
0.0
 11
-7.5045362903
 21
-42.7419354839
 31
0.0
  0
LINE
  5
F6
330
1F
100
AcDbEntity
  8
0
  6
Continuous
 62
     7
370
    25
100
AcDbLine
 10
-4.1491935484
 20
-42.064516129
 30
0.0
 11
-5.1638104839
 21
-42.064516129
 31
0.0
  0
LINE
  5
F7
330
1F
100
AcDbEntity
  8
0
  6
Continuous
 62
     7
370
    25
100
AcDbLine
 10
-3.8876008065
 20
-42.8629032258
 30
0.0
 11
-3.8150201613
 21
-42.7419354839
 31
0.0
  0
LINE
  5
F8
330
1F
100
AcDbEntity
  8
0
  6
Continuous
 62
     7
370
    25
100
AcDbLine
 10
-5.9259072581
 20
-43.4193548387
 30
0.0
 11
-4.9022177419
 21
-43.4193548387
 31
0.0
  0
LINE
  5
F9
330
1F
100
AcDbEntity
  8
0
  6
Continuous
 62
     7
370
    25
100
AcDbLine
 10
-6.5171370968
 20
-44.4838709677
 30
0.0
 11
-5.9259072581
 21
-43.4193548387
 31
0.0
  0
LINE
  5
FA
330
1F
100
AcDbEntity
  8
0
  6
Continuous
 62
     7
370
    25
100
AcDbLine
 10
-5.2424395161
 20
-44.4838709677
 30
0.0
 11
-6.5171370968
 21
-44.4838709677
 31
0.0
  0
LINE
  5
FB
330
1F
100
AcDbEntity
  8
0
  6
Continuous
 62
     7
370
    25
100
AcDbLine
 10
-5.2227822581
 20
-45.2580645161
 30
0.0
 11
-5.1577620968
 21
-45.1204637097
 31
0.0
  0
LINE
  5
FC
330
1F
100
AcDbEntity
  8
0
  6
Continuous
 62
     7
370
    25
100
AcDbLine
 10
-7.3049395161
 20
-45.935483871
 30
0.0
 11
-6.2797379032
 21
-45.935483871
 31
0.0
  0
LINE
  5
FD
330
1F
100
AcDbEntity
  8
0
  6
Continuous
 62
     7
370
    25
100
AcDbLine
 10
-8.9228830645
 20
-45.2580645161
 30
0.0
 11
-7.6376008065
 21
-45.2580645161
 31
0.0
  0
LINE
  5
FE
330
1F
100
AcDbEntity
  8
0
  6
Continuous
 62
     7
370
    25
100
AcDbLine
 10
-9.1602822581
 20
-45.7041330645
 30
0.0
 11
-8.9228830645
 21
-45.2580645161
 31
0.0
  0
LINE
  5
FF
330
1F
100
AcDbEntity
  8
0
  6
Continuous
 62
     7
370
    25
100
AcDbLine
 10
-6.4007056452
 20
-47.0
 30
0.0
 11
-8.3876008065
 21
-47.0
 31
0.0
  0
LINE
  5
100
330
1F
100
AcDbEntity
  8
0
  6
Continuous
 62
     7
370
    25
100
AcDbLine
 10
-3.6441532258
 20
-44.7001008065
 30
0.0
 11
-4.1975806452
 21
-45.7132056452
 31
0.0
  0
LINE
  5
101
330
1F
100
AcDbEntity
  8
0
  6
Continuous
 62
     7
370
    25
100
AcDbLine
 10
35.0
 20
12.1993588885
 30
0.0
 11
35.0
 21
0.0
 31
0.0
  0
LINE
  5
102
330
1F
100
AcDbEntity
  8
0
  6
Continuous
 62
     7
370
    25
100
AcDbLine
 10
12.5
 20
-45.0032158589
 30
0.0
 11
12.5
 21
-39.0352404886
 31
0.0
  0
LINE
  5
103
330
1F
100
AcDbEntity
  8
0
  6
Continuous
 62
     7
370
    25
100
AcDbLine
 10
-7.6792993223
 20
-50.0
 30
0.0
 11
7.6792993223
 21
-50.0
 31
0.0
  0
LINE
  5
104
330
1F
100
AcDbEntity
  8
0
  6
Continuous
 62
     7
370
    25
100
AcDbLine
 10
-12.5
 20
-39.0352404886
 30
0.0
 11
-12.5
 21
-45.0032158589
 31
0.0
  0
LINE
  5
105
330
1F
100
AcDbEntity
  8
0
  6
Continuous
 62
     7
370
    25
100
AcDbLine
 10
-35.0
 20
0.0
 30
0.0
 11
-35.0
 21
12.1655250606
 31
0.0
  0
ARC
  5
106
330
1F
100
AcDbEntity
  8
0
  6
Continuous
 62
     7
370
    25
100
AcDbCircle
 10
36.0
 20
12.1993588885
 30
0.0
 40
1.000000000000014
100
AcDbArc
 50
10.1640503105
 51
180.0
  0
ARC
  5
107
330
1F
100
AcDbEntity
  8
0
  6
Continuous
 62
     7
370
    25
100
AcDbCircle
 10
0.0
 20
0.0
 30
0.0
 40
38.99999999999989
100
AcDbArc
 50
291.6568934736
 51
18.5014631589
  0
ARC
  5
108
330
1F
100
AcDbEntity
  8
0
  6
Continuous
 62
     7
370
    25
100
AcDbCircle
 10
15.5
 20
-39.0352404886
 30
0.0
 40
2.999999999999979
100
AcDbArc
 50
111.6568934736
 51
180.0
  0
ARC
  5
109
330
1F
100
AcDbEntity
  8
0
  6
Continuous
 62
     7
370
    25
100
AcDbCircle
 10
7.5
 20
-45.0032158589
 30
0.0
 40
5.000000000000018
100
AcDbArc
 50
272.0550594914
 51
0.0
  0
ARC
  5
10A
330
1F
100
AcDbEntity
  8
0
  6
Continuous
 62
     7
370
    25
100
AcDbCircle
 10
-7.5
 20
-45.0032158589
 30
0.0
 40
4.999999999999988
100
AcDbArc
 50
180.0
 51
267.9449405086
  0
ARC
  5
10B
330
1F
100
AcDbEntity
  8
0
  6
Continuous
 62
     7
370
    25
100
AcDbCircle
 10
-15.5
 20
-39.0352404886
 30
0.0
 40
3.000000000000007
100
AcDbArc
 50
0.0
 51
68.3431065264
  0
ARC
  5
10C
330
1F
100
AcDbEntity
  8
0
  6
Continuous
 62
     7
370
    25
100
AcDbCircle
 10
0.0
 20
0.0
 30
0.0
 40
39.00000000000001
100
AcDbArc
 50
161.328281936
 51
248.3431065264
  0
ARC
  5
10D
330
1F
100
AcDbEntity
  8
0
  6
Continuous
 62
     7
370
    25
100
AcDbCircle
 10
-36.0
 20
12.1655250606
 30
0.0
 40
1.000000000000014
100
AcDbArc
 50
0.0
 51
161.328281936
  0
ARC
  5
10E
330
1F
100
AcDbEntity
  8
0
  6
Continuous
 62
     7
370
    25
100
AcDbCircle
 10
0.0
 20
0.0
 30
0.0
 40
35.00000000000001
100
AcDbArc
 50
180.0
 51
0.0
  0
MTEXT
  5
110
330
1F
100
AcDbEntity
  8
0
  6
Continuous
 62
     7
100
AcDbMText
 10
-39.0
 20
-51.0195663917
 30
0.0
 40
4.83362
 41
0.0
 71
     1
 72
     1
  1
Produit SOLIDWORKS Maker – Usage personnel uniquement.
  7
SLDTEXTSTYLE0
 73
     1
 44
1.0
  0
ENDSEC
  0
SECTION
  2
OBJECTS
  0
DICTIONARY
  5
C
330
0
100
AcDbDictionary
281
     1
  3
ACAD_GROUP
350
D
  3
ACAD_LAYOUT
350
1A
  3
ACAD_MLINESTYLE
350
17
  3
ACAD_PLOTSETTINGS
350
19
  3
ACAD_PLOTSTYLENAME
350
E
  3
ACAD_SCALELIST
350
47
  3
DWGPROPS
350
111
  0
DICTIONARY
  5
D
102
{ACAD_REACTORS
330
C
102
}
330
C
100
AcDbDictionary
281
     1
  0
DICTIONARY
  5
1A
102
{ACAD_REACTORS
330
C
102
}
330
C
100
AcDbDictionary
281
     1
  3
Layout1
350
1E
  3
Layout2
350
26
  3
Model
350
22
  0
DICTIONARY
  5
17
102
{ACAD_REACTORS
330
C
102
}
330
C
100
AcDbDictionary
281
     1
  3
Standard
350
18
  0
DICTIONARY
  5
19
102
{ACAD_REACTORS
330
C
102
}
330
C
100
AcDbDictionary
281
     1
  0
ACDBDICTIONARYWDFLT
  5
E
102
{ACAD_REACTORS
330
C
102
}
330
C
100
AcDbDictionary
281
     1
  3
Normal
350
F
100
AcDbDictionaryWithDefault
340
F
  0
DICTIONARY
  5
47
102
{ACAD_REACTORS
330
C
102
}
330
C
100
AcDbDictionary
281
     1
  3
A0
350
48
  3
A1
350
49
  3
A2
350
4A
  3
A3
350
4B
  3
A4
350
4C
  3
A5
350
4D
  3
A6
350
4E
  3
A7
350
4F
  3
A8
350
50
  3
A9
350
51
  3
B0
350
52
  3
B1
350
53
  3
B2
350
54
  3
B3
350
55
  3
B4
350
56
  3
B5
350
57
  3
B6
350
58
  0
XRECORD
  5
111
102
{ACAD_REACTORS
330
C
102
}
330
C
100
AcDbXrecord
280
     1
  1
DWGPROPS COOKIE
  2

  3

  4

  6

  7

  8
cyprien
  9

300
=
301
=
302
=
303
=
304
=
305
=
306
=
307
=
308
=
309
=
 40
0.0
 41
2460188.629075949
 42
2460188.62910529
  1

 90
        0
  0
LAYOUT
  5
1E
102
{ACAD_REACTORS
330
1A
102
}
330
1A
100
AcDbPlotSettings
  1

  2
none_device
  4

  6

 40
0.0
 41
0.0
 42
0.0
 43
0.0
 44
0.0
 45
0.0
 46
0.0
 47
0.0
 48
0.0
 49
0.0
140
0.0
141
0.0
142
1.0
143
1.0
 70
   688
 72
     1
 73
     0
 74
     5
  7

 75
    16
147
1.0
148
0.0
149
0.0
100
AcDbLayout
  1
Layout1
 70
     1
 71
     1
 10
0.0
 20
0.0
 11
420.0
 21
297.0
 12
0.0
 22
0.0
 32
0.0
 14
1.0000000000E+20
 24
1.0000000000E+20
 34
1.0000000000E+20
 15
-1.0000000000E+20
 25
-1.0000000000E+20
 35
-1.0000000000E+20
146
0.0
 13
0.0
 23
0.0
 33
0.0
 16
1.0
 26
0.0
 36
0.0
 17
0.0
 27
1.0
 37
0.0
 76
     0
330
1B
  0
LAYOUT
  5
26
102
{ACAD_REACTORS
330
1A
102
}
330
1A
100
AcDbPlotSettings
  1

  2
none_device
  4

  6

 40
0.0
 41
0.0
 42
0.0
 43
0.0
 44
0.0
 45
0.0
 46
0.0
 47
0.0
 48
0.0
 49
0.0
140
0.0
141
0.0
142
1.0
143
1.0
 70
   688
 72
     1
 73
     0
 74
     5
  7

 75
    16
147
1.0
148
0.0
149
0.0
100
AcDbLayout
  1
Layout2
 70
     1
 71
     2
 10
0.0
 20
0.0
 11
0.0
 21
0.0
 12
0.0
 22
0.0
 32
0.0
 14
0.0
 24
0.0
 34
0.0
 15
0.0
 25
0.0
 35
0.0
146
0.0
 13
0.0
 23
0.0
 33
0.0
 16
1.0
 26
0.0
 36
0.0
 17
0.0
 27
1.0
 37
0.0
 76
     0
330
23
  0
LAYOUT
  5
22
102
{ACAD_REACTORS
330
1A
102
}
330
1A
100
AcDbPlotSettings
  1

  2
none_device
  4
ANSI_A_(11.00_x_8.50_Inches)
  6

 40
6.35
 41
19.05
 42
6.35000508
 43
19.05000254
 44
279.4
 45
215.9
 46
133.34999746
 47
151.1301065202
 48
0.0
 49
0.0
140
0.0
141
0.0
142
0.1331500849
143
1.0
 70
  1696
 72
     0
 73
     0
 74
     0
  7

 75
     0
147
0.0179189148
148
-1300.4909072572
149
0.0
100
AcDbLayout
  1
Model
 70
     1
 71
     0
 10
0.0
 20
0.0
 11
420.0
 21
297.0
 12
0.0
 22
0.0
 32
0.0
 14
-39.0
 24
-50.0
 34
0.0
 15
39.0
 25
13.1993588885
 35
0.0
146
0.0
 13
0.0
 23
0.0
 33
0.0
 16
1.0
 26
0.0
 36
0.0
 17
0.0
 27
1.0
 37
0.0
 76
     0
330
1F
331
29
  0
MLINESTYLE
  5
18
102
{ACAD_REACTORS
330
17
102
}
330
17
100
AcDbMlineStyle
  2
Standard
 70
     0
  3

 62
   256
 51
90.0
 52
90.0
 71
     2
 49
0.5
 62
   256
  6
BYLAYER
 49
-0.5
 62
   256
  6
BYLAYER
  0
ACDBPLACEHOLDER
  5
F
102
{ACAD_REACTORS
330
E
102
}
330
E
  0
SCALE
  5
48
102
{ACAD_REACTORS
330
47
102
}
330
47
100
AcDbScale
 70
     0
300
1:1
140
1.0
141
1.0
290
     1
  0
SCALE
  5
49
102
{ACAD_REACTORS
330
47
102
}
330
47
100
AcDbScale
 70
     0
300
1:2
140
1.0
141
2.0
290
     0
  0
SCALE
  5
4A
102
{ACAD_REACTORS
330
47
102
}
330
47
100
AcDbScale
 70
     0
300
1:4
140
1.0
141
4.0
290
     0
  0
SCALE
  5
4B
102
{ACAD_REACTORS
330
47
102
}
330
47
100
AcDbScale
 70
     0
300
1:5
140
1.0
141
5.0
290
     0
  0
SCALE
  5
4C
102
{ACAD_REACTORS
330
47
102
}
330
47
100
AcDbScale
 70
     0
300
1:8
140
1.0
141
8.0
290
     0
  0
SCALE
  5
4D
102
{ACAD_REACTORS
330
47
102
}
330
47
100
AcDbScale
 70
     0
300
1:10
140
1.0
141
10.0
290
     0
  0
SCALE
  5
4E
102
{ACAD_REACTORS
330
47
102
}
330
47
100
AcDbScale
 70
     0
300
1:16
140
1.0
141
16.0
290
     0
  0
SCALE
  5
4F
102
{ACAD_REACTORS
330
47
102
}
330
47
100
AcDbScale
 70
     0
300
1:20
140
1.0
141
20.0
290
     0
  0
SCALE
  5
50
102
{ACAD_REACTORS
330
47
102
}
330
47
100
AcDbScale
 70
     0
300
1:30
140
1.0
141
30.0
290
     0
  0
SCALE
  5
51
102
{ACAD_REACTORS
330
47
102
}
330
47
100
AcDbScale
 70
     0
300
1:40
140
1.0
141
40.0
290
     0
  0
SCALE
  5
52
102
{ACAD_REACTORS
330
47
102
}
330
47
100
AcDbScale
 70
     0
300
1:50
140
1.0
141
50.0
290
     0
  0
SCALE
  5
53
102
{ACAD_REACTORS
330
47
102
}
330
47
100
AcDbScale
 70
     0
300
1:100
140
1.0
141
100.0
290
     0
  0
SCALE
  5
54
102
{ACAD_REACTORS
330
47
102
}
330
47
100
AcDbScale
 70
     0
300
2:1
140
2.0
141
1.0
290
     0
  0
SCALE
  5
55
102
{ACAD_REACTORS
330
47
102
}
330
47
100
AcDbScale
 70
     0
300
4:1
140
4.0
141
1.0
290
     0
  0
SCALE
  5
56
102
{ACAD_REACTORS
330
47
102
}
330
47
100
AcDbScale
 70
     0
300
8:1
140
8.0
141
1.0
290
     0
  0
SCALE
  5
57
102
{ACAD_REACTORS
330
47
102
}
330
47
100
AcDbScale
 70
     0
300
10:1
140
10.0
141
1.0
290
     0
  0
SCALE
  5
58
102
{ACAD_REACTORS
330
47
102
}
330
47
100
AcDbScale
 70
     0
300
100:1
140
100.0
141
1.0
290
     0
  0
ENDSEC
  0
EOF
