ISO-10303-21;
HEADER;
FILE_DESCRIPTION (( 'STEP AP214' ),
    '1' );
FILE_NAME ('conduit pour sonde mic +350 .STEP',
    '2023-08-28T12:05:01',
    ( '' ),
    ( '' ),
    'SwSTEP 2.0',
    'SolidWorks 2018',
    '' );
FILE_SCHEMA (( 'AUTOMOTIVE_DESIGN' ));
ENDSEC;

DATA;
#1 = EDGE_LOOP ( 'NONE', ( #187, #92 ) ) ;
#2 = AXIS2_PLACEMENT_3D ( 'NONE', #65, #64, #201 ) ;
#3 = ADVANCED_FACE ( 'NONE', ( #38, #170 ), #55, .F. ) ;
#4 = EDGE_CURVE ( 'NONE', #79, #5, #243, .T. ) ;
#5 = VERTEX_POINT ( 'NONE', #70 ) ;
#6 = PRESENTATION_LAYER_ASSIGNMENT (  '', '', ( #134 ) ) ;
#7 = DIRECTION ( 'NONE',  ( 0.000000000000000000, 1.000000000000000000, 0.000000000000000000 ) ) ;
#8 =( LENGTH_UNIT ( ) NAMED_UNIT ( * ) SI_UNIT ( .MILLI., .METRE. ) );
#9 = ORIENTED_EDGE ( 'NONE', *, *, #107, .F. ) ;
#10 = ORIENTED_EDGE ( 'NONE', *, *, #4, .F. ) ;
#11 = AXIS2_PLACEMENT_3D ( 'NONE', #167, #188, #18 ) ;
#12 = SURFACE_STYLE_FILL_AREA ( #223 ) ;
#13 = FACE_OUTER_BOUND ( 'NONE', #173, .T. ) ;
#14 = CARTESIAN_POINT ( 'NONE',  ( 0.000000000000000000, 50.00000000000000000, -27.50000000000000000 ) ) ;
#15 = PRESENTATION_STYLE_ASSIGNMENT (( #158 ) ) ;
#16 = CARTESIAN_POINT ( 'NONE',  ( 0.000000000000000000, 39.99081855767963845, -27.50000000000000000 ) ) ;
#17 = PRODUCT_DEFINITION ( 'UNKNOWN', '', #33, #151 ) ;
#18 = DIRECTION ( 'NONE',  ( 0.9396926207859105373, -0.3420201433256627732, 0.000000000000000000 ) ) ;
#19 = FACE_BOUND ( 'NONE', #50, .T. ) ;
#20 = VERTEX_POINT ( 'NONE', #211 ) ;
#21 = DIRECTION ( 'NONE',  ( -0.000000000000000000, -1.000000000000000000, -0.000000000000000000 ) ) ;
#22 = FILL_AREA_STYLE_COLOUR ( '', #237 ) ;
#23 = CARTESIAN_POINT ( 'NONE',  ( 0.000000000000000000, 39.99081855767964555, -14.24999999999999112 ) ) ;
#24 = VERTEX_POINT ( 'NONE', #209 ) ;
#25 = PRESENTATION_LAYER_ASSIGNMENT (  '', '', ( #126 ) ) ;
#26 = FILL_AREA_STYLE_COLOUR ( '', #54 ) ;
#27 = SURFACE_STYLE_FILL_AREA ( #99 ) ;
#28 =( NAMED_UNIT ( * ) SI_UNIT ( $, .STERADIAN. ) SOLID_ANGLE_UNIT ( ) );
#29 =( NAMED_UNIT ( * ) PLANE_ANGLE_UNIT ( ) SI_UNIT ( $, .RADIAN. ) );
#30 = ORIENTED_EDGE ( 'NONE', *, *, #4, .T. ) ;
#31 = ADVANCED_FACE ( 'NONE', ( #111 ), #159, .T. ) ;
#32 = EDGE_LOOP ( 'NONE', ( #9, #123, #224, #131 ) ) ;
#33 = PRODUCT_DEFINITION_FORMATION_WITH_SPECIFIED_SOURCE ( 'ANY', '', #36, .NOT_KNOWN. ) ;
#34 = AXIS2_PLACEMENT_3D ( 'NONE', #110, #132, #190 ) ;
#35 = EDGE_LOOP ( 'NONE', ( #67, #127 ) ) ;
#36 = PRODUCT ( 'conduit pour sonde mic +350 ', 'conduit pour sonde mic +350 ', '', ( #46 ) ) ;
#37 = CARTESIAN_POINT ( 'NONE',  ( 1.745121688784977242E-15, 39.99081855767964555, 14.24999999999999112 ) ) ;
#38 = FACE_BOUND ( 'NONE', #1, .T. ) ;
#39 = CARTESIAN_POINT ( 'NONE',  ( 0.000000000000000000, 0.000000000000000000, 0.000000000000000000 ) ) ;
#40 = CARTESIAN_POINT ( 'NONE',  ( 0.000000000000000000, 0.000000000000000000, 0.000000000000000000 ) ) ;
#41 = CIRCLE ( 'NONE', #242, 27.50000000000000000 ) ;
#42 = DIRECTION ( 'NONE',  ( 0.000000000000000000, 0.000000000000000000, -1.000000000000000000 ) ) ;
#43 = MECHANICAL_DESIGN_GEOMETRIC_PRESENTATION_REPRESENTATION (  '', ( #219 ), #205 ) ;
#44 = CARTESIAN_POINT ( 'NONE',  ( -55.00000000000001421, 60.00918144232037577, -27.49999999999999645 ) ) ;
#45 = DIRECTION ( 'NONE',  ( 0.000000000000000000, 0.000000000000000000, -1.000000000000000000 ) ) ;
#46 = PRODUCT_CONTEXT ( 'NONE', #122, 'mechanical' ) ;
#47 = FILL_AREA_STYLE_COLOUR ( '', #145 ) ;
#48 = COLOUR_RGB ( '',0.6980392156862744724, 0.6980392156862744724, 0.6980392156862744724 ) ;
#49 = VECTOR ( 'NONE', #191, 1000.000000000000000 ) ;
#50 = EDGE_LOOP ( 'NONE', ( #106, #194 ) ) ;
#51 =( NAMED_UNIT ( * ) SI_UNIT ( $, .STERADIAN. ) SOLID_ANGLE_UNIT ( ) );
#52 = PRESENTATION_STYLE_ASSIGNMENT (( #178 ) ) ;
#53 = VERTEX_POINT ( 'NONE', #57 ) ;
#54 = COLOUR_RGB ( '',0.6980392156862744724, 0.6980392156862744724, 0.6980392156862744724 ) ;
#55 = PLANE ( 'NONE',  #11 ) ;
#56 = PRESENTATION_LAYER_ASSIGNMENT (  '', '', ( #171 ) ) ;
#57 = CARTESIAN_POINT ( 'NONE',  ( 0.000000000000000000, 0.000000000000000000, -27.50000000000000000 ) ) ;
#58 = ORIENTED_EDGE ( 'NONE', *, *, #162, .F. ) ;
#59 = CARTESIAN_POINT ( 'NONE',  ( 0.000000000000000000, 39.99081855767964555, -14.24999999999999112 ) ) ;
#60 = CARTESIAN_POINT ( 'NONE',  ( 0.000000000000000000, 39.99081855767963845, -27.50000000000000000 ) ) ;
#61 = DIRECTION ( 'NONE',  ( -0.000000000000000000, -1.000000000000000000, -0.000000000000000000 ) ) ;
#62 = DIRECTION ( 'NONE',  ( 0.000000000000000000, 1.000000000000000000, 0.000000000000000000 ) ) ;
#63 =( GEOMETRIC_REPRESENTATION_CONTEXT ( 3 ) GLOBAL_UNCERTAINTY_ASSIGNED_CONTEXT ( ( #135 ) ) GLOBAL_UNIT_ASSIGNED_CONTEXT ( ( #8, #101, #154 ) ) REPRESENTATION_CONTEXT ( 'NONE', 'WORKASPACE' ) );
#64 = DIRECTION ( 'NONE',  ( 0.000000000000000000, 0.000000000000000000, 1.000000000000000000 ) ) ;
#65 = CARTESIAN_POINT ( 'NONE',  ( 0.000000000000000000, 0.000000000000000000, 0.000000000000000000 ) ) ;
#66 = VECTOR ( 'NONE', #166, 1000.000000000000000 ) ;
#67 = ORIENTED_EDGE ( 'NONE', *, *, #180, .F. ) ;
#68 = VERTEX_POINT ( 'NONE', #37 ) ;
#69 = ORIENTED_EDGE ( 'NONE', *, *, #96, .T. ) ;
#70 = CARTESIAN_POINT ( 'NONE',  ( 3.367778697655221307E-15, 0.000000000000000000, 27.50000000000000000 ) ) ;
#71 =( GEOMETRIC_REPRESENTATION_CONTEXT ( 3 ) GLOBAL_UNCERTAINTY_ASSIGNED_CONTEXT ( ( #156 ) ) GLOBAL_UNIT_ASSIGNED_CONTEXT ( ( #204, #29, #51 ) ) REPRESENTATION_CONTEXT ( 'NONE', 'WORKASPACE' ) );
#72 = CARTESIAN_POINT ( 'NONE',  ( 1.745121688784977439E-15, -1.025641694285908444E-15, 14.24999999999999467 ) ) ;
#73 = LINE ( 'NONE', #14, #66 ) ;
#74 = DIRECTION ( 'NONE',  ( 0.000000000000000000, 0.000000000000000000, -1.000000000000000000 ) ) ;
#75 = DIRECTION ( 'NONE',  ( 0.000000000000000000, -0.000000000000000000, 1.000000000000000000 ) ) ;
#76 = PRESENTATION_LAYER_ASSIGNMENT (  '', '', ( #219 ) ) ;
#77 = DIRECTION ( 'NONE',  ( -0.000000000000000000, -1.000000000000000000, -0.000000000000000000 ) ) ;
#78 =( NAMED_UNIT ( * ) PLANE_ANGLE_UNIT ( ) SI_UNIT ( $, .RADIAN. ) );
#79 = VERTEX_POINT ( 'NONE', #89 ) ;
#80 = EDGE_CURVE ( 'NONE', #20, #79, #176, .T. ) ;
#81 = EDGE_CURVE ( 'NONE', #20, #53, #73, .T. ) ;
#82 = CIRCLE ( 'NONE', #198, 27.50000000000000000 ) ;
#83 = SURFACE_SIDE_STYLE ('',( #27 ) ) ;
#84 =( BOUNDED_CURVE ( )  B_SPLINE_CURVE ( 3, ( #94, #220, #95, #23 ),
 .UNSPECIFIED., .F., .F. ) 
 B_SPLINE_CURVE_WITH_KNOTS ( ( 4, 4 ),
 ( 1.570796326794896558, 4.712388980384689674 ),
 .UNSPECIFIED. ) 
 CURVE ( )  GEOMETRIC_REPRESENTATION_ITEM ( )  RATIONAL_B_SPLINE_CURVE ( ( 1.000000000000000000, 0.3333333333333333703, 0.3333333333333333703, 1.000000000000000000 ) ) 
 REPRESENTATION_ITEM ( '' )  );
#85 = SURFACE_STYLE_FILL_AREA ( #103 ) ;
#86 = PRODUCT_DEFINITION_SHAPE ( 'NONE', 'NONE',  #17 ) ;
#87 = CIRCLE ( 'NONE', #120, 14.24999999999999467 ) ;
#88 = VERTEX_POINT ( 'NONE', #72 ) ;
#89 = CARTESIAN_POINT ( 'NONE',  ( 3.367778697655221307E-15, 39.99081855767963845, 27.50000000000000000 ) ) ;
#90 =( BOUNDED_CURVE ( )  B_SPLINE_CURVE ( 3, ( #138, #221, #222, #238 ),
 .UNSPECIFIED., .F., .F. ) 
 B_SPLINE_CURVE_WITH_KNOTS ( ( 4, 4 ),
 ( 4.712388980384689674, 7.853981633974482790 ),
 .UNSPECIFIED. ) 
 CURVE ( )  GEOMETRIC_REPRESENTATION_ITEM ( )  RATIONAL_B_SPLINE_CURVE ( ( 1.000000000000000000, 0.3333333333333333703, 0.3333333333333333703, 1.000000000000000000 ) ) 
 REPRESENTATION_ITEM ( '' )  );
#91 = DIRECTION ( 'NONE',  ( 0.000000000000000000, 0.000000000000000000, 1.000000000000000000 ) ) ;
#92 = ORIENTED_EDGE ( 'NONE', *, *, #196, .T. ) ;
#93 = ORIENTED_EDGE ( 'NONE', *, *, #80, .F. ) ;
#94 = CARTESIAN_POINT ( 'NONE',  ( 1.745121688784977242E-15, 39.99081855767964555, 14.24999999999999112 ) ) ;
#95 = CARTESIAN_POINT ( 'NONE',  ( -28.49999999999998579, 50.36397023426620478, -14.24999999999998757 ) ) ;
#96 = EDGE_CURVE ( 'NONE', #88, #24, #87, .T. ) ;
#97 = UNCERTAINTY_MEASURE_WITH_UNIT (LENGTH_MEASURE( 1.000000000000000082E-05 ), #174, 'distance_accuracy_value', 'NONE');
#98 = SURFACE_SIDE_STYLE ('',( #177 ) ) ;
#99 = FILL_AREA_STYLE ('',( #26 ) ) ;
#100 =( GEOMETRIC_REPRESENTATION_CONTEXT ( 3 ) GLOBAL_UNCERTAINTY_ASSIGNED_CONTEXT ( ( #129 ) ) GLOBAL_UNIT_ASSIGNED_CONTEXT ( ( #199, #78, #181 ) ) REPRESENTATION_CONTEXT ( 'NONE', 'WORKASPACE' ) );
#101 =( NAMED_UNIT ( * ) PLANE_ANGLE_UNIT ( ) SI_UNIT ( $, .RADIAN. ) );
#102 = LINE ( 'NONE', #148, #183 ) ;
#103 = FILL_AREA_STYLE ('',( #161 ) ) ;
#104 = ADVANCED_FACE ( 'NONE', ( #13 ), #215, .T. ) ;
#105 = ORIENTED_EDGE ( 'NONE', *, *, #107, .T. ) ;
#106 = ORIENTED_EDGE ( 'NONE', *, *, #137, .F. ) ;
#107 = EDGE_CURVE ( 'NONE', #68, #88, #230, .T. ) ;
#108 =( BOUNDED_CURVE ( )  B_SPLINE_CURVE ( 3, ( #114, #113, #44, #60 ),
 .UNSPECIFIED., .F., .F. ) 
 B_SPLINE_CURVE_WITH_KNOTS ( ( 4, 4 ),
 ( 1.570796326794896558, 4.712388980384689674 ),
 .UNSPECIFIED. ) 
 CURVE ( )  GEOMETRIC_REPRESENTATION_ITEM ( )  RATIONAL_B_SPLINE_CURVE ( ( 1.000000000000000000, 0.3333333333333333703, 0.3333333333333333703, 1.000000000000000000 ) ) 
 REPRESENTATION_ITEM ( '' )  );
#109 = CARTESIAN_POINT ( 'NONE',  ( 3.367778697655221307E-15, 39.99081855767963845, 27.50000000000000000 ) ) ;
#110 = CARTESIAN_POINT ( 'NONE',  ( 0.000000000000000000, 50.00000000000000000, 0.000000000000000000 ) ) ;
#111 = FACE_OUTER_BOUND ( 'NONE', #121, .T. ) ;
#112 = FILL_AREA_STYLE ('',( #22 ) ) ;
#113 = CARTESIAN_POINT ( 'NONE',  ( -54.99999999999999289, 60.00918144232037577, 27.50000000000000711 ) ) ;
#114 = CARTESIAN_POINT ( 'NONE',  ( 3.367778697655221307E-15, 39.99081855767963845, 27.50000000000000000 ) ) ;
#115 = CARTESIAN_POINT ( 'NONE',  ( 0.000000000000000000, -1.025641694285908444E-15, 0.000000000000000000 ) ) ;
#116 = ORIENTED_EDGE ( 'NONE', *, *, #180, .T. ) ;
#117 = DIRECTION ( 'NONE',  ( 0.000000000000000000, 1.000000000000000000, 0.000000000000000000 ) ) ;
#118 = SURFACE_SIDE_STYLE ('',( #85 ) ) ;
#119 =( LENGTH_UNIT ( ) NAMED_UNIT ( * ) SI_UNIT ( .MILLI., .METRE. ) );
#120 = AXIS2_PLACEMENT_3D ( 'NONE', #115, #197, #74 ) ;
#121 = EDGE_LOOP ( 'NONE', ( #231, #30, #203, #144 ) ) ;
#122 = APPLICATION_CONTEXT ( 'automotive_design' ) ;
#123 = ORIENTED_EDGE ( 'NONE', *, *, #226, .F. ) ;
#124 = DIRECTION ( 'NONE',  ( 0.000000000000000000, 0.000000000000000000, -1.000000000000000000 ) ) ;
#125 = EDGE_LOOP ( 'NONE', ( #93, #208 ) ) ;
#126 = STYLED_ITEM ( 'NONE', ( #15 ), #244 ) ;
#127 = ORIENTED_EDGE ( 'NONE', *, *, #192, .F. ) ;
#128 = ADVANCED_FACE ( 'NONE', ( #19, #234 ), #133, .F. ) ;
#129 = UNCERTAINTY_MEASURE_WITH_UNIT (LENGTH_MEASURE( 1.000000000000000082E-05 ), #199, 'distance_accuracy_value', 'NONE');
#130 = PRESENTATION_STYLE_ASSIGNMENT (( #150 ) ) ;
#131 = ORIENTED_EDGE ( 'NONE', *, *, #137, .T. ) ;
#132 = DIRECTION ( 'NONE',  ( -0.000000000000000000, -1.000000000000000000, -0.000000000000000000 ) ) ;
#133 = PLANE ( 'NONE',  #214 ) ;
#134 = STYLED_ITEM ( 'NONE', ( #52 ), #228 ) ;
#135 = UNCERTAINTY_MEASURE_WITH_UNIT (LENGTH_MEASURE( 1.000000000000000082E-05 ), #8, 'distance_accuracy_value', 'NONE');
#136 = FACE_OUTER_BOUND ( 'NONE', #216, .T. ) ;
#137 = EDGE_CURVE ( 'NONE', #24, #88, #169, .T. ) ;
#138 = CARTESIAN_POINT ( 'NONE',  ( 0.000000000000000000, 39.99081855767964555, -14.24999999999999112 ) ) ;
#139 = APPLICATION_CONTEXT ( 'automotive_design' ) ;
#140 = FACE_OUTER_BOUND ( 'NONE', #32, .T. ) ;
#141 = VECTOR ( 'NONE', #61, 1000.000000000000000 ) ;
#142 = ADVANCED_BREP_SHAPE_REPRESENTATION ( 'conduit pour sonde mic +350 ', ( #206, #2 ), #71 ) ;
#143 = CARTESIAN_POINT ( 'NONE',  ( 0.000000000000000000, 0.000000000000000000, 0.000000000000000000 ) ) ;
#144 = ORIENTED_EDGE ( 'NONE', *, *, #81, .F. ) ;
#145 = COLOUR_RGB ( '',0.6980392156862744724, 0.6980392156862744724, 0.6980392156862744724 ) ;
#146 = CARTESIAN_POINT ( 'NONE',  ( 0.000000000000000000, 50.00000000000000000, 0.000000000000000000 ) ) ;
#147 = MECHANICAL_DESIGN_GEOMETRIC_PRESENTATION_REPRESENTATION (  '', ( #171 ), #210 ) ;
#148 = CARTESIAN_POINT ( 'NONE',  ( 0.000000000000000000, 0.000000000000000000, -14.24999999999999112 ) ) ;
#149 = ORIENTED_EDGE ( 'NONE', *, *, #81, .T. ) ;
#150 = SURFACE_STYLE_USAGE ( .BOTH. , #98 ) ;
#151 = PRODUCT_DEFINITION_CONTEXT ( 'detailed design', #139, 'design' ) ;
#152 =( NAMED_UNIT ( * ) PLANE_ANGLE_UNIT ( ) SI_UNIT ( $, .RADIAN. ) );
#153 = CARTESIAN_POINT ( 'NONE',  ( 0.000000000000000000, 0.000000000000000000, 0.000000000000000000 ) ) ;
#154 =( NAMED_UNIT ( * ) SI_UNIT ( $, .STERADIAN. ) SOLID_ANGLE_UNIT ( ) );
#155 = DIRECTION ( 'NONE',  ( -0.000000000000000000, -1.000000000000000000, -0.000000000000000000 ) ) ;
#156 = UNCERTAINTY_MEASURE_WITH_UNIT (LENGTH_MEASURE( 1.000000000000000082E-05 ), #204, 'distance_accuracy_value', 'NONE');
#157 = AXIS2_PLACEMENT_3D ( 'NONE', #193, #217, #45 ) ;
#158 = SURFACE_STYLE_USAGE ( .BOTH. , #118 ) ;
#159 = CYLINDRICAL_SURFACE ( 'NONE', #34, 27.50000000000000000 ) ;
#160 = AXIS2_PLACEMENT_3D ( 'NONE', #40, #77, #225 ) ;
#161 = FILL_AREA_STYLE_COLOUR ( '', #48 ) ;
#162 = EDGE_CURVE ( 'NONE', #189, #24, #102, .T. ) ;
#163 = ORIENTED_EDGE ( 'NONE', *, *, #200, .T. ) ;
#164 = UNCERTAINTY_MEASURE_WITH_UNIT (LENGTH_MEASURE( 1.000000000000000082E-05 ), #119, 'distance_accuracy_value', 'NONE');
#165 = ORIENTED_EDGE ( 'NONE', *, *, #196, .F. ) ;
#166 = DIRECTION ( 'NONE',  ( -0.000000000000000000, -1.000000000000000000, -0.000000000000000000 ) ) ;
#167 = CARTESIAN_POINT ( 'NONE',  ( -27.50000000000000000, 50.00000000000000000, -54.99999999999999289 ) ) ;
#168 = SHAPE_DEFINITION_REPRESENTATION ( #86, #142 ) ;
#169 = CIRCLE ( 'NONE', #157, 14.24999999999999467 ) ;
#170 = FACE_OUTER_BOUND ( 'NONE', #125, .T. ) ;
#171 = STYLED_ITEM ( 'NONE', ( #130 ), #206 ) ;
#172 =( NAMED_UNIT ( * ) SI_UNIT ( $, .STERADIAN. ) SOLID_ANGLE_UNIT ( ) );
#173 = EDGE_LOOP ( 'NONE', ( #10, #163, #149, #116 ) ) ;
#174 =( LENGTH_UNIT ( ) NAMED_UNIT ( * ) SI_UNIT ( .MILLI., .METRE. ) );
#175 = SURFACE_STYLE_USAGE ( .BOTH. , #241 ) ;
#176 =( BOUNDED_CURVE ( )  B_SPLINE_CURVE ( 3, ( #16, #232, #235, #109 ),
 .UNSPECIFIED., .F., .F. ) 
 B_SPLINE_CURVE_WITH_KNOTS ( ( 4, 4 ),
 ( 4.712388980384689674, 7.853981633974482790 ),
 .UNSPECIFIED. ) 
 CURVE ( )  GEOMETRIC_REPRESENTATION_ITEM ( )  RATIONAL_B_SPLINE_CURVE ( ( 1.000000000000000000, 0.3333333333333333703, 0.3333333333333333703, 1.000000000000000000 ) ) 
 REPRESENTATION_ITEM ( '' )  );
#177 = SURFACE_STYLE_FILL_AREA ( #112 ) ;
#178 = SURFACE_STYLE_USAGE ( .BOTH. , #83 ) ;
#179 = APPLICATION_PROTOCOL_DEFINITION ( 'draft international standard', 'automotive_design', 1998, #139 ) ;
#180 = EDGE_CURVE ( 'NONE', #53, #5, #41, .T. ) ;
#181 =( NAMED_UNIT ( * ) SI_UNIT ( $, .STERADIAN. ) SOLID_ANGLE_UNIT ( ) );
#182 = APPLICATION_PROTOCOL_DEFINITION ( 'draft international standard', 'automotive_design', 1998, #122 ) ;
#183 = VECTOR ( 'NONE', #21, 1000.000000000000000 ) ;
#184 = PRESENTATION_STYLE_ASSIGNMENT (( #175 ) ) ;
#185 = AXIS2_PLACEMENT_3D ( 'NONE', #146, #213, #42 ) ;
#186 = MECHANICAL_DESIGN_GEOMETRIC_PRESENTATION_REPRESENTATION (  '', ( #126 ), #63 ) ;
#187 = ORIENTED_EDGE ( 'NONE', *, *, #226, .T. ) ;
#188 = DIRECTION ( 'NONE',  ( -0.3420201433256627732, -0.9396926207859105373, 0.000000000000000000 ) ) ;
#189 = VERTEX_POINT ( 'NONE', #59 ) ;
#190 = DIRECTION ( 'NONE',  ( 0.000000000000000000, 0.000000000000000000, -1.000000000000000000 ) ) ;
#191 = DIRECTION ( 'NONE',  ( -0.000000000000000000, -1.000000000000000000, -0.000000000000000000 ) ) ;
#192 = EDGE_CURVE ( 'NONE', #5, #53, #82, .T. ) ;
#193 = CARTESIAN_POINT ( 'NONE',  ( 0.000000000000000000, -1.025641694285908444E-15, 0.000000000000000000 ) ) ;
#194 = ORIENTED_EDGE ( 'NONE', *, *, #96, .F. ) ;
#195 = CARTESIAN_POINT ( 'NONE',  ( 0.000000000000000000, 0.000000000000000000, 0.000000000000000000 ) ) ;
#196 = EDGE_CURVE ( 'NONE', #68, #189, #84, .T. ) ;
#197 = DIRECTION ( 'NONE',  ( -0.000000000000000000, -1.000000000000000000, -0.000000000000000000 ) ) ;
#198 = AXIS2_PLACEMENT_3D ( 'NONE', #153, #117, #218 ) ;
#199 =( LENGTH_UNIT ( ) NAMED_UNIT ( * ) SI_UNIT ( .MILLI., .METRE. ) );
#200 = EDGE_CURVE ( 'NONE', #79, #20, #108, .T. ) ;
#201 = DIRECTION ( 'NONE',  ( 1.000000000000000000, 0.000000000000000000, 0.000000000000000000 ) ) ;
#202 = PRODUCT_RELATED_PRODUCT_CATEGORY ( 'part', '', ( #36 ) ) ;
#203 = ORIENTED_EDGE ( 'NONE', *, *, #192, .T. ) ;
#204 =( LENGTH_UNIT ( ) NAMED_UNIT ( * ) SI_UNIT ( .MILLI., .METRE. ) );
#205 =( GEOMETRIC_REPRESENTATION_CONTEXT ( 3 ) GLOBAL_UNCERTAINTY_ASSIGNED_CONTEXT ( ( #164 ) ) GLOBAL_UNIT_ASSIGNED_CONTEXT ( ( #119, #240, #28 ) ) REPRESENTATION_CONTEXT ( 'NONE', 'WORKASPACE' ) );
#206 = MANIFOLD_SOLID_BREP ( 'Trou taraudé M30x1.51', #227 ) ;
#207 = AXIS2_PLACEMENT_3D ( 'NONE', #143, #155, #124 ) ;
#208 = ORIENTED_EDGE ( 'NONE', *, *, #200, .F. ) ;
#209 = CARTESIAN_POINT ( 'NONE',  ( 0.000000000000000000, -1.025641694285908444E-15, -14.24999999999999467 ) ) ;
#210 =( GEOMETRIC_REPRESENTATION_CONTEXT ( 3 ) GLOBAL_UNCERTAINTY_ASSIGNED_CONTEXT ( ( #97 ) ) GLOBAL_UNIT_ASSIGNED_CONTEXT ( ( #174, #152, #172 ) ) REPRESENTATION_CONTEXT ( 'NONE', 'WORKASPACE' ) );
#211 = CARTESIAN_POINT ( 'NONE',  ( 0.000000000000000000, 39.99081855767963845, -27.50000000000000000 ) ) ;
#212 = CYLINDRICAL_SURFACE ( 'NONE', #207, 14.24999999999999112 ) ;
#213 = DIRECTION ( 'NONE',  ( -0.000000000000000000, -1.000000000000000000, -0.000000000000000000 ) ) ;
#214 = AXIS2_PLACEMENT_3D ( 'NONE', #195, #62, #75 ) ;
#215 = CYLINDRICAL_SURFACE ( 'NONE', #185, 27.50000000000000000 ) ;
#216 = EDGE_LOOP ( 'NONE', ( #165, #105, #69, #58 ) ) ;
#217 = DIRECTION ( 'NONE',  ( -0.000000000000000000, -1.000000000000000000, -0.000000000000000000 ) ) ;
#218 = DIRECTION ( 'NONE',  ( 0.000000000000000000, 0.000000000000000000, 1.000000000000000000 ) ) ;
#219 = STYLED_ITEM ( 'NONE', ( #184 ), #142 ) ;
#220 = CARTESIAN_POINT ( 'NONE',  ( -28.49999999999998224, 50.36397023426620478, 14.24999999999999289 ) ) ;
#221 = CARTESIAN_POINT ( 'NONE',  ( 28.49999999999997513, 29.61766688109309342, -14.24999999999999822 ) ) ;
#222 = CARTESIAN_POINT ( 'NONE',  ( 28.49999999999998224, 29.61766688109309342, 14.24999999999999112 ) ) ;
#223 = FILL_AREA_STYLE ('',( #47 ) ) ;
#224 = ORIENTED_EDGE ( 'NONE', *, *, #162, .T. ) ;
#225 = DIRECTION ( 'NONE',  ( 0.000000000000000000, 0.000000000000000000, -1.000000000000000000 ) ) ;
#226 = EDGE_CURVE ( 'NONE', #189, #68, #90, .T. ) ;
#227 = CLOSED_SHELL ( 'NONE', ( #228, #31, #128, #104, #3, #244 ) ) ;
#228 = ADVANCED_FACE ( 'NONE', ( #136 ), #229, .F. ) ;
#229 = CYLINDRICAL_SURFACE ( 'NONE', #160, 14.24999999999999112 ) ;
#230 = LINE ( 'NONE', #236, #141 ) ;
#231 = ORIENTED_EDGE ( 'NONE', *, *, #80, .T. ) ;
#232 = CARTESIAN_POINT ( 'NONE',  ( 54.99999999999999289, 19.97245567303890112, -27.50000000000001776 ) ) ;
#233 = CARTESIAN_POINT ( 'NONE',  ( 3.367778697655221307E-15, 50.00000000000000000, 27.50000000000000000 ) ) ;
#234 = FACE_OUTER_BOUND ( 'NONE', #35, .T. ) ;
#235 = CARTESIAN_POINT ( 'NONE',  ( 54.99999999999999289, 19.97245567303890112, 27.49999999999999645 ) ) ;
#236 = CARTESIAN_POINT ( 'NONE',  ( 1.745121688784977242E-15, 0.000000000000000000, 14.24999999999999112 ) ) ;
#237 = COLOUR_RGB ( '',0.6980392156862744724, 0.6980392156862744724, 0.6980392156862744724 ) ;
#238 = CARTESIAN_POINT ( 'NONE',  ( 1.745121688784977242E-15, 39.99081855767964555, 14.24999999999999112 ) ) ;
#239 = MECHANICAL_DESIGN_GEOMETRIC_PRESENTATION_REPRESENTATION (  '', ( #134 ), #100 ) ;
#240 =( NAMED_UNIT ( * ) PLANE_ANGLE_UNIT ( ) SI_UNIT ( $, .RADIAN. ) );
#241 = SURFACE_SIDE_STYLE ('',( #12 ) ) ;
#242 = AXIS2_PLACEMENT_3D ( 'NONE', #39, #7, #91 ) ;
#243 = LINE ( 'NONE', #233, #49 ) ;
#244 = ADVANCED_FACE ( 'NONE', ( #140 ), #212, .F. ) ;
ENDSEC;
END-ISO-10303-21;
