ISO-10303-21;
HEADER;
FILE_DESCRIPTION (( 'STEP AP214' ),
    '1' );
FILE_NAME ('douille  82mm.STEP',
    '2023-08-01T18:32:21',
    ( '' ),
    ( '' ),
    'SwSTEP 2.0',
    'SolidWorks 2019',
    '' );
FILE_SCHEMA (( 'AUTOMOTIVE_DESIGN' ));
ENDSEC;

DATA;
#1 = FACE_BOUND ( 'NONE', #329, .T. ) ;
#2 = CARTESIAN_POINT ( 'NONE',  ( -35.36344537815125477, 0.000000000000000000, 0.000000000000000000 ) ) ;
#3 = FILL_AREA_STYLE_COLOUR ( '', #334 ) ;
#4 = AXIS2_PLACEMENT_3D ( 'NONE', #160, #137, #169 ) ;
#5 = FILL_AREA_STYLE ('',( #3 ) ) ;
#6 = SURFACE_SIDE_STYLE ('',( #284 ) ) ;
#7 = CARTESIAN_POINT ( 'NONE',  ( 42.63655462184874523, 0.000000000000000000, 0.000000000000000000 ) ) ;
#8 = CARTESIAN_POINT ( 'NONE',  ( 42.63655462184874523, 0.000000000000000000, -5.249999999999986677 ) ) ;
#9 = VECTOR ( 'NONE', #340, 1000.000000000000000 ) ;
#10 = CYLINDRICAL_SURFACE ( 'NONE', #354, 6.999999999999995559 ) ;
#11 = EDGE_CURVE ( 'NONE', #246, #69, #166, .T. ) ;
#12 = DIRECTION ( 'NONE',  ( -1.000000000000000000, 0.000000000000000000, 0.000000000000000000 ) ) ;
#13 = EDGE_CURVE ( 'NONE', #221, #122, #131, .T. ) ;
#14 = SURFACE_STYLE_FILL_AREA ( #269 ) ;
#15 = AXIS2_PLACEMENT_3D ( 'NONE', #315, #345, #143 ) ;
#16 = SURFACE_SIDE_STYLE ('',( #14 ) ) ;
#17 = VERTEX_POINT ( 'NONE', #271 ) ;
#18 = VERTEX_POINT ( 'NONE', #67 ) ;
#19 = DIRECTION ( 'NONE',  ( 1.000000000000000000, 0.000000000000000000, 0.000000000000000000 ) ) ;
#20 = ORIENTED_EDGE ( 'NONE', *, *, #95, .F. ) ;
#21 = CARTESIAN_POINT ( 'NONE',  ( -39.36344537815125477, 0.000000000000000000, -5.499999999999989342 ) ) ;
#22 = ORIENTED_EDGE ( 'NONE', *, *, #363, .T. ) ;
#23 = ORIENTED_EDGE ( 'NONE', *, *, #120, .T. ) ;
#24 = CARTESIAN_POINT ( 'NONE',  ( -37.86344537815125477, 0.000000000000000000, 0.000000000000000000 ) ) ;
#25 = ORIENTED_EDGE ( 'NONE', *, *, #296, .T. ) ;
#26 = CARTESIAN_POINT ( 'NONE',  ( 42.63655462184874523, 0.000000000000000000, 0.000000000000000000 ) ) ;
#27 = CONICAL_SURFACE ( 'NONE', #317, 6.999999999999990230, 0.7853981633974482790 ) ;
#28 = CARTESIAN_POINT ( 'NONE',  ( -39.36344537815125477, 5.499999999999989342, 0.000000000000000000 ) ) ;
#29 = CARTESIAN_POINT ( 'NONE',  ( 42.63655462184874523, 0.000000000000000000, 7.000000000000000000 ) ) ;
#30 = FACE_OUTER_BOUND ( 'NONE', #307, .T. ) ;
#31 = CARTESIAN_POINT ( 'NONE',  ( 42.63655462184874523, 0.000000000000000000, 0.000000000000000000 ) ) ;
#32 = AXIS2_PLACEMENT_3D ( 'NONE', #357, #80, #251 ) ;
#33 = EDGE_CURVE ( 'NONE', #328, #299, #178, .T. ) ;
#34 = CARTESIAN_POINT ( 'NONE',  ( -37.86344537815125477, 0.000000000000000000, 0.000000000000000000 ) ) ;
#35 = ADVANCED_FACE ( 'NONE', ( #30 ), #331, .F. ) ;
#36 = DIRECTION ( 'NONE',  ( 1.000000000000000000, 0.000000000000000000, 0.000000000000000000 ) ) ;
#37 = ADVANCED_FACE ( 'NONE', ( #196 ), #112, .F. ) ;
#38 = SURFACE_STYLE_USAGE ( .BOTH. , #16 ) ;
#39 = PRODUCT_DEFINITION_FORMATION_WITH_SPECIFIED_SOURCE ( 'ANY', '', #229, .NOT_KNOWN. ) ;
#40 = ORIENTED_EDGE ( 'NONE', *, *, #250, .T. ) ;
#41 = EDGE_CURVE ( 'NONE', #106, #17, #316, .T. ) ;
#42 = FACE_OUTER_BOUND ( 'NONE', #128, .T. ) ;
#43 = ORIENTED_EDGE ( 'NONE', *, *, #41, .F. ) ;
#44 = DIRECTION ( 'NONE',  ( -1.000000000000000000, 0.000000000000000000, 0.000000000000000000 ) ) ;
#45 = CIRCLE ( 'NONE', #145, 6.999999999999990230 ) ;
#46 = EDGE_LOOP ( 'NONE', ( #40, #218 ) ) ;
#47 = ORIENTED_EDGE ( 'NONE', *, *, #13, .F. ) ;
#48 = DIRECTION ( 'NONE',  ( -0.000000000000000000, 0.000000000000000000, 1.000000000000000000 ) ) ;
#49 = ORIENTED_EDGE ( 'NONE', *, *, #202, .T. ) ;
#50 = DIRECTION ( 'NONE',  ( 1.000000000000000000, -0.000000000000000000, -0.000000000000000000 ) ) ;
#51 = LINE ( 'NONE', #133, #132 ) ;
#52 = CARTESIAN_POINT ( 'NONE',  ( -35.36344537815125477, 6.429395695523582459E-16, 5.249999999999982236 ) ) ;
#53 = ADVANCED_FACE ( 'NONE', ( #117, #312 ), #176, .F. ) ;
#54 = CARTESIAN_POINT ( 'NONE',  ( -39.36344537815125477, 0.000000000000000000, 0.000000000000000000 ) ) ;
#55 = DIRECTION ( 'NONE',  ( 0.000000000000000000, 0.000000000000000000, -1.000000000000000000 ) ) ;
#56 = AXIS2_PLACEMENT_3D ( 'NONE', #28, #19, #108 ) ;
#57 = DIRECTION ( 'NONE',  ( -1.000000000000000000, -0.000000000000000000, -0.000000000000000000 ) ) ;
#58 =( GEOMETRIC_REPRESENTATION_CONTEXT ( 3 ) GLOBAL_UNCERTAINTY_ASSIGNED_CONTEXT ( ( #213 ) ) GLOBAL_UNIT_ASSIGNED_CONTEXT ( ( #270, #322, #208 ) ) REPRESENTATION_CONTEXT ( 'NONE', 'WORKASPACE' ) );
#59 =( NAMED_UNIT ( * ) SI_UNIT ( $, .STERADIAN. ) SOLID_ANGLE_UNIT ( ) );
#60 = EDGE_CURVE ( 'NONE', #124, #356, #118, .T. ) ;
#61 = DIRECTION ( 'NONE',  ( 0.7071067811865474617, 8.659560562354932858E-17, 0.7071067811865474617 ) ) ;
#62 = CARTESIAN_POINT ( 'NONE',  ( -37.86344537815125477, 0.000000000000000000, 0.000000000000000000 ) ) ;
#63 = AXIS2_PLACEMENT_3D ( 'NONE', #308, #338, #364 ) ;
#64 = AXIS2_PLACEMENT_3D ( 'NONE', #182, #283, #135 ) ;
#65 = DIRECTION ( 'NONE',  ( 0.000000000000000000, 0.000000000000000000, -1.000000000000000000 ) ) ;
#66 = EDGE_CURVE ( 'NONE', #299, #107, #198, .T. ) ;
#67 = CARTESIAN_POINT ( 'NONE',  ( -36.56516661620637620, 5.204748896376240838E-16, 3.250000000000000444 ) ) ;
#68 = DIRECTION ( 'NONE',  ( -1.000000000000000000, -0.000000000000000000, -0.000000000000000000 ) ) ;
#69 = VERTEX_POINT ( 'NONE', #247 ) ;
#70 = CARTESIAN_POINT ( 'NONE',  ( -39.36344537815125477, 0.000000000000000000, 6.999999999999995559 ) ) ;
#71 = ORIENTED_EDGE ( 'NONE', *, *, #60, .T. ) ;
#72 = ORIENTED_EDGE ( 'NONE', *, *, #33, .F. ) ;
#73 = AXIS2_PLACEMENT_3D ( 'NONE', #7, #234, #258 ) ;
#74 = CARTESIAN_POINT ( 'NONE',  ( 42.63655462184874523, 0.000000000000000000, -5.249999999999991118 ) ) ;
#75 = ORIENTED_EDGE ( 'NONE', *, *, #355, .T. ) ;
#76 = ORIENTED_EDGE ( 'NONE', *, *, #161, .T. ) ;
#77 = CARTESIAN_POINT ( 'NONE',  ( -37.86344537815125477, 0.000000000000000000, 6.999999999999990230 ) ) ;
#78 = EDGE_LOOP ( 'NONE', ( #303, #156 ) ) ;
#79 = UNCERTAINTY_MEASURE_WITH_UNIT (LENGTH_MEASURE( 1.000000000000000082E-05 ), #94, 'distance_accuracy_value', 'NONE');
#80 = DIRECTION ( 'NONE',  ( -1.000000000000000000, -0.000000000000000000, -0.000000000000000000 ) ) ;
#81 = DIRECTION ( 'NONE',  ( 0.000000000000000000, 0.000000000000000000, 1.000000000000000000 ) ) ;
#82 = ADVANCED_FACE ( 'NONE', ( #123 ), #253, .F. ) ;
#83 = CYLINDRICAL_SURFACE ( 'NONE', #15, 3.250000000000000444 ) ;
#84 = DIRECTION ( 'NONE',  ( 1.000000000000000000, -0.000000000000000000, -0.000000000000000000 ) ) ;
#85 = DIRECTION ( 'NONE',  ( -1.000000000000000000, -0.000000000000000000, -0.000000000000000000 ) ) ;
#86 = CARTESIAN_POINT ( 'NONE',  ( -39.36344537815125477, 0.000000000000000000, 0.000000000000000000 ) ) ;
#87 = AXIS2_PLACEMENT_3D ( 'NONE', #26, #50, #332 ) ;
#88 = MECHANICAL_DESIGN_GEOMETRIC_PRESENTATION_REPRESENTATION (  '', ( #295 ), #140 ) ;
#89 = CARTESIAN_POINT ( 'NONE',  ( -39.36344537815125477, 0.000000000000000000, 0.000000000000000000 ) ) ;
#90 =( NAMED_UNIT ( * ) SI_UNIT ( $, .STERADIAN. ) SOLID_ANGLE_UNIT ( ) );
#91 = VECTOR ( 'NONE', #256, 1000.000000000000000 ) ;
#92 = PRESENTATION_LAYER_ASSIGNMENT (  '', '', ( #295 ) ) ;
#93 = DIRECTION ( 'NONE',  ( 1.000000000000000000, 0.000000000000000000, 0.000000000000000000 ) ) ;
#94 =( LENGTH_UNIT ( ) NAMED_UNIT ( * ) SI_UNIT ( .MILLI., .METRE. ) );
#95 = EDGE_CURVE ( 'NONE', #69, #122, #353, .T. ) ;
#96 = ORIENTED_EDGE ( 'NONE', *, *, #342, .T. ) ;
#97 = VECTOR ( 'NONE', #61, 1000.000000000000114 ) ;
#98 = ORIENTED_EDGE ( 'NONE', *, *, #223, .F. ) ;
#99 = DIRECTION ( 'NONE',  ( 0.000000000000000000, 0.000000000000000000, -1.000000000000000000 ) ) ;
#100 = ORIENTED_EDGE ( 'NONE', *, *, #223, .T. ) ;
#101 = CARTESIAN_POINT ( 'NONE',  ( -29.36344537815125477, 0.000000000000000000, 3.250000000000000444 ) ) ;
#102 = ORIENTED_EDGE ( 'NONE', *, *, #348, .T. ) ;
#103 = EDGE_LOOP ( 'NONE', ( #20, #25, #23, #130 ) ) ;
#104 = DIRECTION ( 'NONE',  ( 0.000000000000000000, 0.000000000000000000, -1.000000000000000000 ) ) ;
#105 = CIRCLE ( 'NONE', #163, 5.499999999999989342 ) ;
#106 = VERTEX_POINT ( 'NONE', #162 ) ;
#107 = VERTEX_POINT ( 'NONE', #279 ) ;
#108 = DIRECTION ( 'NONE',  ( 0.000000000000000000, 0.000000000000000000, -1.000000000000000000 ) ) ;
#109 = CARTESIAN_POINT ( 'NONE',  ( -39.36344537815125477, 8.572527594031467273E-16, -6.999999999999995559 ) ) ;
#110 = ADVANCED_FACE ( 'NONE', ( #325 ), #227, .F. ) ;
#111 = FACE_OUTER_BOUND ( 'NONE', #277, .T. ) ;
#112 = CYLINDRICAL_SURFACE ( 'NONE', #73, 5.249999999999986677 ) ;
#113 = SURFACE_STYLE_USAGE ( .BOTH. , #6 ) ;
#114 = DIRECTION ( 'NONE',  ( 1.000000000000000000, -0.000000000000000000, -0.000000000000000000 ) ) ;
#115 = DIRECTION ( 'NONE',  ( 0.000000000000000000, 0.000000000000000000, 1.000000000000000000 ) ) ;
#116 = MECHANICAL_DESIGN_GEOMETRIC_PRESENTATION_REPRESENTATION (  '', ( #194 ), #222 ) ;
#117 = FACE_BOUND ( 'NONE', #78, .T. ) ;
#118 = CIRCLE ( 'NONE', #87, 5.249999999999991118 ) ;
#119 = AXIS2_PLACEMENT_3D ( 'NONE', #205, #266, #93 ) ;
#120 = EDGE_CURVE ( 'NONE', #246, #214, #281, .T. ) ;
#121 = ORIENTED_EDGE ( 'NONE', *, *, #300, .F. ) ;
#122 = VERTEX_POINT ( 'NONE', #274 ) ;
#123 = FACE_OUTER_BOUND ( 'NONE', #183, .T. ) ;
#124 = VERTEX_POINT ( 'NONE', #74 ) ;
#125 = CARTESIAN_POINT ( 'NONE',  ( -39.36344537815125477, 0.000000000000000000, 0.000000000000000000 ) ) ;
#126 = ORIENTED_EDGE ( 'NONE', *, *, #161, .F. ) ;
#127 = PRODUCT_DEFINITION ( 'UNKNOWN', '', #39, #151 ) ;
#128 = EDGE_LOOP ( 'NONE', ( #180, #185, #333, #352 ) ) ;
#129 = DIRECTION ( 'NONE',  ( 1.000000000000000000, 0.000000000000000000, 0.000000000000000000 ) ) ;
#130 = ORIENTED_EDGE ( 'NONE', *, *, #339, .F. ) ;
#131 = LINE ( 'NONE', #362, #268 ) ;
#132 = VECTOR ( 'NONE', #154, 1000.000000000000000 ) ;
#133 = CARTESIAN_POINT ( 'NONE',  ( -35.36344537815125477, 0.000000000000000000, -5.249999999999982236 ) ) ;
#134 = ADVANCED_FACE ( 'NONE', ( #42 ), #192, .T. ) ;
#135 = DIRECTION ( 'NONE',  ( 0.000000000000000000, 0.000000000000000000, 1.000000000000000000 ) ) ;
#136 = DIRECTION ( 'NONE',  ( 0.000000000000000000, 0.000000000000000000, 1.000000000000000000 ) ) ;
#137 = DIRECTION ( 'NONE',  ( 1.000000000000000000, -0.000000000000000000, -0.000000000000000000 ) ) ;
#138 = VECTOR ( 'NONE', #57, 1000.000000000000000 ) ;
#139 = FACE_OUTER_BOUND ( 'NONE', #103, .T. ) ;
#140 =( GEOMETRIC_REPRESENTATION_CONTEXT ( 3 ) GLOBAL_UNCERTAINTY_ASSIGNED_CONTEXT ( ( #79 ) ) GLOBAL_UNIT_ASSIGNED_CONTEXT ( ( #94, #346, #90 ) ) REPRESENTATION_CONTEXT ( 'NONE', 'WORKASPACE' ) );
#141 = EDGE_CURVE ( 'NONE', #107, #299, #286, .T. ) ;
#142 = CARTESIAN_POINT ( 'NONE',  ( -39.36344537815125477, 3.980102097228898231E-16, -3.250000000000000444 ) ) ;
#143 = DIRECTION ( 'NONE',  ( 0.000000000000000000, 0.000000000000000000, 1.000000000000000000 ) ) ;
#144 = DIRECTION ( 'NONE',  ( 0.000000000000000000, 0.000000000000000000, -1.000000000000000000 ) ) ;
#145 = AXIS2_PLACEMENT_3D ( 'NONE', #264, #235, #115 ) ;
#146 = CARTESIAN_POINT ( 'NONE',  ( 42.63655462184874523, 6.429395695523594292E-16, 5.249999999999991118 ) ) ;
#147 = CIRCLE ( 'NONE', #228, 5.499999999999989342 ) ;
#148 = CARTESIAN_POINT ( 'NONE',  ( -39.36344537815125477, 7.654042494670945774E-16, 5.499999999999989342 ) ) ;
#149 = DIRECTION ( 'NONE',  ( 0.7071067811865474617, 0.000000000000000000, -0.7071067811865474617 ) ) ;
#150 = CARTESIAN_POINT ( 'NONE',  ( -29.36344537815125477, 3.980102097228898231E-16, -3.250000000000000444 ) ) ;
#151 = PRODUCT_DEFINITION_CONTEXT ( 'detailed design', #165, 'design' ) ;
#152 = CARTESIAN_POINT ( 'NONE',  ( -35.36344537815125477, 0.000000000000000000, 0.000000000000000000 ) ) ;
#153 = ORIENTED_EDGE ( 'NONE', *, *, #60, .F. ) ;
#154 = DIRECTION ( 'NONE',  ( 0.5150380749100575972, 0.000000000000000000, -0.8571673007021102242 ) ) ;
#155 = ORIENTED_EDGE ( 'NONE', *, *, #250, .F. ) ;
#156 = ORIENTED_EDGE ( 'NONE', *, *, #66, .F. ) ;
#157 = FACE_OUTER_BOUND ( 'NONE', #191, .T. ) ;
#158 = DIRECTION ( 'NONE',  ( -1.000000000000000000, -0.000000000000000000, -0.000000000000000000 ) ) ;
#159 = CARTESIAN_POINT ( 'NONE',  ( -35.36344537815125477, 0.000000000000000000, 0.000000000000000000 ) ) ;
#160 = CARTESIAN_POINT ( 'NONE',  ( -35.36344537815125477, 0.000000000000000000, 0.000000000000000000 ) ) ;
#161 = EDGE_CURVE ( 'NONE', #328, #106, #51, .T. ) ;
#162 = CARTESIAN_POINT ( 'NONE',  ( -35.36344537815125477, 0.000000000000000000, -5.249999999999982236 ) ) ;
#163 = AXIS2_PLACEMENT_3D ( 'NONE', #86, #170, #290 ) ;
#164 = DIRECTION ( 'NONE',  ( 0.5150380749100575972, 1.049727191138616107E-16, 0.8571673007021102242 ) ) ;
#165 = APPLICATION_CONTEXT ( 'automotive_design' ) ;
#166 = CIRCLE ( 'NONE', #232, 7.000000000000000000 ) ;
#167 = FACE_OUTER_BOUND ( 'NONE', #187, .T. ) ;
#168 = AXIS2_PLACEMENT_3D ( 'NONE', #319, #291, #81 ) ;
#169 = DIRECTION ( 'NONE',  ( 0.000000000000000000, 0.000000000000000000, -1.000000000000000000 ) ) ;
#170 = DIRECTION ( 'NONE',  ( -1.000000000000000000, -0.000000000000000000, -0.000000000000000000 ) ) ;
#171 = CARTESIAN_POINT ( 'NONE',  ( 42.63655462184874523, 6.429395695523588376E-16, 5.249999999999986677 ) ) ;
#172 = EDGE_CURVE ( 'NONE', #17, #106, #273, .T. ) ;
#173 = CONICAL_SURFACE ( 'NONE', #231, 6.999999999999990230, 0.7853981633974482790 ) ;
#174 = CARTESIAN_POINT ( 'NONE',  ( -36.56516661620637620, 0.000000000000000000, 0.000000000000000000 ) ) ;
#175 = DIRECTION ( 'NONE',  ( 0.000000000000000000, 0.000000000000000000, 1.000000000000000000 ) ) ;
#176 = PLANE ( 'NONE',  #56 ) ;
#177 = APPLICATION_PROTOCOL_DEFINITION ( 'draft international standard', 'automotive_design', 1998, #165 ) ;
#178 = LINE ( 'NONE', #150, #138 ) ;
#179 = DIRECTION ( 'NONE',  ( 0.000000000000000000, 0.000000000000000000, -1.000000000000000000 ) ) ;
#180 = ORIENTED_EDGE ( 'NONE', *, *, #11, .T. ) ;
#181 = EDGE_CURVE ( 'NONE', #18, #107, #224, .T. ) ;
#182 = CARTESIAN_POINT ( 'NONE',  ( -39.36344537815125477, 0.000000000000000000, 0.000000000000000000 ) ) ;
#183 = EDGE_LOOP ( 'NONE', ( #22, #102, #272, #126 ) ) ;
#184 = VECTOR ( 'NONE', #310, 1000.000000000000000 ) ;
#185 = ORIENTED_EDGE ( 'NONE', *, *, #95, .T. ) ;
#186 = DIRECTION ( 'NONE',  ( 0.000000000000000000, 0.000000000000000000, 1.000000000000000000 ) ) ;
#187 = EDGE_LOOP ( 'NONE', ( #216, #43, #335, #71 ) ) ;
#188 = ORIENTED_EDGE ( 'NONE', *, *, #181, .T. ) ;
#189 = DIRECTION ( 'NONE',  ( 0.000000000000000000, 0.000000000000000000, 1.000000000000000000 ) ) ;
#190 = ORIENTED_EDGE ( 'NONE', *, *, #339, .T. ) ;
#191 = EDGE_LOOP ( 'NONE', ( #211, #254, #75, #47 ) ) ;
#192 = CYLINDRICAL_SURFACE ( 'NONE', #240, 6.999999999999995559 ) ;
#193 = PRODUCT_RELATED_PRODUCT_CATEGORY ( 'part', '', ( #229 ) ) ;
#194 = STYLED_ITEM ( 'NONE', ( #197 ), #314 ) ;
#195 = LINE ( 'NONE', #52, #200 ) ;
#196 = FACE_OUTER_BOUND ( 'NONE', #226, .T. ) ;
#197 = PRESENTATION_STYLE_ASSIGNMENT (( #113 ) ) ;
#198 = CIRCLE ( 'NONE', #204, 3.250000000000000444 ) ;
#199 = DIRECTION ( 'NONE',  ( 0.000000000000000000, 0.000000000000000000, -1.000000000000000000 ) ) ;
#200 = VECTOR ( 'NONE', #164, 1000.000000000000000 ) ;
#201 = LINE ( 'NONE', #171, #9 ) ;
#202 = EDGE_CURVE ( 'NONE', #18, #328, #301, .T. ) ;
#203 = PRESENTATION_STYLE_ASSIGNMENT (( #38 ) ) ;
#204 = AXIS2_PLACEMENT_3D ( 'NONE', #125, #360, #189 ) ;
#205 = CARTESIAN_POINT ( 'NONE',  ( 0.000000000000000000, 0.000000000000000000, 0.000000000000000000 ) ) ;
#206 = ADVANCED_FACE ( 'NONE', ( #1, #245 ), #305, .F. ) ;
#207 = APPLICATION_CONTEXT ( 'automotive_design' ) ;
#208 =( NAMED_UNIT ( * ) SI_UNIT ( $, .STERADIAN. ) SOLID_ANGLE_UNIT ( ) );
#209 = ADVANCED_FACE ( 'NONE', ( #157 ), #173, .T. ) ;
#210 = SHAPE_DEFINITION_REPRESENTATION ( #212, #343 ) ;
#211 = ORIENTED_EDGE ( 'NONE', *, *, #330, .F. ) ;
#212 = PRODUCT_DEFINITION_SHAPE ( 'NONE', 'NONE',  #127 ) ;
#213 = UNCERTAINTY_MEASURE_WITH_UNIT (LENGTH_MEASURE( 1.000000000000000082E-05 ), #270, 'distance_accuracy_value', 'NONE');
#214 = VERTEX_POINT ( 'NONE', #77 ) ;
#215 = DIRECTION ( 'NONE',  ( -1.000000000000000000, -0.000000000000000000, -0.000000000000000000 ) ) ;
#216 = ORIENTED_EDGE ( 'NONE', *, *, #342, .F. ) ;
#217 = CARTESIAN_POINT ( 'NONE',  ( -36.56516661620637620, 0.000000000000000000, 0.000000000000000000 ) ) ;
#218 = ORIENTED_EDGE ( 'NONE', *, *, #330, .T. ) ;
#219 = AXIS2_PLACEMENT_3D ( 'NONE', #217, #44, #99 ) ;
#220 = VECTOR ( 'NONE', #68, 1000.000000000000000 ) ;
#221 = VERTEX_POINT ( 'NONE', #21 ) ;
#222 =( GEOMETRIC_REPRESENTATION_CONTEXT ( 3 ) GLOBAL_UNCERTAINTY_ASSIGNED_CONTEXT ( ( #350 ) ) GLOBAL_UNIT_ASSIGNED_CONTEXT ( ( #233, #313, #59 ) ) REPRESENTATION_CONTEXT ( 'NONE', 'WORKASPACE' ) );
#223 = EDGE_CURVE ( 'NONE', #356, #124, #341, .T. ) ;
#224 = LINE ( 'NONE', #101, #91 ) ;
#225 = EDGE_LOOP ( 'NONE', ( #121, #155, #304, #190 ) ) ;
#226 = EDGE_LOOP ( 'NONE', ( #324, #96, #100, #275 ) ) ;
#227 = CYLINDRICAL_SURFACE ( 'NONE', #32, 3.250000000000000444 ) ;
#228 = AXIS2_PLACEMENT_3D ( 'NONE', #89, #259, #262 ) ;
#229 = PRODUCT ( 'douille  82mm', 'douille  82mm', '', ( #292 ) ) ;
#230 = CARTESIAN_POINT ( 'NONE',  ( -37.86344537815125477, 8.572527594031461357E-16, 6.999999999999990230 ) ) ;
#231 = AXIS2_PLACEMENT_3D ( 'NONE', #24, #129, #179 ) ;
#232 = AXIS2_PLACEMENT_3D ( 'NONE', #358, #158, #309 ) ;
#233 =( LENGTH_UNIT ( ) NAMED_UNIT ( * ) SI_UNIT ( .MILLI., .METRE. ) );
#234 = DIRECTION ( 'NONE',  ( 1.000000000000000000, -0.000000000000000000, -0.000000000000000000 ) ) ;
#235 = DIRECTION ( 'NONE',  ( -1.000000000000000000, -0.000000000000000000, -0.000000000000000000 ) ) ;
#236 = ADVANCED_FACE ( 'NONE', ( #167 ), #311, .F. ) ;
#237 = PRESENTATION_LAYER_ASSIGNMENT (  '', '', ( #194 ) ) ;
#238 = DIRECTION ( 'NONE',  ( -1.000000000000000000, -0.000000000000000000, -0.000000000000000000 ) ) ;
#239 = AXIS2_PLACEMENT_3D ( 'NONE', #31, #114, #199 ) ;
#240 = AXIS2_PLACEMENT_3D ( 'NONE', #257, #215, #186 ) ;
#241 = EDGE_CURVE ( 'NONE', #106, #124, #318, .T. ) ;
#242 = ORIENTED_EDGE ( 'NONE', *, *, #348, .F. ) ;
#243 = ADVANCED_FACE ( 'NONE', ( #139 ), #10, .T. ) ;
#244 = ORIENTED_EDGE ( 'NONE', *, *, #11, .F. ) ;
#245 = FACE_OUTER_BOUND ( 'NONE', #306, .T. ) ;
#246 = VERTEX_POINT ( 'NONE', #29 ) ;
#247 = CARTESIAN_POINT ( 'NONE',  ( 42.63655462184874523, 8.572527594031473190E-16, -7.000000000000000000 ) ) ;
#248 = ORIENTED_EDGE ( 'NONE', *, *, #202, .F. ) ;
#249 = ORIENTED_EDGE ( 'NONE', *, *, #66, .T. ) ;
#250 = EDGE_CURVE ( 'NONE', #221, #361, #147, .T. ) ;
#251 = DIRECTION ( 'NONE',  ( 0.000000000000000000, 0.000000000000000000, 1.000000000000000000 ) ) ;
#252 = ORIENTED_EDGE ( 'NONE', *, *, #41, .T. ) ;
#253 = CONICAL_SURFACE ( 'NONE', #293, 5.249999999999982236, 1.029744258676650537 ) ;
#254 = ORIENTED_EDGE ( 'NONE', *, *, #300, .T. ) ;
#255 = COLOUR_RGB ( '',0.7921568627450980005, 0.8196078431372548767, 0.9333333333333333481 ) ;
#256 = DIRECTION ( 'NONE',  ( -1.000000000000000000, -0.000000000000000000, -0.000000000000000000 ) ) ;
#257 = CARTESIAN_POINT ( 'NONE',  ( -39.36344537815125477, 0.000000000000000000, 0.000000000000000000 ) ) ;
#258 = DIRECTION ( 'NONE',  ( 0.000000000000000000, 0.000000000000000000, -1.000000000000000000 ) ) ;
#259 = DIRECTION ( 'NONE',  ( -1.000000000000000000, -0.000000000000000000, -0.000000000000000000 ) ) ;
#260 = AXIS2_PLACEMENT_3D ( 'NONE', #159, #302, #298 ) ;
#261 = CIRCLE ( 'NONE', #320, 6.999999999999990230 ) ;
#262 = DIRECTION ( 'NONE',  ( 0.000000000000000000, 0.000000000000000000, 1.000000000000000000 ) ) ;
#263 = LINE ( 'NONE', #230, #97 ) ;
#264 = CARTESIAN_POINT ( 'NONE',  ( -37.86344537815125477, 0.000000000000000000, 0.000000000000000000 ) ) ;
#265 = FACE_OUTER_BOUND ( 'NONE', #225, .T. ) ;
#266 = DIRECTION ( 'NONE',  ( 0.000000000000000000, 0.000000000000000000, 1.000000000000000000 ) ) ;
#267 = AXIS2_PLACEMENT_3D ( 'NONE', #336, #276, #48 ) ;
#268 = VECTOR ( 'NONE', #149, 1000.000000000000114 ) ;
#269 = FILL_AREA_STYLE ('',( #349 ) ) ;
#270 =( LENGTH_UNIT ( ) NAMED_UNIT ( * ) SI_UNIT ( .MILLI., .METRE. ) );
#271 = CARTESIAN_POINT ( 'NONE',  ( -35.36344537815125477, 6.429395695523582459E-16, 5.249999999999982236 ) ) ;
#272 = ORIENTED_EDGE ( 'NONE', *, *, #172, .T. ) ;
#273 = CIRCLE ( 'NONE', #260, 5.249999999999982236 ) ;
#274 = CARTESIAN_POINT ( 'NONE',  ( -37.86344537815125477, 8.572527594031464315E-16, -6.999999999999990230 ) ) ;
#275 = ORIENTED_EDGE ( 'NONE', *, *, #241, .F. ) ;
#276 = DIRECTION ( 'NONE',  ( -1.000000000000000000, 0.000000000000000000, -0.000000000000000000 ) ) ;
#277 = EDGE_LOOP ( 'NONE', ( #72, #248, #188, #337 ) ) ;
#278 = ORIENTED_EDGE ( 'NONE', *, *, #363, .F. ) ;
#279 = CARTESIAN_POINT ( 'NONE',  ( -39.36344537815125477, 0.000000000000000000, 3.250000000000000444 ) ) ;
#280 = ORIENTED_EDGE ( 'NONE', *, *, #181, .F. ) ;
#281 = LINE ( 'NONE', #70, #220 ) ;
#282 = CIRCLE ( 'NONE', #323, 3.250000000000000444 ) ;
#283 = DIRECTION ( 'NONE',  ( -1.000000000000000000, 0.000000000000000000, 0.000000000000000000 ) ) ;
#284 = SURFACE_STYLE_FILL_AREA ( #5 ) ;
#285 = VECTOR ( 'NONE', #288, 1000.000000000000000 ) ;
#286 = CIRCLE ( 'NONE', #64, 3.250000000000000444 ) ;
#287 = CIRCLE ( 'NONE', #168, 7.000000000000000000 ) ;
#288 = DIRECTION ( 'NONE',  ( 1.000000000000000000, -0.000000000000000000, -0.000000000000000000 ) ) ;
#289 = ADVANCED_FACE ( 'NONE', ( #111 ), #83, .F. ) ;
#290 = DIRECTION ( 'NONE',  ( 0.000000000000000000, 0.000000000000000000, 1.000000000000000000 ) ) ;
#291 = DIRECTION ( 'NONE',  ( -1.000000000000000000, -0.000000000000000000, -0.000000000000000000 ) ) ;
#292 = PRODUCT_CONTEXT ( 'NONE', #207, 'mechanical' ) ;
#293 = AXIS2_PLACEMENT_3D ( 'NONE', #152, #327, #104 ) ;
#294 = APPLICATION_PROTOCOL_DEFINITION ( 'draft international standard', 'automotive_design', 1998, #207 ) ;
#295 = STYLED_ITEM ( 'NONE', ( #203 ), #343 ) ;
#296 = EDGE_CURVE ( 'NONE', #69, #246, #287, .T. ) ;
#297 = ORIENTED_EDGE ( 'NONE', *, *, #296, .F. ) ;
#298 = DIRECTION ( 'NONE',  ( 0.000000000000000000, 0.000000000000000000, -1.000000000000000000 ) ) ;
#299 = VERTEX_POINT ( 'NONE', #142 ) ;
#300 = EDGE_CURVE ( 'NONE', #361, #214, #263, .T. ) ;
#301 = CIRCLE ( 'NONE', #219, 3.250000000000000444 ) ;
#302 = DIRECTION ( 'NONE',  ( 1.000000000000000000, -0.000000000000000000, -0.000000000000000000 ) ) ;
#303 = ORIENTED_EDGE ( 'NONE', *, *, #141, .F. ) ;
#304 = ORIENTED_EDGE ( 'NONE', *, *, #13, .T. ) ;
#305 = PLANE ( 'NONE',  #267 ) ;
#306 = EDGE_LOOP ( 'NONE', ( #244, #297 ) ) ;
#307 = EDGE_LOOP ( 'NONE', ( #242, #49, #76, #252 ) ) ;
#308 = CARTESIAN_POINT ( 'NONE',  ( 42.63655462184874523, 0.000000000000000000, 0.000000000000000000 ) ) ;
#309 = DIRECTION ( 'NONE',  ( 0.000000000000000000, 0.000000000000000000, 1.000000000000000000 ) ) ;
#310 = DIRECTION ( 'NONE',  ( -1.000000000000000000, -0.000000000000000000, -0.000000000000000000 ) ) ;
#311 = CYLINDRICAL_SURFACE ( 'NONE', #239, 5.249999999999986677 ) ;
#312 = FACE_OUTER_BOUND ( 'NONE', #46, .T. ) ;
#313 =( NAMED_UNIT ( * ) PLANE_ANGLE_UNIT ( ) SI_UNIT ( $, .RADIAN. ) );
#314 = MANIFOLD_SOLID_BREP ( 'Enlèv. mat.-Extru.1', #347 ) ;
#315 = CARTESIAN_POINT ( 'NONE',  ( -29.36344537815125477, 0.000000000000000000, 0.000000000000000000 ) ) ;
#316 = CIRCLE ( 'NONE', #359, 5.249999999999982236 ) ;
#317 = AXIS2_PLACEMENT_3D ( 'NONE', #34, #36, #55 ) ;
#318 = LINE ( 'NONE', #8, #285 ) ;
#319 = CARTESIAN_POINT ( 'NONE',  ( 42.63655462184874523, 0.000000000000000000, 0.000000000000000000 ) ) ;
#320 = AXIS2_PLACEMENT_3D ( 'NONE', #62, #238, #175 ) ;
#321 = ADVANCED_FACE ( 'NONE', ( #265 ), #27, .T. ) ;
#322 =( NAMED_UNIT ( * ) PLANE_ANGLE_UNIT ( ) SI_UNIT ( $, .RADIAN. ) );
#323 = AXIS2_PLACEMENT_3D ( 'NONE', #174, #12, #65 ) ;
#324 = ORIENTED_EDGE ( 'NONE', *, *, #172, .F. ) ;
#325 = FACE_OUTER_BOUND ( 'NONE', #351, .T. ) ;
#326 = ORIENTED_EDGE ( 'NONE', *, *, #33, .T. ) ;
#327 = DIRECTION ( 'NONE',  ( 1.000000000000000000, -0.000000000000000000, -0.000000000000000000 ) ) ;
#328 = VERTEX_POINT ( 'NONE', #344 ) ;
#329 = EDGE_LOOP ( 'NONE', ( #153, #98 ) ) ;
#330 = EDGE_CURVE ( 'NONE', #361, #221, #105, .T. ) ;
#331 = CONICAL_SURFACE ( 'NONE', #4, 5.249999999999982236, 1.029744258676650537 ) ;
#332 = DIRECTION ( 'NONE',  ( 0.000000000000000000, 0.000000000000000000, -1.000000000000000000 ) ) ;
#333 = ORIENTED_EDGE ( 'NONE', *, *, #355, .F. ) ;
#334 = COLOUR_RGB ( '',0.7921568627450980005, 0.8196078431372548767, 0.9333333333333333481 ) ;
#335 = ORIENTED_EDGE ( 'NONE', *, *, #241, .T. ) ;
#336 = CARTESIAN_POINT ( 'NONE',  ( 42.63655462184874523, 0.000000000000000000, 0.000000000000000000 ) ) ;
#337 = ORIENTED_EDGE ( 'NONE', *, *, #141, .T. ) ;
#338 = DIRECTION ( 'NONE',  ( 1.000000000000000000, -0.000000000000000000, -0.000000000000000000 ) ) ;
#339 = EDGE_CURVE ( 'NONE', #122, #214, #45, .T. ) ;
#340 = DIRECTION ( 'NONE',  ( 1.000000000000000000, -0.000000000000000000, -0.000000000000000000 ) ) ;
#341 = CIRCLE ( 'NONE', #63, 5.249999999999991118 ) ;
#342 = EDGE_CURVE ( 'NONE', #17, #356, #201, .T. ) ;
#343 = ADVANCED_BREP_SHAPE_REPRESENTATION ( 'douille  82mm', ( #314, #119 ), #58 ) ;
#344 = CARTESIAN_POINT ( 'NONE',  ( -36.56516661620637620, 0.000000000000000000, -3.250000000000000444 ) ) ;
#345 = DIRECTION ( 'NONE',  ( -1.000000000000000000, -0.000000000000000000, -0.000000000000000000 ) ) ;
#346 =( NAMED_UNIT ( * ) PLANE_ANGLE_UNIT ( ) SI_UNIT ( $, .RADIAN. ) );
#347 = CLOSED_SHELL ( 'NONE', ( #110, #37, #82, #209, #134, #53, #206, #243, #321, #35, #236, #289 ) ) ;
#348 = EDGE_CURVE ( 'NONE', #18, #17, #195, .T. ) ;
#349 = FILL_AREA_STYLE_COLOUR ( '', #255 ) ;
#350 = UNCERTAINTY_MEASURE_WITH_UNIT (LENGTH_MEASURE( 1.000000000000000082E-05 ), #233, 'distance_accuracy_value', 'NONE');
#351 = EDGE_LOOP ( 'NONE', ( #278, #326, #249, #280 ) ) ;
#352 = ORIENTED_EDGE ( 'NONE', *, *, #120, .F. ) ;
#353 = LINE ( 'NONE', #109, #184 ) ;
#354 = AXIS2_PLACEMENT_3D ( 'NONE', #54, #85, #136 ) ;
#355 = EDGE_CURVE ( 'NONE', #214, #122, #261, .T. ) ;
#356 = VERTEX_POINT ( 'NONE', #146 ) ;
#357 = CARTESIAN_POINT ( 'NONE',  ( -29.36344537815125477, 0.000000000000000000, 0.000000000000000000 ) ) ;
#358 = CARTESIAN_POINT ( 'NONE',  ( 42.63655462184874523, 0.000000000000000000, 0.000000000000000000 ) ) ;
#359 = AXIS2_PLACEMENT_3D ( 'NONE', #2, #84, #144 ) ;
#360 = DIRECTION ( 'NONE',  ( -1.000000000000000000, 0.000000000000000000, 0.000000000000000000 ) ) ;
#361 = VERTEX_POINT ( 'NONE', #148 ) ;
#362 = CARTESIAN_POINT ( 'NONE',  ( -37.86344537815125477, 0.000000000000000000, -6.999999999999990230 ) ) ;
#363 = EDGE_CURVE ( 'NONE', #328, #18, #282, .T. ) ;
#364 = DIRECTION ( 'NONE',  ( 0.000000000000000000, 0.000000000000000000, -1.000000000000000000 ) ) ;
ENDSEC;
END-ISO-10303-21;
