0
SECTION
2
HEADER
9
$INSUNITS
70
4
9
$ACADVER
1
AC1014
9
$HANDSEED
5
FFFF
0
ENDSEC
0
SECTION
2
TABLES
0
TABLE
2
VPORT
5
8
100
AcDbSymbolTable
0
ENDTAB
0
TABLE
2
LTYPE
5
5
100
AcDbSymbolTable
0
LTYPE
5
14
100
AcDbSymbolTableRecord
100
AcDbLinetypeTableRecord
2
BYBLOCK
70
0
0
LTYPE
5
15
100
AcDbSymbolTableRecord
100
AcDbLinetypeTableRecord
2
BYLAYER
70
0
0
ENDTAB
0
TABLE
2
LAYER
5
2
100
AcDbSymbolTable
70
2
0
LAYER
5
50
100
AcDbSymbolTableRecord
100
AcDbLayerTableRecord
2
0
70
0
6
CONTINUOUS
0
ENDTAB
0
TABLE
2
STYLE
5
3
100
AcDbSymbolTable
70
1
0
STYLE
5
11
100
AcDbSymbolTableRecord
100
AcDbTextStyleTableRecord
2
STANDARD
70
0
0
ENDTAB
0
TABLE
2
VIEW
5
6
100
AcDbSymbolTable
70
0
0
ENDTAB
0
TABLE
2
UCS
5
7
100
AcDbSymbolTable
70
0
0
ENDTAB
0
TABLE
2
APPID
5
9
100
AcDbSymbolTable
70
2
0
APPID
5
12
100
AcDbSymbolTableRecord
100
AcDbRegAppTableRecord
2
ACAD
70
0
0
ENDTAB
0
TABLE
2
DIMSTYLE
5
A
100
AcDbSymbolTable
70
1
0
ENDTAB
0
TABLE
2
BLOCK_RECORD
5
1
100
AcDbSymbolTable
70
1
0
BLOCK_RECORD
5
1F
100
AcDbSymbolTableRecord
100
AcDbBlockTableRecord
2
*MODEL_SPACE
0
BLOCK_RECORD
5
1B
100
AcDbSymbolTableRecord
100
AcDbBlockTableRecord
2
*PAPER_SPACE
0
ENDTAB
0
ENDSEC
0
SECTION
2
BLOCKS
0
BLOCK
5
20
100
AcDbEntity
100
AcDbBlockBegin
2
*MODEL_SPACE
0
ENDBLK
5
21
100
AcDbEntity
100
AcDbBlockEnd
0
BLOCK
5
1C
100
AcDbEntity
100
AcDbBlockBegin
2
*PAPER_SPACE
0
ENDBLK
5
1D
100
AcDbEntity
100
AcDbBlockEnd
0
ENDSEC
0
SECTION
2
ENTITIES
0
LINE
5
100
100
AcDbEntity
8
0
100
AcDbLine
10
0
20
0
30
0
11
900
21
0
31
0
0
LINE
5
101
100
AcDbEntity
8
0
100
AcDbLine
10
900
20
0
30
0
11
900
21
490
31
0
0
LINE
5
102
100
AcDbEntity
8
0
100
AcDbLine
10
850
20
540
30
0
11
645.8992103656376
21
540
31
0
0
LINE
5
103
100
AcDbEntity
8
0
100
AcDbLine
10
645.8992103656376
20
540
30
0
11
490.00000000000006
21
504.0078313049824
31
0
0
LINE
5
104
100
AcDbEntity
8
0
100
AcDbLine
10
490.00000000000006
20
504.0078313049824
30
0
11
490
21
474.0078313049824
31
0
0
LINE
5
105
100
AcDbEntity
8
0
100
AcDbLine
10
490
20
474.0078313049824
30
0
11
615.00000000000011
21
401.83904765627921
31
0
0
LINE
5
106
100
AcDbEntity
8
0
100
AcDbLine
10
649.99999999999943
20
341.21726939136857
30
0
11
649.99999999999943
21
170.00000000000003
31
0
0
LINE
5
107
100
AcDbEntity
8
0
100
AcDbLine
10
579.99999999999955
20
100.00000000000006
30
0
11
269.48397115764368
21
99.999999999999972
31
0
0
LINE
5
108
100
AcDbEntity
8
0
100
AcDbLine
10
219.98649647458529
20
120.50252531694153
30
0
11
150.00000000000003
21
190.48902179152662
31
0
0
LINE
5
109
100
AcDbEntity
8
0
100
AcDbLine
10
150.00000000000003
20
190.48902179152662
30
0
11
2.2799761544929857e-14
21
180
31
0
0
LINE
5
110
100
AcDbEntity
8
0
100
AcDbLine
10
2.2799761544929857e-14
20
180
30
0
11
0
21
0
31
0
0
ARC
5
111
100
AcDbEntity
8
0
100
AcDbCircle
10
850
20
490
30
0
40
50
210
0
220
0
230
1
100
AcDbArc
50
0
51
90
0
ARC
5
112
100
AcDbEntity
8
0
100
AcDbCircle
10
579.99999999999943
20
170.00000000000003
30
0
40
69.999999999999986
210
0
220
0
230
1
100
AcDbArc
50
-89.999999999999901
51
0
0
ARC
5
113
100
AcDbEntity
8
0
100
AcDbCircle
10
580.00000000000182
20
341.21726939137034
30
0
40
69.999999999997584
210
-0
220
0
230
1
100
AcDbArc
50
0
51
60.000000000000469
0
ARC
5
114
100
AcDbEntity
8
0
100
AcDbCircle
10
269.48397115764402
20
170.00000000000119
30
0
40
70.000000000001251
210
0
220
0
230
1
100
AcDbArc
50
225.00000000000054
51
269.99999999999972
0
ENDSEC
0
SECTION
2
OBJECTS
0
DICTIONARY
5
C
100
AcDbDictionary
3
ACAD_GROUP
350
D
3
ACAD_MLINESTYLE
350
17
0
DICTIONARY
5
D
100
AcDbDictionary
0
DICTIONARY
5
1A
330
C
100
AcDbDictionary
0
DICTIONARY
5
17
100
AcDbDictionary
0
ENDSEC
0
EOF
