  0
SECTION
  2
HEADER
  9
$ACADVER
  1
AC1015
  9
$ACADMAINTVER
 70
     6
  9
$DWGCODEPAGE
  3
ANSI_1252
  9
$INSBASE
 10
0.0
 20
0.0
 30
0.0
  9
$EXTMIN
 10
-8.0
 20
-30.2042833102
 30
0.0
  9
$EXTMAX
 10
107.0
 20
53.3544308215
 30
0.0
  9
$LIMMIN
 10
0.0
 20
0.0
  9
$LIMMAX
 10
420.0
 20
297.0
  9
$ORTHOMODE
 70
     0
  9
$REGENMODE
 70
     1
  9
$FILLMODE
 70
     1
  9
$QTEXTMODE
 70
     0
  9
$MIRRTEXT
 70
     1
  9
$LTSCALE
 40
1.0
  9
$ATTMODE
 70
     1
  9
$TEXTSIZE
 40
3.5
  9
$TRACEWID
 40
1.0
  9
$TEXTSTYLE
  7
Standard
  9
$CLAYER
  8
0
  9
$CELTYPE
  6
ByLayer
  9
$CECOLOR
 62
   256
  9
$CELTSCALE
 40
1.0
  9
$DISPSILH
 70
     0
  9
$DIMSCALE
 40
1.0
  9
$DIMASZ
 40
3.302
  9
$DIMEXO
 40
0.0
  9
$DIMDLI
 40
3.75
  9
$DIMRND
 40
0.0
  9
$DIMDLE
 40
0.0
  9
$DIMEXE
 40
1.0
  9
$DIMTP
 40
0.0
  9
$DIMTM
 40
0.0
  9
$DIMTXT
 40
3.5
  9
$DIMCEN
 40
2.5
  9
$DIMTSZ
 40
0.0
  9
$DIMTOL
 70
     0
  9
$DIMLIM
 70
     0
  9
$DIMTIH
 70
     1
  9
$DIMTOH
 70
     1
  9
$DIMSE1
 70
     0
  9
$DIMSE2
 70
     0
  9
$DIMTAD
 70
     1
  9
$DIMZIN
 70
     1
  9
$DIMBLK
  1

  9
$DIMASO
 70
     1
  9
$DIMSHO
 70
     1
  9
$DIMPOST
  1

  9
$DIMAPOST
  1

  9
$DIMALT
 70
     0
  9
$DIMALTD
 70
     3
  9
$DIMALTF
 40
0.0393700787
  9
$DIMLFAC
 40
1.0
  9
$DIMTOFL
 70
     1
  9
$DIMTVP
 40
0.0
  9
$DIMTIX
 70
     0
  9
$DIMSOXD
 70
     0
  9
$DIMSAH
 70
     0
  9
$DIMBLK1
  1

  9
$DIMBLK2
  1

  9
$DIMSTYLE
  2
ISO-25
  9
$DIMCLRD
 70
     0
  9
$DIMCLRE
 70
     0
  9
$DIMCLRT
 70
     0
  9
$DIMTFAC
 40
1.0
  9
$DIMGAP
 40
1.524
  9
$DIMJUST
 70
     0
  9
$DIMSD1
 70
     0
  9
$DIMSD2
 70
     0
  9
$DIMTOLJ
 70
     0
  9
$DIMTZIN
 70
     1
  9
$DIMALTZ
 70
     0
  9
$DIMALTTZ
 70
     0
  9
$DIMUPT
 70
     0
  9
$DIMDEC
 70
     2
  9
$DIMTDEC
 70
     2
  9
$DIMALTU
 70
     2
  9
$DIMALTTD
 70
     3
  9
$DIMTXSTY
  7
Standard
  9
$DIMAUNIT
 70
     0
  9
$DIMADEC
 70
     2
  9
$DIMALTRND
 40
0.0
  9
$DIMAZIN
 70
     0
  9
$DIMDSEP
 70
    44
  9
$DIMATFIT
 70
     3
  9
$DIMFRAC
 70
     0
  9
$DIMLDRBLK
  1

  9
$DIMLUNIT
 70
     2
  9
$DIMLWD
 70
    -2
  9
$DIMLWE
 70
    -2
  9
$DIMTMOVE
 70
     0
  9
$LUNITS
 70
     2
  9
$LUPREC
 70
     6
  9
$SKETCHINC
 40
1.0
  9
$FILLETRAD
 40
0.0
  9
$AUNITS
 70
     0
  9
$AUPREC
 70
     2
  9
$MENU
  1
.
  9
$ELEVATION
 40
0.0
  9
$PELEVATION
 40
0.0
  9
$THICKNESS
 40
0.0
  9
$LIMCHECK
 70
     0
  9
$CHAMFERA
 40
0.0
  9
$CHAMFERB
 40
0.0
  9
$CHAMFERC
 40
0.0
  9
$CHAMFERD
 40
0.0
  9
$SKPOLY
 70
     0
  9
$TDCREATE
 40
2460119.661849653
  9
$TDUCREATE
 40
2460119.57851632
  9
$TDUPDATE
 40
2460119.661880058
  9
$TDUUPDATE
 40
2460119.578546725
  9
$TDINDWG
 40
0.0000000116
  9
$TDUSRTIMER
 40
0.0000000116
  9
$USRTIMER
 70
     1
  9
$ANGBASE
 50
0.0
  9
$ANGDIR
 70
     0
  9
$PDMODE
 70
     0
  9
$PDSIZE
 40
-1.0
  9
$PLINEWID
 40
0.0
  9
$SPLFRAME
 70
     0
  9
$SPLINETYPE
 70
     6
  9
$SPLINESEGS
 70
     8
  9
$HANDSEED
  5
10C
  9
$SURFTAB1
 70
     6
  9
$SURFTAB2
 70
     6
  9
$SURFTYPE
 70
     6
  9
$SURFU
 70
     6
  9
$SURFV
 70
     6
  9
$UCSBASE
  2

  9
$UCSNAME
  2

  9
$UCSORG
 10
0.0
 20
0.0
 30
0.0
  9
$UCSXDIR
 10
1.0
 20
0.0
 30
0.0
  9
$UCSYDIR
 10
0.0
 20
1.0
 30
0.0
  9
$UCSORTHOREF
  2

  9
$UCSORTHOVIEW
 70
     0
  9
$UCSORGTOP
 10
0.0
 20
0.0
 30
0.0
  9
$UCSORGBOTTOM
 10
0.0
 20
0.0
 30
0.0
  9
$UCSORGLEFT
 10
0.0
 20
0.0
 30
0.0
  9
$UCSORGRIGHT
 10
0.0
 20
0.0
 30
0.0
  9
$UCSORGFRONT
 10
0.0
 20
0.0
 30
0.0
  9
$UCSORGBACK
 10
0.0
 20
0.0
 30
0.0
  9
$PUCSBASE
  2

  9
$PUCSNAME
  2

  9
$PUCSORG
 10
0.0
 20
0.0
 30
0.0
  9
$PUCSXDIR
 10
1.0
 20
0.0
 30
0.0
  9
$PUCSYDIR
 10
0.0
 20
1.0
 30
0.0
  9
$PUCSORTHOREF
  2

  9
$PUCSORTHOVIEW
 70
     0
  9
$PUCSORGTOP
 10
0.0
 20
0.0
 30
0.0
  9
$PUCSORGBOTTOM
 10
0.0
 20
0.0
 30
0.0
  9
$PUCSORGLEFT
 10
0.0
 20
0.0
 30
0.0
  9
$PUCSORGRIGHT
 10
0.0
 20
0.0
 30
0.0
  9
$PUCSORGFRONT
 10
0.0
 20
0.0
 30
0.0
  9
$PUCSORGBACK
 10
0.0
 20
0.0
 30
0.0
  9
$USERI1
 70
     0
  9
$USERI2
 70
     0
  9
$USERI3
 70
     0
  9
$USERI4
 70
     0
  9
$USERI5
 70
     0
  9
$USERR1
 40
0.0
  9
$USERR2
 40
0.0
  9
$USERR3
 40
0.0
  9
$USERR4
 40
0.0
  9
$USERR5
 40
0.0
  9
$WORLDVIEW
 70
     1
  9
$SHADEDGE
 70
     3
  9
$SHADEDIF
 70
    70
  9
$TILEMODE
 70
     1
  9
$MAXACTVP
 70
    64
  9
$PINSBASE
 10
0.0
 20
0.0
 30
0.0
  9
$PLIMCHECK
 70
     0
  9
$PEXTMIN
 10
1.0000000000E+20
 20
1.0000000000E+20
 30
1.0000000000E+20
  9
$PEXTMAX
 10
-1.0000000000E+20
 20
-1.0000000000E+20
 30
-1.0000000000E+20
  9
$PLIMMIN
 10
0.0
 20
0.0
  9
$PLIMMAX
 10
420.0
 20
297.0
  9
$UNITMODE
 70
     0
  9
$VISRETAIN
 70
     1
  9
$PLINEGEN
 70
     0
  9
$PSLTSCALE
 70
     1
  9
$TREEDEPTH
 70
  3020
  9
$CMLSTYLE
  2
Standard
  9
$CMLJUST
 70
     0
  9
$CMLSCALE
 40
20.0
  9
$PROXYGRAPHICS
 70
     1
  9
$MEASUREMENT
 70
     1
  9
$CELWEIGHT
370
    -1
  9
$ENDCAPS
280
     0
  9
$JOINSTYLE
280
     0
  9
$LWDISPLAY
290
     1
  9
$INSUNITS
 70
     4
  9
$HYPERLINKBASE
  1

  9
$STYLESHEET
  1

  9
$XEDIT
290
     1
  9
$CEPSNTYPE
380
     0
  9
$PSTYLEMODE
290
     1
  9
$FINGERPRINTGUID
  2
{bc265d57-75e6-47b5-884e-860570ca2a93}
  9
$VERSIONGUID
  2
{FAEB1C32-E019-11D5-929B-00C0DF256EC4}
  9
$EXTNAMES
290
     1
  9
$PSVPSCALE
 40
0.0
  9
$OLESTARTUP
290
     0
  0
ENDSEC
  0
SECTION
  2
CLASSES
  0
CLASS
  1
ACDBDICTIONARYWDFLT
  2
AcDbDictionaryWithDefault
  3
ObjectDBX Classes
 90
        0
280
     0
281
     0
  0
CLASS
  1
VISUALSTYLE
  2
AcDbVisualStyle
  3
ObjectDBX Classes
 90
     4095
280
     0
281
     0
  0
CLASS
  1
MATERIAL
  2
AcDbMaterial
  3
ObjectDBX Classes
 90
     1153
280
     0
281
     0
  0
CLASS
  1
SCALE
  2
AcDbScale
  3
ObjectDBX Classes
 90
     1153
280
     0
281
     0
  0
CLASS
  1
TABLESTYLE
  2
AcDbTableStyle
  3
ObjectDBX Classes
 90
     4095
280
     0
281
     0
  0
CLASS
  1
MLEADERSTYLE
  2
AcDbMLeaderStyle
  3
ACDB_MLEADERSTYLE_CLASS
 90
     4095
280
     0
281
     0
  0
CLASS
  1
SUN
  2
AcDbSun
  3
SCENEOE
 90
     1153
280
     0
281
     0
  0
CLASS
  1
ACDBPLACEHOLDER
  2
AcDbPlaceHolder
  3
ObjectDBX Classes
 90
        0
280
     0
281
     0
  0
CLASS
  1
LAYOUT
  2
AcDbLayout
  3
ObjectDBX Classes
 90
        0
280
     0
281
     0
  0
ENDSEC
  0
SECTION
  2
TABLES
  0
TABLE
  2
VPORT
  5
8
330
0
100
AcDbSymbolTable
 70
     1
  0
VPORT
  5
29
330
8
100
AcDbSymbolTableRecord
100
AcDbViewportTableRecord
  2
*Active
 70
     0
 10
0.0
 20
0.0
 11
1.0
 21
1.0
 12
49.5
 22
11.5750737556
 13
0.0
 23
0.0
 14
10.0
 24
10.0
 15
10.0
 25
10.0
 16
0.0
 26
0.0
 36
1.0
 17
0.0
 27
0.0
 37
0.0
 40
85.2298884142
 41
1.376277761
 42
50.0
 43
0.0
 44
0.0
 50
0.0
 51
0.0
 71
     0
 72
   100
 73
     1
 74
     3
 75
     0
 76
     0
 77
     0
 78
     0
281
     0
 65
     1
110
0.0
120
0.0
130
0.0
111
1.0
121
0.0
131
0.0
112
0.0
122
1.0
132
0.0
 79
     0
146
0.0
  0
ENDTAB
  0
TABLE
  2
LTYPE
  5
5
330
0
100
AcDbSymbolTable
 70
     6
  0
LTYPE
  5
14
330
5
100
AcDbSymbolTableRecord
100
AcDbLinetypeTableRecord
  2
ByBlock
 70
     0
  3

 72
    65
 73
     0
 40
0.0
  0
LTYPE
  5
15
330
5
100
AcDbSymbolTableRecord
100
AcDbLinetypeTableRecord
  2
ByLayer
 70
     0
  3

 72
    65
 73
     0
 40
0.0
  0
LTYPE
  5
16
330
5
100
AcDbSymbolTableRecord
100
AcDbLinetypeTableRecord
  2
Continuous
 70
     0
  3
Solid line
 72
    65
 73
     0
 40
0.0
  0
LTYPE
  5
5E
330
5
100
AcDbSymbolTableRecord
100
AcDbLinetypeTableRecord
  2
HIDDEN
 70
     0
  3
Hidden __ __ __ __ __ __ __ __ __ __ __ __ __ __
 72
    65
 73
     2
 40
1.905
 49
1.27
 74
     0
 49
-0.635
 74
     0
  0
LTYPE
  5
5F
330
5
100
AcDbSymbolTableRecord
100
AcDbLinetypeTableRecord
  2
PHANTOM
 70
     0
  3
Phantom ______  __  __  ______  __  __  ______
 72
    65
 73
     6
 40
12.7
 49
6.35
 74
     0
 49
-1.27
 74
     0
 49
1.27
 74
     0
 49
-1.27
 74
     0
 49
1.27
 74
     0
 49
-1.27
 74
     0
  0
LTYPE
  5
60
330
5
100
AcDbSymbolTableRecord
100
AcDbLinetypeTableRecord
  2
CENTER
 70
     0
  3
Center ____ _ ____ _ ____ _ ____ _ ____ _ ____
 72
    65
 73
     4
 40
10.16
 49
6.35
 74
     0
 49
-1.27
 74
     0
 49
1.27
 74
     0
 49
-1.27
 74
     0
  0
LTYPE
  5
61
330
5
100
AcDbSymbolTableRecord
100
AcDbLinetypeTableRecord
  2
CENTERX2
 70
     0
  3
Center (2x) ________  __  ________  __  _____
 72
    65
 73
     4
 40
20.32
 49
12.7
 74
     0
 49
-2.54
 74
     0
 49
2.54
 74
     0
 49
-2.54
 74
     0
  0
LTYPE
  5
62
330
5
100
AcDbSymbolTableRecord
100
AcDbLinetypeTableRecord
  2
DOT2
 70
     0
  3
Dot (.5x) ........................................
 72
    65
 73
     2
 40
0.635
 49
0.0
 74
     0
 49
-0.635
 74
     0
  0
ENDTAB
  0
TABLE
  2
LAYER
  5
2
330
0
100
AcDbSymbolTable
 70
     1
  0
LAYER
  5
10
330
2
100
AcDbSymbolTableRecord
100
AcDbLayerTableRecord
  2
0
 70
     0
 62
     7
  6
Continuous
370
    -3
390
F
  0
ENDTAB
  0
TABLE
  2
STYLE
  5
3
330
0
100
AcDbSymbolTable
 70
     2
  0
STYLE
  5
11
330
3
100
AcDbSymbolTableRecord
100
AcDbTextStyleTableRecord
  2
Standard
 70
     0
 40
0.0
 41
1.0
 50
0.0
 71
     0
 42
3.5
  3
txt
  4

  0
STYLE
  5
109
330
3
100
AcDbSymbolTableRecord
100
AcDbTextStyleTableRecord
  2
SLDTEXTSTYLE0
 70
     0
 40
0.0
 41
0.7
 50
0.0
 71
     0
 42
3.5
  3
TXT
  4
bigfont
  0
ENDTAB
  0
TABLE
  2
VIEW
  5
6
330
0
100
AcDbSymbolTable
 70
     0
  0
ENDTAB
  0
TABLE
  2
UCS
  5
7
330
0
100
AcDbSymbolTable
 70
     0
  0
ENDTAB
  0
TABLE
  2
APPID
  5
9
330
0
100
AcDbSymbolTable
 70
     1
  0
APPID
  5
12
330
9
100
AcDbSymbolTableRecord
100
AcDbRegAppTableRecord
  2
ACAD
 70
     0
  0
ENDTAB
  0
TABLE
  2
DIMSTYLE
  5
A
330
0
100
AcDbSymbolTable
 70
     1
100
AcDbDimStyleTable
  0
DIMSTYLE
105
27
330
A
100
AcDbSymbolTableRecord
100
AcDbDimStyleTableRecord
  2
ISO-25
 70
     0
 41
2.5
 42
0.625
 43
3.75
 44
1.25
 73
     0
 74
     0
 77
     1
 78
     8
140
2.5
141
2.5
143
0.0393700787
147
0.625
171
     3
172
     1
178
     0
271
     2
272
     2
274
     3
278
    44
283
     0
284
     8
340
11
  0
ENDTAB
  0
TABLE
  2
BLOCK_RECORD
  5
1
330
0
100
AcDbSymbolTable
 70
     1
  0
BLOCK_RECORD
  5
1F
330
1
100
AcDbSymbolTableRecord
100
AcDbBlockTableRecord
  2
*Model_Space
340
22
  0
BLOCK_RECORD
  5
1B
330
1
100
AcDbSymbolTableRecord
100
AcDbBlockTableRecord
  2
*Paper_Space
340
1E
  0
BLOCK_RECORD
  5
23
330
1
100
AcDbSymbolTableRecord
100
AcDbBlockTableRecord
  2
*Paper_Space0
340
26
  0
ENDTAB
  0
ENDSEC
  0
SECTION
  2
BLOCKS
  0
BLOCK
  5
20
330
1F
100
AcDbEntity
  8
0
100
AcDbBlockBegin
  2
*Model_Space
 70
     0
 10
0.0
 20
0.0
 30
0.0
  3
*Model_Space
  1

  0
ENDBLK
  5
21
330
1F
100
AcDbEntity
  8
0
100
AcDbBlockEnd
  0
BLOCK
  5
1C
330
1B
100
AcDbEntity
 67
     1
  8
0
100
AcDbBlockBegin
  2
*Paper_Space
 70
     0
 10
0.0
 20
0.0
 30
0.0
  3
*Paper_Space
  1

  0
ENDBLK
  5
1D
330
1B
100
AcDbEntity
 67
     1
  8
0
100
AcDbBlockEnd
  0
BLOCK
  5
24
330
23
100
AcDbEntity
  8
0
100
AcDbBlockBegin
  2
*Paper_Space0
 70
     0
 10
0.0
 20
0.0
 30
0.0
  3
*Paper_Space0
  1

  0
ENDBLK
  5
25
330
23
100
AcDbEntity
  8
0
100
AcDbBlockEnd
  0
ENDSEC
  0
SECTION
  2
ENTITIES
  0
SPLINE
  5
65
330
1F
100
AcDbEntity
  8
0
  6
Continuous
 62
     7
370
    25
100
AcDbSpline
210
0.0
220
0.0
230
1.0
 70
     8
 71
     3
 72
    15
 73
    11
 74
     0
 42
0.00000001
 43
0.00000001
 40
0.0
 40
0.0
 40
0.0
 40
0.0
 40
0.1336262628333115
 40
0.2448396910697608
 40
0.3444089306436397
 40
0.4407504009567309
 40
0.5473381416314413
 40
0.6733269166272038
 40
0.8213743832475873
 40
1.0
 40
1.0
 40
1.0
 40
1.0
 10
27.06991506567103
 20
11.70577259502314
 30
0.0
 10
27.05629376099289
 20
11.72955502380643
 30
0.0
 10
27.03133582264569
 20
11.77313090771373
 30
0.0
 10
26.98382975968033
 20
11.82741012864229
 30
0.0
 10
26.92582462688941
 20
11.85500916665061
 30
0.0
 10
26.86348894081433
 20
11.86606052032392
 30
0.0
 10
26.79656437617831
 20
11.84956760481249
 30
0.0
 10
26.72611801917094
 20
11.81512384348334
 30
0.0
 10
26.65158341268499
 20
11.75883938667336
 30
0.0
 10
26.60284515218945
 20
11.71278303191224
 30
0.0
 10
26.57619495575891
 20
11.68759930789789
 30
0.0
  0
SPLINE
  5
66
330
1F
100
AcDbEntity
  8
0
  6
Continuous
 62
     7
370
    25
100
AcDbSpline
210
0.0
220
0.0
230
1.0
 70
     8
 71
     3
 72
    11
 73
     7
 74
     0
 42
0.00000001
 43
0.00000001
 40
0.0
 40
0.0
 40
0.0
 40
0.0
 40
0.345085960867369
 40
0.6277204110088849
 40
0.8455097013872869
 40
1.0
 40
1.0
 40
1.0
 40
1.0
 10
27.2287689593431
 20
11.2405712136616
 30
0.0
 10
27.21250592944893
 20
11.29476708362832
 30
0.0
 10
27.18292305165305
 20
11.39335079211934
 30
0.0
 10
27.14195484876893
 20
11.52585791876466
 30
0.0
 10
27.10373042484817
 20
11.62628562149187
 30
0.0
 10
27.07983238452297
 20
11.68246077222224
 30
0.0
 10
27.06991506567103
 20
11.70577259502314
 30
0.0
  0
SPLINE
  5
68
330
1F
100
AcDbEntity
  8
0
  6
Continuous
 62
     7
370
    25
100
AcDbSpline
210
0.0
220
0.0
230
1.0
 70
     8
 71
     3
 72
    19
 73
    15
 74
     0
 42
0.00000001
 43
0.00000001
 40
0.0
 40
0.0
 40
0.0
 40
0.0
 40
0.0870929926857231
 40
0.1668294051513254
 40
0.2367888495951932
 40
0.2979438862926025
 40
0.4065796712401949
 40
0.5047707119628869
 40
0.604361188070637
 40
0.7102593226488799
 40
0.7702440864736235
 40
0.8390652703114916
 40
0.9157196175912783
 40
1.0
 40
1.0
 40
1.0
 40
1.0
 10
26.90427317860648
 20
9.509215048649338
 30
0.0
 10
26.93956733655831
 20
9.545162797117474
 30
0.0
 10
27.00717442175366
 20
9.614021855791796
 30
0.0
 10
27.09900281515421
 20
9.71565332332412
 30
0.0
 10
27.17909349599212
 20
9.807653591766645
 30
0.0
 10
27.26480561273265
 20
9.91670809323408
 30
0.0
 10
27.34773596797865
 20
10.04854355324186
 30
0.0
 10
27.4102736496478
 20
10.21620500245801
 30
0.0
 10
27.42760882169141
 20
10.39256570146235
 30
0.0
 10
27.41492776139843
 20
10.54610569302945
 30
0.0
 10
27.39110613283464
 20
10.67978480969204
 30
0.0
 10
27.3650125777527
 20
10.79576368859653
 30
0.0
 10
27.33002371461734
 20
10.92398423391729
 30
0.0
 10
27.30388881709514
 20
11.01331837066662
 30
0.0
 10
27.29020215566633
 20
11.06010202775517
 30
0.0
  0
SPLINE
  5
6A
330
1F
100
AcDbEntity
  8
0
  6
Continuous
 62
     7
370
    25
100
AcDbSpline
210
0.0
220
0.0
230
1.0
 70
     8
 71
     3
 72
    15
 73
    11
 74
     0
 42
0.00000001
 43
0.00000001
 40
0.0
 40
0.0
 40
0.0
 40
0.0
 40
0.1170643836695625
 40
0.2101072870225184
 40
0.2883965633803248
 40
0.3647173585410197
 40
0.4649554683495443
 40
0.6023987307055991
 40
0.7803565855736164
 40
1.0
 40
1.0
 40
1.0
 40
1.0
 10
25.19148179199588
 20
8.331797255353681
 30
0.0
 10
25.20988692205688
 20
8.298094059298922
 30
0.0
 10
25.24292047011988
 20
8.23760352524339
 30
0.0
 10
25.30976651582521
 20
8.16912303219885
 30
0.0
 10
25.38647492297476
 20
8.134374142001496
 30
0.0
 10
25.47242603688444
 20
8.14585567830379
 30
0.0
 10
25.56218336047024
 20
8.19748493900267
 30
0.0
 10
25.67233219945255
 20
8.27698912379435
 30
0.0
 10
25.80241131754245
 20
8.394369398579016
 30
0.0
 10
25.89510182723277
 20
8.485424708995362
 30
0.0
 10
25.94630604011025
 20
8.535725602946213
 30
0.0
  0
SPLINE
  5
6B
330
1F
100
AcDbEntity
  8
0
  6
Continuous
 62
     7
370
    25
100
AcDbSpline
210
0.0
220
0.0
230
1.0
 70
     8
 71
     3
 72
    11
 73
     7
 74
     0
 42
0.00000001
 43
0.00000001
 40
0.0
 40
0.0
 40
0.0
 40
0.0
 40
0.3016686965184576
 40
0.5660449939261327
 40
0.8003180336750536
 40
0.9999999999999999
 40
0.9999999999999999
 40
0.9999999999999999
 40
0.9999999999999999
 10
25.03309041234789
 20
8.76877661994424
 30
0.0
 10
25.04608448959258
 20
8.723794780374938
 30
0.0
 10
25.07046631130604
 20
8.639391773368759
 30
0.0
 10
25.11256814541825
 20
8.522598588820834
 30
0.0
 10
25.1476649713324
 20
8.419912503585552
 30
0.0
 10
25.17767352434529
 20
8.359565562438949
 30
0.0
 10
25.19148179199588
 20
8.331797255353681
 30
0.0
  0
SPLINE
  5
6E
330
1F
100
AcDbEntity
  8
0
  6
Continuous
 62
     7
370
    25
100
AcDbSpline
210
0.0
220
0.0
230
1.0
 70
     8
 71
     3
 72
    11
 73
     7
 74
     0
 42
0.00000001
 43
0.00000001
 40
0.0
 40
0.0
 40
0.0
 40
0.0
 40
0.2150549533778824
 40
0.4545324225022752
 40
0.7150027354080265
 40
1.0
 40
1.0
 40
1.0
 40
1.0
 10
24.32432120233841
 20
6.123742931810002
 30
0.0
 10
24.29875783851008
 20
6.178236746340218
 30
0.0
 10
24.24472803121805
 20
6.293412914760231
 30
0.0
 10
24.16964580566544
 20
6.479015282877135
 30
0.0
 10
24.09780970492232
 20
6.686698469458485
 30
0.0
 10
24.0540369820541
 20
6.832952254403454
 30
0.0
 10
24.03116650029529
 20
6.909367297872675
 30
0.0
  0
SPLINE
  5
6F
330
1F
100
AcDbEntity
  8
0
  6
Continuous
 62
     7
370
    25
100
AcDbSpline
210
0.0
220
0.0
230
1.0
 70
     8
 71
     3
 72
    23
 73
    19
 74
     0
 42
0.00000001
 43
0.00000001
 40
0.0
 40
0.0
 40
0.0
 40
0.0
 40
0.1073044995359981
 40
0.2060715160100704
 40
0.2943953344561481
 40
0.3743210812728193
 40
0.4448936093670709
 40
0.5074403422287825
 40
0.560558166791724
 40
0.6070516367027406
 40
0.6478475317734351
 40
0.68760710132572
 40
0.7284356374698381
 40
0.7715906143265188
 40
0.8189452352092859
 40
0.8731225410903228
 40
0.9329774287121088
 40
1.0
 40
1.0
 40
1.0
 40
1.0
 10
25.97858229298307
 20
6.443231608496157
 30
0.0
 10
25.92475013937289
 20
6.388839921688116
 30
0.0
 10
25.8213688873983
 20
6.284384121536719
 30
0.0
 10
25.66738655988786
 20
6.14155011364327
 30
0.0
 10
25.52282438119248
 20
6.017630526210798
 30
0.0
 10
25.39110652980018
 20
5.909472190767151
 30
0.0
 10
25.26615360052239
 20
5.822917320666914
 30
0.0
 10
25.15404244428866
 20
5.751453276993583
 30
0.0
 10
25.05029184904824
 20
5.699981962856829
 30
0.0
 10
24.95558733852897
 20
5.665989070190256
 30
0.0
 10
24.86515693341723
 20
5.653762420825667
 30
0.0
 10
24.7780840290364
 20
5.660055370354264
 30
0.0
 10
24.6934535294561
 20
5.687906013473545
 30
0.0
 10
24.61255443673859
 20
5.736543057623818
 30
0.0
 10
24.53637814926426
 20
5.80678705022277
 30
0.0
 10
24.46092319222499
 20
5.89390535215507
 30
0.0
 10
24.38790784665159
 20
6.000850434126381
 30
0.0
 10
24.34630026235761
 20
6.081264489808961
 30
0.0
 10
24.32432120233841
 20
6.123742931810002
 30
0.0
  0
SPLINE
  5
71
330
1F
100
AcDbEntity
  8
0
  6
Continuous
 62
     7
370
    25
100
AcDbSpline
210
0.0
220
0.0
230
1.0
 70
     8
 71
     3
 72
    23
 73
    19
 74
     0
 42
0.00000001
 43
0.00000001
 40
0.0
 40
0.0
 40
0.0
 40
0.0
 40
0.0790800132239573
 40
0.1518531130231363
 40
0.218856604058011
 40
0.2792422343159805
 40
0.3358678050977856
 40
0.3902329725589265
 40
0.4438779643711318
 40
0.4962028419440383
 40
0.5482803470308191
 40
0.602384741590756
 40
0.6574802033763727
 40
0.7149973581721303
 40
0.7766626792699788
 40
0.8446840031246936
 40
0.9188381992426011
 40
1.0
 40
1.0
 40
1.0
 40
1.0
 10
28.68679801989556
 20
11.5991883540517
 30
0.0
 10
28.71305309167984
 20
11.50700903698036
 30
0.0
 10
28.76346929952487
 20
11.33000203251783
 30
0.0
 10
28.82744081991683
 20
11.07244180319297
 30
0.0
 10
28.87268419114162
 20
10.83405850845591
 30
0.0
 10
28.90749463372687
 20
10.61358554948776
 30
0.0
 10
28.92047419102402
 20
10.40601855654326
 30
0.0
 10
28.91855143188611
 20
10.20627764929073
 30
0.0
 10
28.8977354916874
 20
10.01271750465404
 30
0.0
 10
28.85816899269533
 20
9.82497796075484
 30
0.0
 10
28.79969308571693
 20
9.64160410329917
 30
0.0
 10
28.72138653376184
 20
9.46225622143949
 30
0.0
 10
28.62738033793648
 20
9.283097092052103
 30
0.0
 10
28.5105885241798
 20
9.106780599075607
 30
0.0
 10
28.37457306804372
 20
8.925066448236663
 30
0.0
 10
28.21562592069952
 20
8.735808585728051
 30
0.0
 10
28.03479825611855
 20
8.534306024051542
 30
0.0
 10
27.90359394114434
 20
8.399294933601407
 30
0.0
 10
27.83503192123215
 20
8.32874364819872
 30
0.0
  0
SPLINE
  5
73
330
1F
100
AcDbEntity
  8
0
  6
Continuous
 62
     7
370
    25
100
AcDbSpline
210
0.0
220
0.0
230
1.0
 70
     8
 71
     3
 72
    11
 73
     7
 74
     0
 42
0.00000001
 43
0.00000001
 40
0.0
 40
0.0
 40
0.0
 40
0.0
 40
0.3450859608673679
 40
0.6277204110088823
 40
0.8455097013872891
 40
1.0
 40
1.0
 40
1.0
 40
1.0
 10
16.37009358519222
 20
0.2024812853954477
 30
0.0
 10
16.35383055529806
 20
0.2566771553621661
 30
0.0
 10
16.32424767750216
 20
0.3552608638531882
 30
0.0
 10
16.28327947461805
 20
0.4877679904985027
 30
0.0
 10
16.24505505069729
 20
0.5881956932257161
 30
0.0
 10
16.2211570103721
 20
0.6443708439560926
 30
0.0
 10
16.21123969152015
 20
0.6676826667569857
 30
0.0
  0
SPLINE
  5
75
330
1F
100
AcDbEntity
  8
0
  6
Continuous
 62
     7
370
    25
100
AcDbSpline
210
0.0
220
0.0
230
1.0
 70
     8
 71
     3
 72
    19
 73
    15
 74
     0
 42
0.00000001
 43
0.00000001
 40
0.0
 40
0.0
 40
0.0
 40
0.0
 40
0.087092992685724
 40
0.1668294051513249
 40
0.2367888495951946
 40
0.2979438862926032
 40
0.4065796712401951
 40
0.5047707119628877
 40
0.6043611880706344
 40
0.71025932264888
 40
0.770244086473623
 40
0.8390652703114929
 40
0.9157196175912775
 40
1.0
 40
1.0
 40
1.0
 40
1.0
 10
16.04559780445559
 20
-1.528874879616813
 30
0.0
 10
16.08089196240743
 20
-1.492927131148678
 30
0.0
 10
16.14849904760278
 20
-1.424068072474357
 30
0.0
 10
16.24032744100333
 20
-1.32243660494203
 30
0.0
 10
16.32041812184124
 20
-1.230436336499505
 30
0.0
 10
16.40613023858178
 20
-1.121381835032071
 30
0.0
 10
16.48906059382777
 20
-0.9895463750242903
 30
0.0
 10
16.55159827549692
 20
-0.8218849258081421
 30
0.0
 10
16.56893344754053
 20
-0.645524226803803
 30
0.0
 10
16.55625238724757
 20
-0.4919842352367008
 30
0.0
 10
16.53243075868376
 20
-0.3583051185741121
 30
0.0
 10
16.50633720360183
 20
-0.242326239669622
 30
0.0
 10
16.47134834046645
 20
-0.1141056943488664
 30
0.0
 10
16.44521344294425
 20
-0.0247715575995375
 30
0.0
 10
16.43152678151544
 20
0.0220120994890195
 30
0.0
  0
SPLINE
  5
77
330
1F
100
AcDbEntity
  8
0
  6
Continuous
 62
     7
370
    25
100
AcDbSpline
210
0.0
220
0.0
230
1.0
 70
     8
 71
     3
 72
    15
 73
    11
 74
     0
 42
0.00000001
 43
0.00000001
 40
0.0
 40
0.0
 40
0.0
 40
0.0
 40
0.1170643836695575
 40
0.2101072870225178
 40
0.2883965633803247
 40
0.3647173585410183
 40
0.4649554683495424
 40
0.6023987307055998
 40
0.7803565855736163
 40
1.0
 40
1.0
 40
1.0
 40
1.0
 10
14.332806417845
 20
-2.706292672912473
 30
0.0
 10
14.35121154790601
 20
-2.73999586896723
 30
0.0
 10
14.38424509596901
 20
-2.800486403022761
 30
0.0
 10
14.45109114167434
 20
-2.868966896067302
 30
0.0
 10
14.52779954882388
 20
-2.903715786264655
 30
0.0
 10
14.61375066273356
 20
-2.89223424996236
 30
0.0
 10
14.70350798631937
 20
-2.840604989263475
 30
0.0
 10
14.81365682530167
 20
-2.761100804471804
 30
0.0
 10
14.94373594339157
 20
-2.643720529687142
 30
0.0
 10
15.0364264530819
 20
-2.552665219270791
 30
0.0
 10
15.08763066595936
 20
-2.502364325319939
 30
0.0
  0
SPLINE
  5
78
330
1F
100
AcDbEntity
  8
0
  6
Continuous
 62
     7
370
    25
100
AcDbSpline
210
0.0
220
0.0
230
1.0
 70
     8
 71
     3
 72
    11
 73
     7
 74
     0
 42
0.00000001
 43
0.00000001
 40
0.0
 40
0.0
 40
0.0
 40
0.0
 40
0.3016686965184578
 40
0.5660449939261349
 40
0.8003180336750498
 40
1.0
 40
1.0
 40
1.0
 40
1.0
 10
14.17441503819701
 20
-2.269313308321911
 30
0.0
 10
14.1874091154417
 20
-2.314295147891216
 30
0.0
 10
14.21179093715515
 20
-2.398698154897398
 30
0.0
 10
14.25389277126738
 20
-2.515491339445315
 30
0.0
 10
14.28898959718152
 20
-2.618177424680602
 30
0.0
 10
14.31899815019441
 20
-2.678524365827204
 30
0.0
 10
14.332806417845
 20
-2.706292672912473
 30
0.0
  0
SPLINE
  5
7B
330
1F
100
AcDbEntity
  8
0
  6
Continuous
 62
     7
370
    25
100
AcDbSpline
210
0.0
220
0.0
230
1.0
 70
     8
 71
     3
 72
    11
 73
     7
 74
     0
 42
0.00000001
 43
0.00000001
 40
0.0
 40
0.0
 40
0.0
 40
0.0
 40
0.215054953377885
 40
0.4545324225022776
 40
0.7150027354080288
 40
1.0
 40
1.0
 40
1.0
 40
1.0
 10
13.46564582818753
 20
-4.914346996456151
 30
0.0
 10
13.4400824643592
 20
-4.859853181925933
 30
0.0
 10
13.38605265706717
 20
-4.744677013505918
 30
0.0
 10
13.31097043151457
 20
-4.559074645389016
 30
0.0
 10
13.23913433077144
 20
-4.351391458807669
 30
0.0
 10
13.19536160790322
 20
-4.2051376738627
 30
0.0
 10
13.17249112614441
 20
-4.128722630393479
 30
0.0
  0
SPLINE
  5
7C
330
1F
100
AcDbEntity
  8
0
  6
Continuous
 62
     7
370
    25
100
AcDbSpline
210
0.0
220
0.0
230
1.0
 70
     8
 71
     3
 72
    23
 73
    19
 74
     0
 42
0.00000001
 43
0.00000001
 40
0.0
 40
0.0
 40
0.0
 40
0.0
 40
0.1073044995359982
 40
0.2060715160100697
 40
0.2943953344561488
 40
0.3743210812728202
 40
0.4448936093670714
 40
0.507440342228782
 40
0.5605581667917242
 40
0.6070516367027409
 40
0.6478475317734361
 40
0.687607101325721
 40
0.7284356374698374
 40
0.7715906143265195
 40
0.8189452352092861
 40
0.8731225410903236
 40
0.9329774287121083
 40
1.0
 40
1.0
 40
1.0
 40
1.0
 10
15.11990691883219
 20
-4.594858319769996
 30
0.0
 10
15.06607476522201
 20
-4.649250006578034
 30
0.0
 10
14.96269351324744
 20
-4.75370580672943
 30
0.0
 10
14.80871118573696
 20
-4.896539814622884
 30
0.0
 10
14.66414900704162
 20
-5.020459402055356
 30
0.0
 10
14.5324311556493
 20
-5.128617737499002
 30
0.0
 10
14.40747822637151
 20
-5.215172607599236
 30
0.0
 10
14.29536707013779
 20
-5.286636651272572
 30
0.0
 10
14.19161647489736
 20
-5.338107965409324
 30
0.0
 10
14.0969119643781
 20
-5.372100858075896
 30
0.0
 10
14.00648155926634
 20
-5.38432750744048
 30
0.0
 10
13.91940865488553
 20
-5.378034557911887
 30
0.0
 10
13.83477815530522
 20
-5.350183914792604
 30
0.0
 10
13.75387906258771
 20
-5.301546870642333
 30
0.0
 10
13.67770277511338
 20
-5.231302878043381
 30
0.0
 10
13.60224781807412
 20
-5.144184576111082
 30
0.0
 10
13.52923247250072
 20
-5.03723949413977
 30
0.0
 10
13.48762488820673
 20
-4.956825438457193
 30
0.0
 10
13.46564582818753
 20
-4.914346996456151
 30
0.0
  0
SPLINE
  5
7E
330
1F
100
AcDbEntity
  8
0
  6
Continuous
 62
     7
370
    25
100
AcDbSpline
210
0.0
220
0.0
230
1.0
 70
     8
 71
     3
 72
    23
 73
    19
 74
     0
 42
0.00000001
 43
0.00000001
 40
0.0
 40
0.0
 40
0.0
 40
0.0
 40
0.0790800132239587
 40
0.1518531130231365
 40
0.2188566040580115
 40
0.2792422343159811
 40
0.3358678050977857
 40
0.390232972558926
 40
0.4438779643711315
 40
0.4962028419440385
 40
0.5482803470308183
 40
0.6023847415907562
 40
0.6574802033763726
 40
0.7149973581721301
 40
0.7766626792699785
 40
0.8446840031246944
 40
0.9188381992426011
 40
1.0
 40
1.0
 40
1.0
 40
1.0
 10
17.82812264574468
 20
0.5610984257855504
 30
0.0
 10
17.85437771752896
 20
0.4689191087142077
 30
0.0
 10
17.904793925374
 20
0.2919121042516786
 30
0.0
 10
17.96876544576594
 20
0.0343518749268187
 30
0.0
 10
18.01400881699074
 20
-0.2040314198102425
 30
0.0
 10
18.04881925957599
 20
-0.4245043787783967
 30
0.0
 10
18.06179881687314
 20
-0.6320713717228917
 30
0.0
 10
18.05987605773522
 20
-0.8318122789754239
 30
0.0
 10
18.03906011753651
 20
-1.025372423612109
 30
0.0
 10
17.99949361854444
 20
-1.213111967511312
 30
0.0
 10
17.94101771156605
 20
-1.396485824966978
 30
0.0
 10
17.86271115961095
 20
-1.575833706826662
 30
0.0
 10
17.7687049637856
 20
-1.75499283621405
 30
0.0
 10
17.65191315002891
 20
-1.931309329190545
 30
0.0
 10
17.51589769389285
 20
-2.113023480029492
 30
0.0
 10
17.35695054654864
 20
-2.302281342538098
 30
0.0
 10
17.17612288196767
 20
-2.50378390421461
 30
0.0
 10
17.04491856699347
 20
-2.638794994664743
 30
0.0
 10
16.97635654708127
 20
-2.709346280067432
 30
0.0
  0
SPLINE
  5
80
330
1F
100
AcDbEntity
  8
0
  6
Continuous
 62
     7
370
    25
100
AcDbSpline
210
0.0
220
0.0
230
1.0
 70
     8
 71
     3
 72
    11
 73
     7
 74
     0
 42
0.00000001
 43
0.00000001
 40
0.0
 40
0.0
 40
0.0
 40
0.0
 40
0.2174275847138507
 40
0.4537179047442148
 40
0.7060634601970734
 40
1.0
 40
1.0
 40
1.0
 40
1.0
 10
22.75869241066819
 20
7.723400779475663
 30
0.0
 10
22.76434025595167
 20
7.7100737687851
 30
0.0
 10
22.77612592027625
 20
7.682263574531301
 30
0.0
 10
22.79340977061414
 20
7.638499281835812
 30
0.0
 10
22.80788827972324
 20
7.588409753023956
 30
0.0
 10
22.81855178623046
 20
7.553641756271599
 30
0.0
 10
22.82428947053701
 20
7.53493423363811
 30
0.0
  0
SPLINE
  5
81
330
1F
100
AcDbEntity
  8
0
  6
Continuous
 62
     7
370
    25
100
AcDbSpline
210
0.0
220
0.0
230
1.0
 70
     8
 71
     3
 72
    11
 73
     7
 74
     0
 42
0.00000001
 43
0.00000001
 40
0.0
 40
0.0
 40
0.0
 40
0.0
 40
0.3450859608673634
 40
0.6277204110088792
 40
0.845509701387282
 40
1.0
 40
1.0
 40
1.0
 40
1.0
 10
21.79943127226766
 20
5.721526249528525
 30
0.0
 10
21.7831682423735
 20
5.775722119495244
 30
0.0
 10
21.75358536457761
 20
5.874305827986265
 30
0.0
 10
21.7126171616935
 20
6.006812954631581
 30
0.0
 10
21.67439273777272
 20
6.107240657358792
 30
0.0
 10
21.65049469744754
 20
6.163415808089171
 30
0.0
 10
21.64057737859559
 20
6.186727630890066
 30
0.0
  0
SPLINE
  5
83
330
1F
100
AcDbEntity
  8
0
  6
Continuous
 62
     7
370
    25
100
AcDbSpline
210
0.0
220
0.0
230
1.0
 70
     8
 71
     3
 72
    19
 73
    15
 74
     0
 42
0.00000001
 43
0.00000001
 40
0.0
 40
0.0
 40
0.0
 40
0.0
 40
0.0870929926857236
 40
0.1668294051513259
 40
0.2367888495951931
 40
0.2979438862926028
 40
0.4065796712401952
 40
0.5047707119628868
 40
0.604361188070635
 40
0.7102593226488798
 40
0.7702440864736224
 40
0.8390652703114924
 40
0.915719617591278
 40
0.9999999999999999
 40
0.9999999999999999
 40
0.9999999999999999
 40
0.9999999999999999
 10
21.47493549153103
 20
3.990170084516263
 30
0.0
 10
21.51022964948287
 20
4.026117832984399
 30
0.0
 10
21.57783673467823
 20
4.09497689165872
 30
0.0
 10
21.66966512807878
 20
4.196608359191043
 30
0.0
 10
21.74975580891667
 20
4.288608627633573
 30
0.0
 10
21.83546792565722
 20
4.397663129101003
 30
0.0
 10
21.9183982809032
 20
4.529498589108784
 30
0.0
 10
21.98093596257236
 20
4.697160038324937
 30
0.0
 10
21.99827113461597
 20
4.873520737329271
 30
0.0
 10
21.985590074323
 20
5.027060728896376
 30
0.0
 10
21.96176844575921
 20
5.160739845558965
 30
0.0
 10
21.93567489067726
 20
5.276718724463454
 30
0.0
 10
21.90068602754189
 20
5.404939269784211
 30
0.0
 10
21.8745511300197
 20
5.494273406533541
 30
0.0
 10
21.86086446859089
 20
5.541057063622096
 30
0.0
  0
SPLINE
  5
85
330
1F
100
AcDbEntity
  8
0
  6
Continuous
 62
     7
370
    25
100
AcDbSpline
210
0.0
220
0.0
230
1.0
 70
     8
 71
     3
 72
    15
 73
    11
 74
     0
 42
0.00000001
 43
0.00000001
 40
0.0
 40
0.0
 40
0.0
 40
0.0
 40
0.1170643836695571
 40
0.2101072870225177
 40
0.2883965633803245
 40
0.3647173585410199
 40
0.4649554683495427
 40
0.6023987307055996
 40
0.780356585573616
 40
1.0
 40
1.0
 40
1.0
 40
1.0
 10
19.76214410492044
 20
2.812752291220605
 30
0.0
 10
19.78054923498145
 20
2.779049095165846
 30
0.0
 10
19.81358278304445
 20
2.718558561110317
 30
0.0
 10
19.88042882874977
 20
2.650078068065775
 30
0.0
 10
19.95713723589932
 20
2.615329177868421
 30
0.0
 10
20.043088349809
 20
2.626810714170714
 30
0.0
 10
20.13284567339481
 20
2.678439974869605
 30
0.0
 10
20.24299451237711
 20
2.757944159661272
 30
0.0
 10
20.37307363046701
 20
2.875324434445936
 30
0.0
 10
20.46576414015733
 20
2.966379744862288
 30
0.0
 10
20.51696835303481
 20
3.016680638813138
 30
0.0
  0
SPLINE
  5
86
330
1F
100
AcDbEntity
  8
0
  6
Continuous
 62
     7
370
    25
100
AcDbSpline
210
0.0
220
0.0
230
1.0
 70
     8
 71
     3
 72
    11
 73
     7
 74
     0
 42
0.00000001
 43
0.00000001
 40
0.0
 40
0.0
 40
0.0
 40
0.0
 40
0.3016686965184606
 40
0.5660449939261364
 40
0.8003180336750486
 40
1.0
 40
1.0
 40
1.0
 40
1.0
 10
19.60375272527245
 20
3.249731655811168
 30
0.0
 10
19.61674680251714
 20
3.204749816241862
 30
0.0
 10
19.64112862423059
 20
3.120346809235678
 30
0.0
 10
19.68323045834282
 20
3.003553624687763
 30
0.0
 10
19.71832728425696
 20
2.900867539452474
 30
0.0
 10
19.74833583726986
 20
2.840520598305873
 30
0.0
 10
19.76214410492044
 20
2.812752291220605
 30
0.0
  0
SPLINE
  5
89
330
1F
100
AcDbEntity
  8
0
  6
Continuous
 62
     7
370
    25
100
AcDbSpline
210
0.0
220
0.0
230
1.0
 70
     8
 71
     3
 72
    11
 73
     7
 74
     0
 42
0.00000001
 43
0.00000001
 40
0.0
 40
0.0
 40
0.0
 40
0.0
 40
0.2150549533778822
 40
0.4545324225022758
 40
0.7150027354080267
 40
1.0
 40
1.0
 40
1.0
 40
1.0
 10
18.89498351526297
 20
0.604697967676926
 30
0.0
 10
18.86942015143463
 20
0.6591917822071427
 30
0.0
 10
18.81539034414261
 20
0.7743679506271566
 30
0.0
 10
18.74030811859001
 20
0.9599703187440599
 30
0.0
 10
18.66847201784688
 20
1.167653505325409
 30
0.0
 10
18.62469929497866
 20
1.31390729027038
 30
0.0
 10
18.60182881321985
 20
1.3903223337396
 30
0.0
  0
SPLINE
  5
8A
330
1F
100
AcDbEntity
  8
0
  6
Continuous
 62
     7
370
    25
100
AcDbSpline
210
0.0
220
0.0
230
1.0
 70
     8
 71
     3
 72
    23
 73
    19
 74
     0
 42
0.00000001
 43
0.00000001
 40
0.0
 40
0.0
 40
0.0
 40
0.0
 40
0.1073044995359994
 40
0.2060715160100703
 40
0.2943953344561483
 40
0.3743210812728194
 40
0.4448936093670711
 40
0.5074403422287825
 40
0.560558166791724
 40
0.6070516367027406
 40
0.6478475317734352
 40
0.6876071013257217
 40
0.7284356374698366
 40
0.7715906143265188
 40
0.8189452352092859
 40
0.8731225410903227
 40
0.932977428712109
 40
1.0
 40
1.0
 40
1.0
 40
1.0
 10
20.54924460590763
 20
0.9241866443630824
 30
0.0
 10
20.49541245229745
 20
0.8697949575550423
 30
0.0
 10
20.39203120032288
 20
0.7653391574036494
 30
0.0
 10
20.23804887281239
 20
0.6225051495101895
 30
0.0
 10
20.09348669411706
 20
0.4985855620777257
 30
0.0
 10
19.96176884272474
 20
0.3904272266340766
 30
0.0
 10
19.83681591344694
 20
0.3038723565338374
 30
0.0
 10
19.72470475721322
 20
0.2324083128605083
 30
0.0
 10
19.62095416197281
 20
0.1809369987237526
 30
0.0
 10
19.52624965145353
 20
0.1469441060571817
 30
0.0
 10
19.43581924634179
 20
0.1347174566925912
 30
0.0
 10
19.34874634196096
 20
0.1410104062211891
 30
0.0
 10
19.26411584238067
 20
0.168861049340472
 30
0.0
 10
19.18321674966315
 20
0.2174980934907429
 30
0.0
 10
19.10704046218882
 20
0.287742086089695
 30
0.0
 10
19.03158550514956
 20
0.3748603880219959
 30
0.0
 10
18.95857015957615
 20
0.4818054699933065
 30
0.0
 10
18.91696257528217
 20
0.5622195256758857
 30
0.0
 10
18.89498351526297
 20
0.604697967676926
 30
0.0
  0
SPLINE
  5
8C
330
1F
100
AcDbEntity
  8
0
  6
Continuous
 62
     7
370
    25
100
AcDbSpline
210
0.0
220
0.0
230
1.0
 70
     8
 71
     3
 72
    23
 73
    19
 74
     0
 42
0.00000001
 43
0.00000001
 40
0.0
 40
0.0
 40
0.0
 40
0.0
 40
0.0790800132239579
 40
0.1518531130231354
 40
0.2188566040580104
 40
0.2792422343159803
 40
0.3358678050977848
 40
0.3902329725589256
 40
0.443877964371131
 40
0.4962028419440377
 40
0.5482803470308182
 40
0.6023847415907558
 40
0.6574802033763726
 40
0.7149973581721303
 40
0.776662679269979
 40
0.8446840031246938
 40
0.9188381992426011
 40
1.0
 40
1.0
 40
1.0
 40
1.0
 10
23.25746033282013
 20
6.080143389918625
 30
0.0
 10
23.2837154046044
 20
5.987964072847282
 30
0.0
 10
23.33413161244944
 20
5.810957068384753
 30
0.0
 10
23.39810313284138
 20
5.553396839059896
 30
0.0
 10
23.44334650406617
 20
5.315013544322833
 30
0.0
 10
23.47815694665144
 20
5.094540585354681
 30
0.0
 10
23.49113650394858
 20
4.886973592410185
 30
0.0
 10
23.48921374481066
 20
4.687232685157653
 30
0.0
 10
23.46839780461196
 20
4.493672540520966
 30
0.0
 10
23.42883130561989
 20
4.305932996621764
 30
0.0
 10
23.37035539864149
 20
4.122559139166099
 30
0.0
 10
23.29204884668641
 20
3.943211257306415
 30
0.0
 10
23.19804265086104
 20
3.764052127919028
 30
0.0
 10
23.08125083710435
 20
3.587735634942527
 30
0.0
 10
22.94523538096828
 20
3.406021484103587
 30
0.0
 10
22.78628823362408
 20
3.216763621594974
 30
0.0
 10
22.60546056904311
 20
3.015261059918468
 30
0.0
 10
22.47425625406891
 20
2.880249969468333
 30
0.0
 10
22.40569423415672
 20
2.809698684065644
 30
0.0
  0
SPLINE
  5
8E
330
1F
100
AcDbEntity
  8
0
  6
Continuous
 62
     7
370
    25
100
AcDbSpline
210
0.0
220
0.0
230
1.0
 70
     8
 71
     3
 72
    15
 73
    11
 74
     0
 42
0.00000001
 43
0.00000001
 40
0.0
 40
0.0
 40
0.0
 40
0.0
 40
0.1336262628333134
 40
0.2448396910697603
 40
0.3444089306436351
 40
0.440750400956726
 40
0.5473381416314415
 40
0.6733269166272035
 40
0.8213743832475898
 40
1.0
 40
1.0
 40
1.0
 40
1.0
 10
16.21123969152015
 20
0.6676826667569857
 30
0.0
 10
16.19761838684201
 20
0.6914650955402792
 30
0.0
 10
16.17266044849482
 20
0.7350409794475744
 30
0.0
 10
16.12515438552945
 20
0.7893202003761319
 30
0.0
 10
16.06714925273852
 20
0.8169192383844556
 30
0.0
 10
16.00481356666346
 20
0.8279705920577717
 30
0.0
 10
15.9378890020274
 20
0.8114776765463307
 30
0.0
 10
15.86744264502006
 20
0.777033915217197
 30
0.0
 10
15.7929080385341
 20
0.7207494584072025
 30
0.0
 10
15.74416977803858
 20
0.67469310364608
 30
0.0
 10
15.71751958160804
 20
0.6495093796317422
 30
0.0
  0
CIRCLE
  5
90
330
1F
100
AcDbEntity
  8
0
  6
Continuous
 62
     7
370
    25
100
AcDbCircle
 10
24.5451307937
 20
24.950682442
 30
0.0
 40
4.000000000000007
  0
SPLINE
  5
97
330
1F
100
AcDbEntity
  8
0
  6
Continuous
 62
     7
370
    25
100
AcDbSpline
210
0.0
220
0.0
230
1.0
 70
     8
 71
     3
 72
    15
 73
    11
 74
     0
 42
0.00000001
 43
0.00000001
 40
0.0
 40
0.0
 40
0.0
 40
0.0
 40
0.1336262628333104
 40
0.2448396910697539
 40
0.3444089306436323
 40
0.4407504009567245
 40
0.547338141631441
 40
0.6733269166272036
 40
0.8213743832475863
 40
1.0
 40
1.0
 40
1.0
 40
1.0
 10
21.64057737859559
 20
6.186727630890065
 30
0.0
 10
21.62695607391746
 20
6.210510059673359
 30
0.0
 10
21.60199813557026
 20
6.254085943580653
 30
0.0
 10
21.55449207260488
 20
6.308365164509211
 30
0.0
 10
21.49648693981397
 20
6.335964202517529
 30
0.0
 10
21.43415125373891
 20
6.347015556190852
 30
0.0
 10
21.36722668910284
 20
6.330522640679403
 30
0.0
 10
21.29678033209551
 20
6.296078879350275
 30
0.0
 10
21.22224572560955
 20
6.239794422540283
 30
0.0
 10
21.17350746511401
 20
6.193738067779161
 30
0.0
 10
21.14685726868347
 20
6.16855434376482
 30
0.0
  0
SPLINE
  5
9A
330
1F
100
AcDbEntity
  8
0
  6
Continuous
 62
     7
370
    25
100
AcDbSpline
210
0.0
220
0.0
230
1.0
 70
     8
 71
     3
 72
    11
 73
     7
 74
     0
 42
0.00000001
 43
0.00000001
 40
0.0
 40
0.0
 40
0.0
 40
0.0
 40
0.2174275847138441
 40
0.4537179047442201
 40
0.7060634601970764
 40
1.0
 40
1.0
 40
1.0
 40
1.0
 10
17.32935472359275
 20
2.204355815342585
 30
0.0
 10
17.33500256887623
 20
2.191028804652022
 30
0.0
 10
17.34678823320081
 20
2.163218610398221
 30
0.0
 10
17.36407208353868
 20
2.119454317702734
 30
0.0
 10
17.37855059264781
 20
2.06936478889088
 30
0.0
 10
17.38921409915502
 20
2.034596792138521
 30
0.0
 10
17.39495178346156
 20
2.015889269505033
 30
0.0
  0
CIRCLE
  5
9D
330
1F
100
AcDbEntity
  8
0
  6
Continuous
 62
     7
370
    25
100
AcDbCircle
 10
0.0
 20
0.0
 30
0.0
 40
4.000000000000003
  0
SPLINE
  5
9E
330
1F
100
AcDbEntity
  8
0
  6
Continuous
 62
     7
370
    25
100
AcDbSpline
210
0.0
220
0.0
230
1.0
 70
     8
 71
     3
 72
    11
 73
     7
 74
     0
 42
0.00000001
 43
0.00000001
 40
0.0
 40
0.0
 40
0.0
 40
0.0
 40
0.2174275847138349
 40
0.4537179047442015
 40
0.7060634601970562
 40
0.9999999999999999
 40
0.9999999999999999
 40
0.9999999999999999
 40
0.9999999999999999
 10
28.18803009774363
 20
13.24244574360873
 30
0.0
 10
28.19367794302712
 20
13.22911873291817
 30
0.0
 10
28.20546360735169
 20
13.20130853866438
 30
0.0
 10
28.22274745768956
 20
13.15754424596888
 30
0.0
 10
28.23722596679869
 20
13.10745471715703
 30
0.0
 10
28.24788947330591
 20
13.07268672040468
 30
0.0
 10
28.25362715761245
 20
13.05397919777118
 30
0.0
  0
SPLINE
  5
9F
330
1F
100
AcDbEntity
  8
0
  6
Continuous
 62
     7
370
    25
100
AcDbSpline
210
0.0
220
0.0
230
1.0
 70
     8
 71
     3
 72
    15
 73
    11
 74
     0
 42
0.00000001
 43
0.00000001
 40
0.0
 40
0.0
 40
0.0
 40
0.0
 40
0.1277495409901412
 40
0.248498375079642
 40
0.3638421863908143
 40
0.47768527893089
 40
0.5947449719179345
 40
0.719473815311662
 40
0.8521050583803582
 40
1.0
 40
1.0
 40
1.0
 40
1.0
 10
27.46347985477931
 20
13.65199906593472
 30
0.0
 10
27.50163545008166
 20
13.6570472231707
 30
0.0
 10
27.57585570448997
 20
13.66686689735947
 30
0.0
 10
27.68603293692667
 20
13.66361540970497
 30
0.0
 10
27.78919078169416
 20
13.63856360177374
 30
0.0
 10
27.8838844203384
 20
13.59401713882691
 30
0.0
 10
27.97384576123092
 20
13.53485223860118
 30
0.0
 10
28.05283600059985
 20
13.45360753764982
 30
0.0
 10
28.12691344570278
 20
13.356225987824
 30
0.0
 10
28.16693206328519
 20
13.28172373795206
 30
0.0
 10
28.18803009774363
 20
13.24244574360873
 30
0.0
  0
SPLINE
  5
A0
330
1F
100
AcDbEntity
  8
0
  6
Continuous
 62
     7
370
    25
100
AcDbSpline
210
0.0
220
0.0
230
1.0
 70
     8
 71
     3
 72
    15
 73
    11
 74
     0
 42
0.00000001
 43
0.00000001
 40
0.0
 40
0.0
 40
0.0
 40
0.0
 40
0.1277495409901378
 40
0.2484983750796428
 40
0.3638421863908147
 40
0.4776852789308941
 40
0.5947449719179386
 40
0.7194738153116649
 40
0.8521050583803595
 40
0.9999999999999999
 40
0.9999999999999999
 40
0.9999999999999999
 40
0.9999999999999999
 10
16.60480448062843
 20
2.613909137668572
 30
0.0
 10
16.64296007593078
 20
2.618957294904552
 30
0.0
 10
16.71718033033909
 20
2.628776969093317
 30
0.0
 10
16.8273575627758
 20
2.625525481438816
 30
0.0
 10
16.93051540754327
 20
2.600473673507589
 30
0.0
 10
17.02520904618752
 20
2.555927210560759
 30
0.0
 10
17.11517038708003
 20
2.496762310335028
 30
0.0
 10
17.19416062644895
 20
2.415517609383669
 30
0.0
 10
17.26823807155191
 20
2.31813605955785
 30
0.0
 10
17.30825668913431
 20
2.24363380968591
 30
0.0
 10
17.32935472359275
 20
2.204355815342585
 30
0.0
  0
SPLINE
  5
A1
330
1F
100
AcDbEntity
  8
0
  6
Continuous
 62
     7
370
    25
100
AcDbSpline
210
0.0
220
0.0
230
1.0
 70
     8
 71
     3
 72
    15
 73
    11
 74
     0
 42
0.00000001
 43
0.00000001
 40
0.0
 40
0.0
 40
0.0
 40
0.0
 40
0.127749540990138
 40
0.2484983750796432
 40
0.3638421863908155
 40
0.4776852789308917
 40
0.5947449719179335
 40
0.7194738153116629
 40
0.8521050583803595
 40
0.9999999999999999
 40
0.9999999999999999
 40
0.9999999999999999
 40
0.9999999999999999
 10
22.03414216770387
 20
8.13295410180165
 30
0.0
 10
22.07229776300623
 20
8.13800225903763
 30
0.0
 10
22.14651801741454
 20
8.14782193322639
 30
0.0
 10
22.25669524985124
 20
8.144570445571896
 30
0.0
 10
22.35985309461872
 20
8.119518637640667
 30
0.0
 10
22.45454673326296
 20
8.074972174693839
 30
0.0
 10
22.54450807415548
 20
8.015807274468104
 30
0.0
 10
22.62349831352441
 20
7.934562573516752
 30
0.0
 10
22.69757575862734
 20
7.837181023690927
 30
0.0
 10
22.73759437620976
 20
7.762678773818988
 30
0.0
 10
22.75869241066819
 20
7.723400779475663
 30
0.0
  0
SPLINE
  5
A8
330
1F
100
AcDbEntity
  8
0
  6
Continuous
 62
     7
370
    25
100
AcDbSpline
210
0.0
220
0.0
230
1.0
 70
     8
 71
     3
 72
    15
 73
    11
 74
     0
 42
0.00000001
 43
0.00000001
 40
0.0
 40
0.0
 40
0.0
 40
0.0
 40
0.112346836857265
 40
0.2323396366447444
 40
0.3615106711617587
 40
0.4998027709657653
 40
0.6380223716298994
 40
0.7678661609980529
 40
0.887653163142737
 40
1.0
 40
1.0
 40
1.0
 40
1.0
 10
22.16944397618636
 20
9.720061694938499
 30
0.0
 10
22.18608636805214
 20
9.661487265101217
 30
0.0
 10
22.22050377923308
 20
9.54035201887833
 30
0.0
 10
22.24286618923649
 20
9.34535932604783
 30
0.0
 10
22.25162503522817
 20
9.135641531516242
 30
0.0
 10
22.23529656123138
 20
8.916313462832315
 30
0.0
 10
22.20559507798415
 20
8.698301216293904
 30
0.0
 10
22.16311677239893
 20
8.492647226307406
 30
0.0
 10
22.1094094591218
 20
8.303724088564723
 30
0.0
 10
22.05868938530476
 20
8.188647988824876
 30
0.0
 10
22.03414216770387
 20
8.13295410180165
 30
0.0
  0
SPLINE
  5
A9
330
1F
100
AcDbEntity
  8
0
  6
Continuous
 62
     7
370
    25
100
AcDbSpline
210
0.0
220
0.0
230
1.0
 70
     8
 71
     3
 72
    15
 73
    11
 74
     0
 42
0.00000001
 43
0.00000001
 40
0.0
 40
0.0
 40
0.0
 40
0.0
 40
0.1123468368572644
 40
0.2323396366447447
 40
0.3615106711617577
 40
0.4998027709657641
 40
0.638022371629899
 40
0.7678661609980525
 40
0.8876531631427361
 40
1.0
 40
1.0
 40
1.0
 40
1.0
 10
16.74010628911093
 20
4.201016730805423
 30
0.0
 10
16.7567486809767
 20
4.142442300968142
 30
0.0
 10
16.79116609215764
 20
4.021307054745255
 30
0.0
 10
16.81352850216104
 20
3.826314361914751
 30
0.0
 10
16.82228734815273
 20
3.61659656738317
 30
0.0
 10
16.80595887415594
 20
3.397268498699238
 30
0.0
 10
16.77625739090871
 20
3.179256252160825
 30
0.0
 10
16.73377908532348
 20
2.973602262174326
 30
0.0
 10
16.68007177204635
 20
2.784679124431644
 30
0.0
 10
16.62935169822932
 20
2.6696030246918
 30
0.0
 10
16.60480448062843
 20
2.613909137668572
 30
0.0
  0
SPLINE
  5
AA
330
1F
100
AcDbEntity
  8
0
  6
Continuous
 62
     7
370
    25
100
AcDbSpline
210
0.0
220
0.0
230
1.0
 70
     8
 71
     3
 72
    15
 73
    11
 74
     0
 42
0.00000001
 43
0.00000001
 40
0.0
 40
0.0
 40
0.0
 40
0.0
 40
0.1123468368572656
 40
0.2323396366447436
 40
0.3615106711617591
 40
0.4998027709657656
 40
0.6380223716298986
 40
0.7678661609980526
 40
0.8876531631427379
 40
1.0
 40
1.0
 40
1.0
 40
1.0
 10
27.59878166326181
 20
15.23910665907157
 30
0.0
 10
27.61542405512759
 20
15.18053222923429
 30
0.0
 10
27.64984146630852
 20
15.05939698301141
 30
0.0
 10
27.67220387631192
 20
14.8644042901809
 30
0.0
 10
27.68096272230362
 20
14.65468649564932
 30
0.0
 10
27.66463424830682
 20
14.43535842696539
 30
0.0
 10
27.63493276505959
 20
14.21734618042698
 30
0.0
 10
27.59245445947437
 20
14.01169219044048
 30
0.0
 10
27.53874714619724
 20
13.8227690526978
 30
0.0
 10
27.48802707238019
 20
13.70769295295795
 30
0.0
 10
27.46347985477931
 20
13.65199906593472
 30
0.0
  0
SPLINE
  5
AB
330
1F
100
AcDbEntity
  8
0
  6
Continuous
 62
     7
370
    25
100
AcDbSpline
210
0.0
220
0.0
230
1.0
 70
     8
 71
     3
 72
    19
 73
    15
 74
     0
 42
0.00000001
 43
0.00000001
 40
0.0
 40
0.0
 40
0.0
 40
0.0
 40
0.0800889192789881
 40
0.1531491521772511
 40
0.2167927827772138
 40
0.2735220943190489
 40
0.3745397999587576
 40
0.4708459283120298
 40
0.571668147158693
 40
0.6831589561504209
 40
0.7476207237125946
 40
0.8227773722380409
 40
0.9060070334495378
 40
1.0
 40
1.0
 40
1.0
 40
1.0
 10
20.41837936850124
 20
7.5559971816672
 30
0.0
 10
20.45241917212511
 20
7.590518832745439
 30
0.0
 10
20.5175114110042
 20
7.656532479102363
 30
0.0
 10
20.60450080238657
 20
7.75478632205381
 30
0.0
 10
20.68386012297119
 20
7.840890811458381
 30
0.0
 10
20.76919726586583
 20
7.944207094572213
 30
0.0
 10
20.85431143889413
 20
8.073510382922198
 30
0.0
 10
20.91666156742694
 20
8.244571686648138
 30
0.0
 10
20.93841878086707
 20
8.432051735190646
 30
0.0
 10
20.91599137521234
 20
8.599149296311904
 30
0.0
 10
20.88421509539655
 20
8.747686294439616
 30
0.0
 10
20.85106813823753
 20
8.878459980792256
 30
0.0
 10
20.81508943094507
 20
9.026909462430114
 30
0.0
 10
20.78612692607626
 20
9.130194899941499
 30
0.0
 10
20.77076618018434
 20
9.184974048607534
 30
0.0
  0
SPLINE
  5
AC
330
1F
100
AcDbEntity
  8
0
  6
Continuous
 62
     7
370
    25
100
AcDbSpline
210
0.0
220
0.0
230
1.0
 70
     8
 71
     3
 72
    19
 73
    15
 74
     0
 42
0.00000001
 43
0.00000001
 40
0.0
 40
0.0
 40
0.0
 40
0.0
 40
0.0800889192789875
 40
0.1531491521772516
 40
0.2167927827772127
 40
0.2735220943190494
 40
0.3745397999587576
 40
0.4708459283120301
 40
0.5716681471586927
 40
0.6831589561504229
 40
0.7476207237125964
 40
0.822777372238041
 40
0.906007033449539
 40
1.0
 40
1.0
 40
1.0
 40
1.0
 10
25.84771705557668
 20
13.07504214580027
 30
0.0
 10
25.88175685920055
 20
13.10956379687851
 30
0.0
 10
25.94684909807964
 20
13.17557744323544
 30
0.0
 10
26.03383848946201
 20
13.27383128618688
 30
0.0
 10
26.11319781004664
 20
13.35993577559146
 30
0.0
 10
26.19853495294127
 20
13.46325205870529
 30
0.0
 10
26.28364912596957
 20
13.59255534705527
 30
0.0
 10
26.34599925450237
 20
13.76361665078121
 30
0.0
 10
26.36775646794251
 20
13.95109669932372
 30
0.0
 10
26.34532906228776
 20
14.11819426044497
 30
0.0
 10
26.31355278247199
 20
14.26673125857269
 30
0.0
 10
26.28040582531296
 20
14.39750494492533
 30
0.0
 10
26.24442711802052
 20
14.54595442656319
 30
0.0
 10
26.2154646131517
 20
14.64923986407457
 30
0.0
 10
26.20010386725977
 20
14.70401901274061
 30
0.0
  0
SPLINE
  5
AE
330
1F
100
AcDbEntity
  8
0
  6
Continuous
 62
     7
370
    25
100
AcDbSpline
210
0.0
220
0.0
230
1.0
 70
     8
 71
     3
 72
    19
 73
    15
 74
     0
 42
0.00000001
 43
0.00000001
 40
0.0
 40
0.0
 40
0.0
 40
0.0
 40
0.0800889192789868
 40
0.1531491521772515
 40
0.2167927827772132
 40
0.2735220943190486
 40
0.3745397999587584
 40
0.4708459283120298
 40
0.5716681471586921
 40
0.6831589561504219
 40
0.7476207237125959
 40
0.82277737223804
 40
0.9060070334495385
 40
1.0
 40
1.0
 40
1.0
 40
1.0
 10
14.9890416814258
 20
2.036952217534123
 30
0.0
 10
15.02308148504967
 20
2.071473868612363
 30
0.0
 10
15.08817372392876
 20
2.13748751496929
 30
0.0
 10
15.17516311531112
 20
2.235741357920727
 30
0.0
 10
15.25452243589576
 20
2.321845847325303
 30
0.0
 10
15.33985957879039
 20
2.42516213043914
 30
0.0
 10
15.4249737518187
 20
2.55446541878912
 30
0.0
 10
15.4873238803515
 20
2.725526722515061
 30
0.0
 10
15.50908109379162
 20
2.913006771057568
 30
0.0
 10
15.48665368813689
 20
3.080104332178826
 30
0.0
 10
15.4548774083211
 20
3.228641330306538
 30
0.0
 10
15.42173045116208
 20
3.359415016659175
 30
0.0
 10
15.38575174386963
 20
3.507864498297035
 30
0.0
 10
15.35678923900083
 20
3.611149935808421
 30
0.0
 10
15.34142849310889
 20
3.665929084474455
 30
0.0
  0
SPLINE
  5
B4
330
1F
100
AcDbEntity
  8
0
  6
Continuous
 62
     7
370
    25
100
AcDbSpline
210
0.0
220
0.0
230
1.0
 70
     8
 71
     3
 72
    11
 73
     7
 74
     0
 42
0.00000001
 43
0.00000001
 40
0.0
 40
0.0
 40
0.0
 40
0.0
 40
0.3537259451309856
 40
0.6371139689788525
 40
0.8515957361716078
 40
1.0
 40
1.0
 40
1.0
 40
1.0
 10
15.27949974604558
 20
3.876636145492645
 30
0.0
 10
15.26187293298056
 20
3.932835007048275
 30
0.0
 10
15.2301243745644
 20
4.03405766326181
 30
0.0
 10
15.18642549146327
 20
4.168964497953228
 30
0.0
 10
15.1488236250626
 20
4.269865284685704
 30
0.0
 10
15.12446199253203
 20
4.325169162733009
 30
0.0
 10
15.11449916720314
 20
4.347785991728522
 30
0.0
  0
SPLINE
  5
B5
330
1F
100
AcDbEntity
  8
0
  6
Continuous
 62
     7
370
    25
100
AcDbSpline
210
0.0
220
0.0
230
1.0
 70
     8
 71
     3
 72
    11
 73
     7
 74
     0
 42
0.00000001
 43
0.00000001
 40
0.0
 40
0.0
 40
0.0
 40
0.0
 40
0.3537259451309901
 40
0.6371139689788545
 40
0.851595736171608
 40
1.0
 40
1.0
 40
1.0
 40
1.0
 10
20.70883743312103
 20
9.395681109625725
 30
0.0
 10
20.691210620056
 20
9.451879971181357
 30
0.0
 10
20.65946206163984
 20
9.553102627394889
 30
0.0
 10
20.61576317853872
 20
9.688009462086308
 30
0.0
 10
20.57816131213804
 20
9.788910248818782
 30
0.0
 10
20.55379967960747
 20
9.844214126866088
 30
0.0
 10
20.54383685427858
 20
9.866830955861598
 30
0.0
  0
SPLINE
  5
B6
330
1F
100
AcDbEntity
  8
0
  6
Continuous
 62
     7
370
    25
100
AcDbSpline
210
0.0
220
0.0
230
1.0
 70
     8
 71
     3
 72
    11
 73
     7
 74
     0
 42
0.00000001
 43
0.00000001
 40
0.0
 40
0.0
 40
0.0
 40
0.0
 40
0.353725945130981
 40
0.6371139689788498
 40
0.8515957361716087
 40
1.0
 40
1.0
 40
1.0
 40
1.0
 10
26.13817512019646
 20
14.9147260737588
 30
0.0
 10
26.12054830713145
 20
14.97092493531443
 30
0.0
 10
26.08879974871529
 20
15.07214759152797
 30
0.0
 10
26.04510086561414
 20
15.20705442621937
 30
0.0
 10
26.00749899921348
 20
15.30795521295186
 30
0.0
 10
25.98313736668291
 20
15.36325909099916
 30
0.0
 10
25.97317454135403
 20
15.38587591999468
 30
0.0
  0
SPLINE
  5
BD
330
1F
100
AcDbEntity
  8
0
  6
Continuous
 62
     7
370
    25
100
AcDbSpline
210
0.0
220
0.0
230
1.0
 70
     8
 71
     3
 72
    15
 73
    11
 74
     0
 42
0.00000001
 43
0.00000001
 40
0.0
 40
0.0
 40
0.0
 40
0.0
 40
0.1495581557343663
 40
0.2790846452920552
 40
0.3909082408129584
 40
0.4949913400176896
 40
0.5973497395667039
 40
0.7101318405796104
 40
0.8407141475272628
 40
0.9999999999999999
 40
0.9999999999999999
 40
0.9999999999999999
 40
0.9999999999999999
 10
24.27492364043699
 20
14.18248322528086
 30
0.0
 10
24.21562727632666
 20
14.12072696154396
 30
0.0
 10
24.10497664237371
 20
14.00548600477402
 30
0.0
 10
23.96722215843505
 20
13.82896294810651
 30
0.0
 10
23.86204404567453
 20
13.66057602243267
 30
0.0
 10
23.80091373319426
 20
13.48748796148664
 30
0.0
 10
23.77527996809766
 20
13.30564774588152
 30
0.0
 10
23.78265925991065
 20
13.10718765289388
 30
0.0
 10
23.82187709699384
 20
12.87971173917192
 30
0.0
 10
23.86519240737102
 20
12.7195867500272
 30
0.0
 10
23.88899466337714
 20
12.63159624617503
 30
0.0
  0
SPLINE
  5
BF
330
1F
100
AcDbEntity
  8
0
  6
Continuous
 62
     7
370
    25
100
AcDbSpline
210
0.0
220
0.0
230
1.0
 70
     8
 71
     3
 72
    15
 73
    11
 74
     0
 42
0.00000001
 43
0.00000001
 40
0.0
 40
0.0
 40
0.0
 40
0.0
 40
0.1112106426961182
 40
0.1973787864058511
 40
0.2706254204758519
 40
0.3456837268037919
 40
0.4454318472511196
 40
0.5875511926589214
 40
0.7721234313030277
 40
1.0
 40
1.0
 40
1.0
 40
1.0
 10
15.11449916720314
 20
4.347785991728522
 30
0.0
 10
15.09672952104334
 20
4.379475282204079
 30
0.0
 10
15.06519161146154
 20
4.435718044088113
 30
0.0
 10
15.00184638951607
 20
4.498737843601604
 30
0.0
 10
14.92823507902001
 20
4.529740748447282
 30
0.0
 10
14.84586908314943
 20
4.512305818111369
 30
0.0
 10
14.75711301480896
 20
4.45920505380536
 30
0.0
 10
14.64607150888696
 20
4.375655436735443
 30
0.0
 10
14.51149293422596
 20
4.255160012842233
 30
0.0
 10
14.41668329894189
 20
4.16013774724498
 30
0.0
 10
14.36430129665844
 20
4.107638267433883
 30
0.0
  0
SPLINE
  5
C0
330
1F
100
AcDbEntity
  8
0
  6
Continuous
 62
     7
370
    25
100
AcDbSpline
210
0.0
220
0.0
230
1.0
 70
     8
 71
     3
 72
    15
 73
    11
 74
     0
 42
0.00000001
 43
0.00000001
 40
0.0
 40
0.0
 40
0.0
 40
0.0
 40
0.1112106426961186
 40
0.1973787864058501
 40
0.2706254204758542
 40
0.3456837268037924
 40
0.4454318472511193
 40
0.5875511926589243
 40
0.7721234313030312
 40
1.0
 40
1.0
 40
1.0
 40
1.0
 10
25.97317454135403
 20
15.38587591999467
 30
0.0
 10
25.95540489519422
 20
15.41756521047023
 30
0.0
 10
25.92386698561242
 20
15.47380797235426
 30
0.0
 10
25.86052176366694
 20
15.53682777186775
 30
0.0
 10
25.78691045317091
 20
15.56783067671344
 30
0.0
 10
25.70454445730031
 20
15.55039574637752
 30
0.0
 10
25.61578838895984
 20
15.4972949820715
 30
0.0
 10
25.50474688303783
 20
15.4137453650016
 30
0.0
 10
25.37016830837685
 20
15.29324994110839
 30
0.0
 10
25.27535867309278
 20
15.19822767551113
 30
0.0
 10
25.22297667080933
 20
15.14572819570004
 30
0.0
  0
SPLINE
  5
C1
330
1F
100
AcDbEntity
  8
0
  6
Continuous
 62
     7
370
    25
100
AcDbSpline
210
0.0
220
0.0
230
1.0
 70
     8
 71
     3
 72
    15
 73
    11
 74
     0
 42
0.00000001
 43
0.00000001
 40
0.0
 40
0.0
 40
0.0
 40
0.0
 40
0.149558155734366
 40
0.2790846452920547
 40
0.3909082408129589
 40
0.4949913400176899
 40
0.5973497395667036
 40
0.7101318405796103
 40
0.8407141475272628
 40
1.0
 40
1.0
 40
1.0
 40
1.0
 10
13.41624826628611
 20
3.144393297014705
 30
0.0
 10
13.35695190217578
 20
3.082637033277807
 30
0.0
 10
13.24630126822282
 20
2.967396076507872
 30
0.0
 10
13.10854678428418
 20
2.790873019840361
 30
0.0
 10
13.00336867152364
 20
2.622486094166518
 30
0.0
 10
12.94223835904337
 20
2.449398033220491
 30
0.0
 10
12.91660459394679
 20
2.267557817615371
 30
0.0
 10
12.92398388575977
 20
2.069097724627721
 30
0.0
 10
12.96320172284297
 20
1.841621810905773
 30
0.0
 10
13.00651703322013
 20
1.681496821761053
 30
0.0
 10
13.03031928922626
 20
1.593506317908871
 30
0.0
  0
SPLINE
  5
C4
330
1F
100
AcDbEntity
  8
0
  6
Continuous
 62
     7
370
    25
100
AcDbSpline
210
0.0
220
0.0
230
1.0
 70
     8
 71
     3
 72
    15
 73
    11
 74
     0
 42
0.00000001
 43
0.00000001
 40
0.0
 40
0.0
 40
0.0
 40
0.0
 40
0.149558155734367
 40
0.2790846452920546
 40
0.3909082408129608
 40
0.4949913400176914
 40
0.5973497395667047
 40
0.7101318405796113
 40
0.8407141475272644
 40
1.0
 40
1.0
 40
1.0
 40
1.0
 10
18.84558595336155
 20
8.663438261147785
 30
0.0
 10
18.78628958925122
 20
8.601681997410886
 30
0.0
 10
18.67563895529826
 20
8.486441040640951
 30
0.0
 10
18.53788447135962
 20
8.309917983973438
 30
0.0
 10
18.43270635859909
 20
8.1415310582996
 30
0.0
 10
18.37157604611882
 20
7.968442997353567
 30
0.0
 10
18.34594228102223
 20
7.786602781748452
 30
0.0
 10
18.35332157283521
 20
7.588142688760798
 30
0.0
 10
18.39253940991841
 20
7.360666775038852
 30
0.0
 10
18.43585472029557
 20
7.200541785894132
 30
0.0
 10
18.4596569763017
 20
7.112551282041951
 30
0.0
  0
SPLINE
  5
C5
330
1F
100
AcDbEntity
  8
0
  6
Continuous
 62
     7
370
    25
100
AcDbSpline
210
0.0
220
0.0
230
1.0
 70
     8
 71
     3
 72
    15
 73
    11
 74
     0
 42
0.00000001
 43
0.00000001
 40
0.0
 40
0.0
 40
0.0
 40
0.0
 40
0.1112106426961207
 40
0.1973787864058532
 40
0.2706254204758564
 40
0.3456837268037975
 40
0.4454318472511208
 40
0.5875511926589233
 40
0.7721234313030282
 40
1.0
 40
1.0
 40
1.0
 40
1.0
 10
20.54383685427858
 20
9.866830955861598
 30
0.0
 10
20.52606720811878
 20
9.898520246337158
 30
0.0
 10
20.49452929853699
 20
9.954763008221194
 30
0.0
 10
20.4311840765915
 20
10.01778280773468
 30
0.0
 10
20.35757276609546
 20
10.04878571258036
 30
0.0
 10
20.27520677022486
 20
10.03135078224445
 30
0.0
 10
20.1864507018844
 20
9.978250017938432
 30
0.0
 10
20.0754091959624
 20
9.89470040086852
 30
0.0
 10
19.94083062130141
 20
9.774204976975312
 30
0.0
 10
19.84602098601733
 20
9.679182711378058
 30
0.0
 10
19.79363898373389
 20
9.626683231566961
 30
0.0
  0
SPLINE
  5
C6
330
1F
100
AcDbEntity
  8
0
  6
Continuous
 62
     7
370
    25
100
AcDbSpline
210
0.0
220
0.0
230
1.0
 70
     8
 71
     3
 72
    11
 73
     7
 74
     0
 42
0.00000001
 43
0.00000001
 40
0.0
 40
0.0
 40
0.0
 40
0.0
 40
0.2141423936401003
 40
0.4527186097425264
 40
0.7135340259035893
 40
0.9999999999999999
 40
0.9999999999999999
 40
0.9999999999999999
 40
0.9999999999999999
 10
21.42593437022168
 20
12.02472007789771
 30
0.0
 10
21.45258193720991
 20
11.96972878854498
 30
0.0
 10
21.50891758039979
 20
11.8534716586954
 30
0.0
 10
21.57929565818183
 20
11.66234798657261
 30
0.0
 10
21.65580449949309
 20
11.45165260117719
 30
0.0
 10
21.69884194140499
 20
11.30156363068007
 30
0.0
 10
21.72136922433363
 20
11.22300188182477
 30
0.0
  0
SPLINE
  5
C7
330
1F
100
AcDbEntity
  8
0
  6
Continuous
 62
     7
370
    25
100
AcDbSpline
210
0.0
220
0.0
230
1.0
 70
     8
 71
     3
 72
    11
 73
     7
 74
     0
 42
0.00000001
 43
0.00000001
 40
0.0
 40
0.0
 40
0.0
 40
0.0
 40
0.2141423936401005
 40
0.4527186097425288
 40
0.7135340259035933
 40
1.0
 40
1.0
 40
1.0
 40
1.0
 10
15.99659668314624
 20
6.505675113764631
 30
0.0
 10
16.02324425013447
 20
6.450683824411902
 30
0.0
 10
16.07957989332434
 20
6.334426694562322
 30
0.0
 10
16.1499579711064
 20
6.143303022439531
 30
0.0
 10
16.22646681241765
 20
5.932607637044115
 30
0.0
 10
16.26950425432955
 20
5.782518666546988
 30
0.0
 10
16.29203153725819
 20
5.70395691769169
 30
0.0
  0
SPLINE
  5
C8
330
1F
100
AcDbEntity
  8
0
  6
Continuous
 62
     7
370
    25
100
AcDbSpline
210
0.0
220
0.0
230
1.0
 70
     8
 71
     3
 72
    11
 73
     7
 74
     0
 42
0.00000001
 43
0.00000001
 40
0.0
 40
0.0
 40
0.0
 40
0.0
 40
0.2141423936400948
 40
0.4527186097425264
 40
0.7135340259035886
 40
0.9999999999999999
 40
0.9999999999999999
 40
0.9999999999999999
 40
0.9999999999999999
 10
26.85527205729712
 20
17.54376504203078
 30
0.0
 10
26.88191962428535
 20
17.48877375267805
 30
0.0
 10
26.93825526747523
 20
17.37251662282848
 30
0.0
 10
27.00863334525727
 20
17.18139295070568
 30
0.0
 10
27.08514218656854
 20
16.97069756531026
 30
0.0
 10
27.12817962848043
 20
16.82060859481314
 30
0.0
 10
27.15070691140907
 20
16.74204684595784
 30
0.0
  0
SPLINE
  5
C9
330
1F
100
AcDbEntity
  8
0
  6
Continuous
 62
     7
370
    25
100
AcDbSpline
210
0.0
220
0.0
230
1.0
 70
     8
 71
     3
 72
    23
 73
    19
 74
     0
 42
0.00000001
 43
0.00000001
 40
0.0
 40
0.0
 40
0.0
 40
0.0
 40
0.106191036465892
 40
0.2039331804894695
 40
0.2913404920744604
 40
0.3711756758749571
 40
0.44101589633871
 40
0.5037163692640784
 40
0.5571283299920674
 40
0.6040286724453642
 40
0.6454434234341891
 40
0.6857189305335649
 40
0.7264347375558031
 40
0.7699389233167327
 40
0.8174930568695341
 40
0.8711081828830232
 40
0.9324128773487537
 40
1.0
 40
1.0
 40
1.0
 40
1.0
 10
14.32207789894573
 20
6.191903644940771
 30
0.0
 10
14.37589988196
 20
6.246308330882147
 30
0.0
 10
14.47926160194735
 20
6.350789095048332
 30
0.0
 10
14.63337678690392
 20
6.493453296602618
 30
0.0
 10
14.77791003214687
 20
6.618272912982454
 30
0.0
 10
14.91143953722419
 20
6.724981962925884
 30
0.0
 10
15.0367588072331
 20
6.812955377127891
 30
0.0
 10
15.150713687204
 20
6.883693062908841
 30
0.0
 10
15.25638421337429
 20
6.935578461850104
 30
0.0
 10
15.35339708130265
 20
6.968582971777511
 30
0.0
 10
15.44529238970273
 20
6.983995101367624
 30
0.0
 10
15.53449043521227
 20
6.978043172439716
 30
0.0
 10
15.61928379306495
 20
6.946422066161876
 30
0.0
 10
15.70218701044711
 20
6.899146244448997
 30
0.0
 10
15.78032799614028
 20
6.829212322988031
 30
0.0
 10
15.85689340647856
 20
6.740373618783111
 30
0.0
 10
15.93038997587755
 20
6.630888124788401
 30
0.0
 10
15.97382212598615
 20
6.548747349107403
 30
0.0
 10
15.99659668314624
 20
6.505675113764631
 30
0.0
  0
SPLINE
  5
CA
330
1F
100
AcDbEntity
  8
0
  6
Continuous
 62
     7
370
    25
100
AcDbSpline
210
0.0
220
0.0
230
1.0
 70
     8
 71
     3
 72
    23
 73
    19
 74
     0
 42
0.00000001
 43
0.00000001
 40
0.0
 40
0.0
 40
0.0
 40
0.0
 40
0.0829643812146567
 40
0.1584922070673149
 40
0.227880187491695
 40
0.2907017089901048
 40
0.3487272750899756
 40
0.4044951231731737
 40
0.458490876709202
 40
0.5108116900617061
 40
0.5633299411472834
 40
0.6161602532492428
 40
0.6707698216302959
 40
0.7266358334180086
 40
0.7863496458778281
 40
0.8516981344862763
 40
0.9231437812987768
 40
1.0
 40
1.0
 40
1.0
 40
1.0
 10
11.62437094104522
 20
1.009905924535063
 30
0.0
 10
11.59781490387371
 20
1.107422440334665
 30
0.0
 10
11.54708319370298
 20
1.293714528436962
 30
0.0
 10
11.48607255709778
 20
1.564590166456836
 30
0.0
 10
11.43930490601239
 20
1.813335030490417
 30
0.0
 10
11.40613911336885
 20
2.042725636363143
 30
0.0
 10
11.38842472627619
 20
2.257452101041264
 30
0.0
 10
11.39404444653889
 20
2.462037760938632
 30
0.0
 10
11.41537546139195
 20
2.658731262574449
 30
0.0
 10
11.46112300912423
 20
2.847071791772358
 30
0.0
 10
11.51948434986009
 20
3.030308723863326
 30
0.0
 10
11.59922198714873
 20
3.20842601425835
 30
0.0
 10
11.69416972186111
 20
3.383539084600845
 30
0.0
 10
11.81194400585013
 20
3.554462376858202
 30
0.0
 10
11.94600418423299
 20
3.729409525230261
 30
0.0
 10
12.09869340109612
 20
3.913832840378868
 30
0.0
 10
12.2725666820389
 20
4.107573909612808
 30
0.0
 10
12.39842197926197
 20
4.237176985162899
 30
0.0
 10
12.46364544907186
 20
4.304342710181423
 30
0.0
  0
SPLINE
  5
CB
330
1F
100
AcDbEntity
  8
0
  6
Continuous
 62
     7
370
    25
100
AcDbSpline
210
0.0
220
0.0
230
1.0
 70
     8
 71
     3
 72
    23
 73
    19
 74
     0
 42
0.00000001
 43
0.00000001
 40
0.0
 40
0.0
 40
0.0
 40
0.0
 40
0.106191036465893
 40
0.2039331804894705
 40
0.2913404920744608
 40
0.371175675874957
 40
0.4410158963387099
 40
0.5037163692640787
 40
0.5571283299920671
 40
0.6040286724453651
 40
0.645443423434188
 40
0.6857189305335649
 40
0.7264347375558021
 40
0.7699389233167323
 40
0.8174930568695326
 40
0.8711081828830222
 40
0.932412877348753
 40
1.0
 40
1.0
 40
1.0
 40
1.0
 10
25.18075327309661
 20
17.22999357320693
 30
0.0
 10
25.23457525611089
 20
17.2843982591483
 30
0.0
 10
25.33793697609823
 20
17.38887902331448
 30
0.0
 10
25.49205216105481
 20
17.53154322486877
 30
0.0
 10
25.63658540629775
 20
17.65636284124861
 30
0.0
 10
25.77011491137507
 20
17.76307189119203
 30
0.0
 10
25.89543418138398
 20
17.85104530539405
 30
0.0
 10
26.00938906135488
 20
17.92178299117499
 30
0.0
 10
26.11505958752518
 20
17.97366839011626
 30
0.0
 10
26.21207245545354
 20
18.00667290004365
 30
0.0
 10
26.30396776385362
 20
18.02208502963379
 30
0.0
 10
26.39316580936315
 20
18.01613310070585
 30
0.0
 10
26.47795916721584
 20
17.98451199442803
 30
0.0
 10
26.56086238459799
 20
17.93723617271515
 30
0.0
 10
26.63900337029117
 20
17.86730225125418
 30
0.0
 10
26.71556878062944
 20
17.77846354704926
 30
0.0
 10
26.78906535002844
 20
17.66897805305455
 30
0.0
 10
26.83249750013704
 20
17.58683727737355
 30
0.0
 10
26.85527205729712
 20
17.54376504203078
 30
0.0
  0
SPLINE
  5
CD
330
1F
100
AcDbEntity
  8
0
  6
Continuous
 62
     7
370
    25
100
AcDbSpline
210
0.0
220
0.0
230
1.0
 70
     8
 71
     3
 72
    23
 73
    19
 74
     0
 42
0.00000001
 43
0.00000001
 40
0.0
 40
0.0
 40
0.0
 40
0.0
 40
0.0829643812146566
 40
0.1584922070673152
 40
0.2278801874916953
 40
0.2907017089901056
 40
0.3487272750899762
 40
0.4044951231731744
 40
0.4584908767092022
 40
0.5108116900617062
 40
0.5633299411472836
 40
0.6161602532492436
 40
0.670769821630296
 40
0.726635833418009
 40
0.7863496458778284
 40
0.8516981344862766
 40
0.9231437812987776
 40
1.0
 40
1.0
 40
1.0
 40
1.0
 10
17.05370862812066
 20
6.528950888668141
 30
0.0
 10
17.02715259094915
 20
6.626467404467743
 30
0.0
 10
16.97642088077842
 20
6.812759492570041
 30
0.0
 10
16.91541024417323
 20
7.083635130589912
 30
0.0
 10
16.86864259308784
 20
7.332379994623498
 30
0.0
 10
16.83547680044429
 20
7.561770600496224
 30
0.0
 10
16.81776241335163
 20
7.776497065174342
 30
0.0
 10
16.82338213361433
 20
7.981082725071714
 30
0.0
 10
16.84471314846739
 20
8.177776226707525
 30
0.0
 10
16.89046069619968
 20
8.36611675590544
 30
0.0
 10
16.94882203693554
 20
8.549353687996406
 30
0.0
 10
17.02855967422418
 20
8.727470978391427
 30
0.0
 10
17.12350740893655
 20
8.902584048733926
 30
0.0
 10
17.24128169292557
 20
9.073507340991279
 30
0.0
 10
17.37534187130843
 20
9.24845448936334
 30
0.0
 10
17.52803108817155
 20
9.432877804511948
 30
0.0
 10
17.70190436911434
 20
9.626618873745885
 30
0.0
 10
17.82775966633741
 20
9.756221949295975
 30
0.0
 10
17.8929831361473
 20
9.823387674314501
 30
0.0
  0
SPLINE
  5
CF
330
1F
100
AcDbEntity
  8
0
  6
Continuous
 62
     7
370
    25
100
AcDbSpline
210
0.0
220
0.0
230
1.0
 70
     8
 71
     3
 72
    23
 73
    19
 74
     0
 42
0.00000001
 43
0.00000001
 40
0.0
 40
0.0
 40
0.0
 40
0.0
 40
0.1061910364658919
 40
0.2039331804894695
 40
0.2913404920744597
 40
0.3711756758749557
 40
0.4410158963387086
 40
0.5037163692640779
 40
0.557128329992067
 40
0.6040286724453635
 40
0.6454434234341894
 40
0.6857189305335643
 40
0.7264347375558037
 40
0.7699389233167308
 40
0.817493056869535
 40
0.8711081828830233
 40
0.932412877348753
 40
1.0
 40
1.0
 40
1.0
 40
1.0
 10
19.75141558602117
 20
11.71094860907385
 30
0.0
 10
19.80523756903545
 20
11.76535329501523
 30
0.0
 10
19.90859928902278
 20
11.86983405918141
 30
0.0
 10
20.06271447397937
 20
12.0124982607357
 30
0.0
 10
20.20724771922231
 20
12.13731787711553
 30
0.0
 10
20.34077722429963
 20
12.24402692705896
 30
0.0
 10
20.46609649430854
 20
12.33200034126097
 30
0.0
 10
20.58005137427944
 20
12.40273802704191
 30
0.0
 10
20.68572190044974
 20
12.45462342598319
 30
0.0
 10
20.7827347683781
 20
12.48762793591059
 30
0.0
 10
20.87463007677818
 20
12.50304006550071
 30
0.0
 10
20.96382812228772
 20
12.4970881365728
 30
0.0
 10
21.04862148014039
 20
12.46546703029495
 30
0.0
 10
21.13152469752255
 20
12.41819120858207
 30
0.0
 10
21.20966568321572
 20
12.34825728712111
 30
0.0
 10
21.28623109355401
 20
12.25941858291619
 30
0.0
 10
21.35972766295298
 20
12.14993308892148
 30
0.0
 10
21.4031598130616
 20
12.06779231324048
 30
0.0
 10
21.42593437022168
 20
12.02472007789771
 30
0.0
  0
SPLINE
  5
D0
330
1F
100
AcDbEntity
  8
0
  6
Continuous
 62
     7
370
    25
100
AcDbSpline
210
0.0
220
0.0
230
1.0
 70
     8
 71
     3
 72
    23
 73
    19
 74
     0
 42
0.00000001
 43
0.00000001
 40
0.0
 40
0.0
 40
0.0
 40
0.0
 40
0.0829643812146566
 40
0.1584922070673148
 40
0.2278801874916948
 40
0.2907017089901057
 40
0.3487272750899761
 40
0.4044951231731744
 40
0.4584908767092022
 40
0.510811690061706
 40
0.563329941147284
 40
0.6161602532492431
 40
0.6707698216302964
 40
0.7266358334180094
 40
0.7863496458778291
 40
0.8516981344862768
 40
0.9231437812987772
 40
1.0
 40
1.0
 40
1.0
 40
1.0
 10
22.4830463151961
 20
12.04799585280121
 30
0.0
 10
22.45649027802458
 20
12.14551236860081
 30
0.0
 10
22.40575856785386
 20
12.33180445670311
 30
0.0
 10
22.34474793124868
 20
12.60268009472299
 30
0.0
 10
22.29798028016326
 20
12.85142495875657
 30
0.0
 10
22.26481448751973
 20
13.0808155646293
 30
0.0
 10
22.24710010042707
 20
13.29554202930742
 30
0.0
 10
22.25271982068978
 20
13.50012768920478
 30
0.0
 10
22.27405083554283
 20
13.6968211908406
 30
0.0
 10
22.31979838327511
 20
13.8851617200385
 30
0.0
 10
22.37815972401097
 20
14.06839865212948
 30
0.0
 10
22.45789736129963
 20
14.2465159425245
 30
0.0
 10
22.55284509601198
 20
14.42162901286699
 30
0.0
 10
22.67061938000101
 20
14.59255230512435
 30
0.0
 10
22.80467955838387
 20
14.76749945349642
 30
0.0
 10
22.957368775247
 20
14.95192276864502
 30
0.0
 10
23.13124205618979
 20
15.14566383787896
 30
0.0
 10
23.25709735341286
 20
15.27526691342905
 30
0.0
 10
23.32232082322274
 20
15.34243263844757
 30
0.0
  0
LINE
  5
D2
330
1F
100
AcDbEntity
  8
0
  6
Continuous
 62
     7
370
    25
100
AcDbLine
 10
49.2781964221
 20
12.2852920615
 30
0.0
 11
104.573934526
 21
-20.9176924671
 31
0.0
  0
LINE
  5
D3
330
1F
100
AcDbEntity
  8
0
  6
Continuous
 62
     7
370
    25
100
AcDbLine
 10
27.2902021557
 20
11.0601020278
 30
0.0
 11
27.2287689593
 21
11.2405712137
 31
0.0
  0
LINE
  5
D4
330
1F
100
AcDbEntity
  8
0
  6
Continuous
 62
     7
370
    25
100
AcDbLine
 10
25.9463060401
 20
8.5357256029
 30
0.0
 11
26.9042731786
 21
9.5092150486
 31
0.0
  0
LINE
  5
D5
330
1F
100
AcDbEntity
  8
0
  6
Continuous
 62
     7
370
    25
100
AcDbLine
 10
23.8311701406
 20
7.5473047989
 30
0.0
 11
25.0330904123
 21
8.7687766199
 31
0.0
  0
LINE
  5
D6
330
1F
100
AcDbEntity
  8
0
  6
Continuous
 62
     7
370
    25
100
AcDbLine
 10
24.0311665003
 20
6.9093672979
 30
0.0
 11
23.8311701406
 21
7.5473047989
 31
0.0
  0
LINE
  5
D7
330
1F
100
AcDbEntity
  8
0
  6
Continuous
 62
     7
370
    25
100
AcDbLine
 10
27.8350319212
 20
8.3287436482
 30
0.0
 11
25.978582293
 21
6.4432316085
 31
0.0
  0
LINE
  5
D8
330
1F
100
AcDbEntity
  8
0
  6
Continuous
 62
     7
370
    25
100
AcDbLine
 10
28.2536271576
 20
13.0539791978
 30
0.0
 11
28.6867980199
 21
11.5991883541
 31
0.0
  0
LINE
  5
D9
330
1F
100
AcDbEntity
  8
0
  6
Continuous
 62
     7
370
    25
100
AcDbLine
 10
16.4315267815
 20
0.0220120995
 30
0.0
 11
16.3700935852
 21
0.2024812854
 31
0.0
  0
LINE
  5
DA
330
1F
100
AcDbEntity
  8
0
  6
Continuous
 62
     7
370
    25
100
AcDbLine
 10
15.087630666
 20
-2.5023643253
 30
0.0
 11
16.0455978045
 21
-1.5288748796
 31
0.0
  0
LINE
  5
DB
330
1F
100
AcDbEntity
  8
0
  6
Continuous
 62
     7
370
    25
100
AcDbLine
 10
12.9724947664
 20
-3.4907851293
 30
0.0
 11
14.1744150382
 21
-2.2693133083
 31
0.0
  0
LINE
  5
DC
330
1F
100
AcDbEntity
  8
0
  6
Continuous
 62
     7
370
    25
100
AcDbLine
 10
13.1724911261
 20
-4.1287226304
 30
0.0
 11
12.9724947664
 21
-3.4907851293
 31
0.0
  0
LINE
  5
DD
330
1F
100
AcDbEntity
  8
0
  6
Continuous
 62
     7
370
    25
100
AcDbLine
 10
16.9763565471
 20
-2.7093462801
 30
0.0
 11
15.1199069188
 21
-4.5948583198
 31
0.0
  0
LINE
  5
DE
330
1F
100
AcDbEntity
  8
0
  6
Continuous
 62
     7
370
    25
100
AcDbLine
 10
17.3949517835
 20
2.0158892695
 30
0.0
 11
17.8281226457
 21
0.5610984258
 31
0.0
  0
LINE
  5
DF
330
1F
100
AcDbEntity
  8
0
  6
Continuous
 62
     7
370
    25
100
AcDbLine
 10
21.8608644686
 20
5.5410570636
 30
0.0
 11
21.7994312723
 21
5.7215262495
 31
0.0
  0
LINE
  5
E0
330
1F
100
AcDbEntity
  8
0
  6
Continuous
 62
     7
370
    25
100
AcDbLine
 10
20.516968353
 20
3.0166806388
 30
0.0
 11
21.4749354915
 21
3.9901700845
 31
0.0
  0
LINE
  5
E1
330
1F
100
AcDbEntity
  8
0
  6
Continuous
 62
     7
370
    25
100
AcDbLine
 10
18.4018324535
 20
2.0282598348
 30
0.0
 11
19.6037527253
 21
3.2497316558
 31
0.0
  0
LINE
  5
E2
330
1F
100
AcDbEntity
  8
0
  6
Continuous
 62
     7
370
    25
100
AcDbLine
 10
18.6018288132
 20
1.3903223337
 30
0.0
 11
18.4018324535
 21
2.0282598348
 31
0.0
  0
LINE
  5
E3
330
1F
100
AcDbEntity
  8
0
  6
Continuous
 62
     7
370
    25
100
AcDbLine
 10
22.4056942342
 20
2.8096986841
 30
0.0
 11
20.5492446059
 21
0.9241866444
 31
0.0
  0
LINE
  5
E4
330
1F
100
AcDbEntity
  8
0
  6
Continuous
 62
     7
370
    25
100
AcDbLine
 10
22.8242894705
 20
7.5349342336
 30
0.0
 11
23.2574603328
 21
6.0801433899
 31
0.0
  0
LINE
  5
E5
330
1F
100
AcDbEntity
  8
0
  6
Continuous
 62
     7
370
    25
100
AcDbLine
 10
15.7175195816
 20
0.6495093796
 30
0.0
 11
14.5254803812
 21
-0.5597021078
 31
0.0
  0
LINE
  5
E6
330
1F
100
AcDbEntity
  8
0
  6
Continuous
 62
     7
370
    25
100
AcDbLine
 10
-5.7030131296
 20
5.61031561
 30
0.0
 11
38.3265103177
 21
50.3673253339
 31
0.0
  0
LINE
  5
E7
330
1F
100
AcDbEntity
  8
0
  6
Continuous
 62
     7
370
    25
100
AcDbLine
 10
47.9642383256
 20
53.0345708881
 30
0.0
 11
74.7526884788
 21
46.0913663287
 31
0.0
  0
LINE
  5
E8
330
1F
100
AcDbEntity
  8
0
  6
Continuous
 62
     7
370
    25
100
AcDbLine
 10
26.5761949558
 20
11.6875993079
 30
0.0
 11
25.3841557554
 21
10.4783878205
 31
0.0
  0
LINE
  5
E9
330
1F
100
AcDbEntity
  8
0
  6
Continuous
 62
     7
370
    25
100
AcDbLine
 10
74.0074477855
 20
40.1873335536
 30
0.0
 11
56.9627610723
 21
40.1450183661
 31
0.0
  0
LINE
  5
EA
330
1F
100
AcDbEntity
  8
0
  6
Continuous
 62
     7
370
    25
100
AcDbLine
 10
21.1468572687
 20
6.1685543438
 30
0.0
 11
19.9548180683
 21
4.9593428564
 31
0.0
  0
LINE
  5
EB
330
1F
100
AcDbEntity
  8
0
  6
Continuous
 62
     7
370
    25
100
AcDbLine
 10
-1.6965494842
 20
-7.8180381073
 30
0.0
 11
100.9396565724
 21
-30.0905571272
 31
0.0
  0
LINE
  5
EC
330
1F
100
AcDbEntity
  8
0
  6
Continuous
 62
     7
370
    25
100
AcDbLine
 10
19.4623620149
 20
6.5865724894
 30
0.0
 11
20.4183793685
 21
7.5559971817
 31
0.0
  0
LINE
  5
ED
330
1F
100
AcDbEntity
  8
0
  6
Continuous
 62
     7
370
    25
100
AcDbLine
 10
25.3841557554
 20
10.4783878205
 30
0.0
 11
24.891699702
 21
12.1056174535
 31
0.0
  0
LINE
  5
EE
330
1F
100
AcDbEntity
  8
0
  6
Continuous
 62
     7
370
    25
100
AcDbLine
 10
24.891699702
 20
12.1056174535
 30
0.0
 11
25.8477170556
 21
13.0750421458
 31
0.0
  0
LINE
  5
EF
330
1F
100
AcDbEntity
  8
0
  6
Continuous
 62
     7
370
    25
100
AcDbLine
 10
14.5254803812
 20
-0.5597021078
 30
0.0
 11
14.0330243278
 21
1.0675275252
 31
0.0
  0
LINE
  5
F0
330
1F
100
AcDbEntity
  8
0
  6
Continuous
 62
     7
370
    25
100
AcDbLine
 10
14.0330243278
 20
1.0675275252
 30
0.0
 11
14.9890416814
 21
2.0369522175
 31
0.0
  0
LINE
  5
F1
330
1F
100
AcDbEntity
  8
0
  6
Continuous
 62
     7
370
    25
100
AcDbLine
 10
19.9548180683
 20
4.9593428564
 30
0.0
 11
19.4623620149
 21
6.5865724894
 31
0.0
  0
LINE
  5
F2
330
1F
100
AcDbEntity
  8
0
  6
Continuous
 62
     7
370
    25
100
AcDbLine
 10
20.7707661802
 20
9.1849740486
 30
0.0
 11
20.7088374331
 21
9.3956811096
 31
0.0
  0
LINE
  5
F3
330
1F
100
AcDbEntity
  8
0
  6
Continuous
 62
     7
370
    25
100
AcDbLine
 10
18.4596569763
 20
7.112551282
 30
0.0
 11
17.2577367045
 21
5.891079461
 31
0.0
  0
LINE
  5
F4
330
1F
100
AcDbEntity
  8
0
  6
Continuous
 62
     7
370
    25
100
AcDbLine
 10
15.3414284931
 20
3.6659290845
 30
0.0
 11
15.279499746
 21
3.8766361455
 31
0.0
  0
LINE
  5
F5
330
1F
100
AcDbEntity
  8
0
  6
Continuous
 62
     7
370
    25
100
AcDbLine
 10
26.2001038673
 20
14.7040190127
 30
0.0
 11
26.1381751202
 21
14.9147260738
 31
0.0
  0
LINE
  5
F6
330
1F
100
AcDbEntity
  8
0
  6
Continuous
 62
     7
370
    25
100
AcDbLine
 10
23.8889946634
 20
12.6315962462
 30
0.0
 11
22.6870743916
 21
11.4101244252
 31
0.0
  0
LINE
  5
F7
330
1F
100
AcDbEntity
  8
0
  6
Continuous
 62
     7
370
    25
100
AcDbLine
 10
13.0303192892
 20
1.5935063179
 30
0.0
 11
11.8283990175
 21
0.3720344969
 31
0.0
  0
LINE
  5
F8
330
1F
100
AcDbEntity
  8
0
  6
Continuous
 62
     7
370
    25
100
AcDbLine
 10
27.1507069114
 20
16.742046846
 30
0.0
 11
27.5987816633
 21
15.2391066591
 31
0.0
  0
LINE
  5
F9
330
1F
100
AcDbEntity
  8
0
  6
Continuous
 62
     7
370
    25
100
AcDbLine
 10
17.2577367045
 20
5.891079461
 30
0.0
 11
17.0537086281
 21
6.5289508887
 31
0.0
  0
LINE
  5
FA
330
1F
100
AcDbEntity
  8
0
  6
Continuous
 62
     7
370
    25
100
AcDbLine
 10
16.2920315373
 20
5.7039569177
 30
0.0
 11
16.7401062891
 21
4.2010167308
 31
0.0
  0
LINE
  5
FB
330
1F
100
AcDbEntity
  8
0
  6
Continuous
 62
     7
370
    25
100
AcDbLine
 10
22.6870743916
 20
11.4101244252
 30
0.0
 11
22.4830463152
 21
12.0479958528
 31
0.0
  0
LINE
  5
FC
330
1F
100
AcDbEntity
  8
0
  6
Continuous
 62
     7
370
    25
100
AcDbLine
 10
21.7213692243
 20
11.2230018818
 30
0.0
 11
22.1694439762
 21
9.7200616949
 31
0.0
  0
LINE
  5
FD
330
1F
100
AcDbEntity
  8
0
  6
Continuous
 62
     7
370
    25
100
AcDbLine
 10
11.8283990175
 20
0.3720344969
 30
0.0
 11
11.624370941
 21
1.0099059245
 31
0.0
  0
LINE
  5
FE
330
1F
100
AcDbEntity
  8
0
  6
Continuous
 62
     7
370
    25
100
AcDbLine
 10
25.2229766708
 20
15.1457281957
 30
0.0
 11
24.2749236404
 21
14.1824832253
 31
0.0
  0
LINE
  5
FF
330
1F
100
AcDbEntity
  8
0
  6
Continuous
 62
     7
370
    25
100
AcDbLine
 10
19.7936389837
 20
9.6266832316
 30
0.0
 11
18.8455859534
 21
8.6634382611
 31
0.0
  0
LINE
  5
100
330
1F
100
AcDbEntity
  8
0
  6
Continuous
 62
     7
370
    25
100
AcDbLine
 10
14.3643012967
 20
4.1076382674
 30
0.0
 11
13.4162482663
 21
3.144393297
 31
0.0
  0
LINE
  5
101
330
1F
100
AcDbEntity
  8
0
  6
Continuous
 62
     7
370
    25
100
AcDbLine
 10
12.4636454491
 20
4.3043427102
 30
0.0
 11
14.3220778989
 21
6.1919036449
 31
0.0
  0
LINE
  5
102
330
1F
100
AcDbEntity
  8
0
  6
Continuous
 62
     7
370
    25
100
AcDbLine
 10
17.8929831361
 20
9.8233876743
 30
0.0
 11
19.751415586
 21
11.7109486091
 31
0.0
  0
LINE
  5
103
330
1F
100
AcDbEntity
  8
0
  6
Continuous
 62
     7
370
    25
100
AcDbLine
 10
23.3223208232
 20
15.3424326384
 30
0.0
 11
25.1807532731
 21
17.2299935732
 31
0.0
  0
ARC
  5
104
330
1F
100
AcDbEntity
  8
0
  6
Continuous
 62
     7
370
    25
100
AcDbCircle
 10
102.0
 20
-25.2042833102
 30
0.0
 40
4.999999999999998
100
AcDbArc
 50
257.7563898892
 51
59.0167875027
  0
ARC
  5
105
330
1F
100
AcDbEntity
  8
0
  6
Continuous
 62
     7
370
    25
100
AcDbCircle
 10
45.4552767297
 20
43.3544308215
 30
0.0
 40
10.00000000000006
100
AcDbArc
 50
75.4694513804
 51
135.4694513804
  0
ARC
  5
106
330
1F
100
AcDbEntity
  8
0
  6
Continuous
 62
     7
370
    25
100
AcDbCircle
 10
57.0
 20
25.1450645908
 30
0.0
 40
15.00000000000001
100
AcDbArc
 50
90.1422423723
 51
239.0167875027
  0
ARC
  5
107
330
1F
100
AcDbEntity
  8
0
  6
Continuous
 62
     7
370
    25
100
AcDbCircle
 10
74.0
 20
43.1873243087
 30
0.0
 40
3.000000000000015
100
AcDbArc
 50
270.1422423723
 51
75.4694513804
  0
ARC
  5
108
330
1F
100
AcDbEntity
  8
0
  6
Continuous
 62
     7
370
    25
100
AcDbCircle
 10
0.0
 20
0.0
 30
0.0
 40
8.00000000000001
100
AcDbArc
 50
135.4694513804
 51
257.7563898892
  0
MTEXT
  5
10A
330
1F
100
AcDbEntity
  8
0
  6
Continuous
 62
     7
100
AcDbMText
 10
-8.0
 20
-31.2238497018
 30
0.0
 40
4.83362
 41
0.0
 71
     1
 72
     1
  1
Produit SOLIDWORKS Maker – Usage personnel uniquement.
  7
SLDTEXTSTYLE0
 73
     1
 44
1.0
  0
ENDSEC
  0
SECTION
  2
OBJECTS
  0
DICTIONARY
  5
C
330
0
100
AcDbDictionary
281
     1
  3
ACAD_GROUP
350
D
  3
ACAD_LAYOUT
350
1A
  3
ACAD_MLINESTYLE
350
17
  3
ACAD_PLOTSETTINGS
350
19
  3
ACAD_PLOTSTYLENAME
350
E
  3
ACAD_SCALELIST
350
47
  3
DWGPROPS
350
10B
  0
DICTIONARY
  5
D
102
{ACAD_REACTORS
330
C
102
}
330
C
100
AcDbDictionary
281
     1
  0
DICTIONARY
  5
1A
102
{ACAD_REACTORS
330
C
102
}
330
C
100
AcDbDictionary
281
     1
  3
Layout1
350
1E
  3
Layout2
350
26
  3
Model
350
22
  0
DICTIONARY
  5
17
102
{ACAD_REACTORS
330
C
102
}
330
C
100
AcDbDictionary
281
     1
  3
Standard
350
18
  0
DICTIONARY
  5
19
102
{ACAD_REACTORS
330
C
102
}
330
C
100
AcDbDictionary
281
     1
  0
ACDBDICTIONARYWDFLT
  5
E
102
{ACAD_REACTORS
330
C
102
}
330
C
100
AcDbDictionary
281
     1
  3
Normal
350
F
100
AcDbDictionaryWithDefault
340
F
  0
DICTIONARY
  5
47
102
{ACAD_REACTORS
330
C
102
}
330
C
100
AcDbDictionary
281
     1
  3
A0
350
48
  3
A1
350
49
  3
A2
350
4A
  3
A3
350
4B
  3
A4
350
4C
  3
A5
350
4D
  3
A6
350
4E
  3
A7
350
4F
  3
A8
350
50
  3
A9
350
51
  3
B0
350
52
  3
B1
350
53
  3
B2
350
54
  3
B3
350
55
  3
B4
350
56
  3
B5
350
57
  3
B6
350
58
  0
XRECORD
  5
10B
102
{ACAD_REACTORS
330
C
102
}
330
C
100
AcDbXrecord
280
     1
  1
DWGPROPS COOKIE
  2

  3

  4

  6

  7

  8
cyprien
  9

300
=
301
=
302
=
303
=
304
=
305
=
306
=
307
=
308
=
309
=
 40
0.0
 41
2460119.57851632
 42
2460119.578546725
  1

 90
        0
  0
LAYOUT
  5
1E
102
{ACAD_REACTORS
330
1A
102
}
330
1A
100
AcDbPlotSettings
  1

  2
none_device
  4

  6

 40
0.0
 41
0.0
 42
0.0
 43
0.0
 44
0.0
 45
0.0
 46
0.0
 47
0.0
 48
0.0
 49
0.0
140
0.0
141
0.0
142
1.0
143
1.0
 70
   688
 72
     1
 73
     0
 74
     5
  7

 75
    16
147
1.0
148
0.0
149
0.0
100
AcDbLayout
  1
Layout1
 70
     1
 71
     1
 10
0.0
 20
0.0
 11
420.0
 21
297.0
 12
0.0
 22
0.0
 32
0.0
 14
1.0000000000E+20
 24
1.0000000000E+20
 34
1.0000000000E+20
 15
-1.0000000000E+20
 25
-1.0000000000E+20
 35
-1.0000000000E+20
146
0.0
 13
0.0
 23
0.0
 33
0.0
 16
1.0
 26
0.0
 36
0.0
 17
0.0
 27
1.0
 37
0.0
 76
     0
330
1B
  0
LAYOUT
  5
26
102
{ACAD_REACTORS
330
1A
102
}
330
1A
100
AcDbPlotSettings
  1

  2
none_device
  4

  6

 40
0.0
 41
0.0
 42
0.0
 43
0.0
 44
0.0
 45
0.0
 46
0.0
 47
0.0
 48
0.0
 49
0.0
140
0.0
141
0.0
142
1.0
143
1.0
 70
   688
 72
     1
 73
     0
 74
     5
  7

 75
    16
147
1.0
148
0.0
149
0.0
100
AcDbLayout
  1
Layout2
 70
     1
 71
     2
 10
0.0
 20
0.0
 11
0.0
 21
0.0
 12
0.0
 22
0.0
 32
0.0
 14
0.0
 24
0.0
 34
0.0
 15
0.0
 25
0.0
 35
0.0
146
0.0
 13
0.0
 23
0.0
 33
0.0
 16
1.0
 26
0.0
 36
0.0
 17
0.0
 27
1.0
 37
0.0
 76
     0
330
23
  0
LAYOUT
  5
22
102
{ACAD_REACTORS
330
1A
102
}
330
1A
100
AcDbPlotSettings
  1

  2
none_device
  4
ANSI_A_(11.00_x_8.50_Inches)
  6

 40
6.35
 41
19.05
 42
6.35000508
 43
19.05000254
 44
279.4
 45
215.9
 46
14.2891539817
 47
61.0588261104
 48
0.0
 49
0.0
140
0.0
141
0.0
142
0.0946956522
143
1.0
 70
  1696
 72
     0
 73
     0
 74
     0
  7

 75
     0
147
0.0179189148
148
-1300.4909072572
149
0.0
100
AcDbLayout
  1
Model
 70
     1
 71
     0
 10
0.0
 20
0.0
 11
420.0
 21
297.0
 12
0.0
 22
0.0
 32
0.0
 14
-8.0
 24
-30.2042833102
 34
0.0
 15
107.0
 25
53.3544308215
 35
0.0
146
0.0
 13
0.0
 23
0.0
 33
0.0
 16
1.0
 26
0.0
 36
0.0
 17
0.0
 27
1.0
 37
0.0
 76
     0
330
1F
331
29
  0
MLINESTYLE
  5
18
102
{ACAD_REACTORS
330
17
102
}
330
17
100
AcDbMlineStyle
  2
Standard
 70
     0
  3

 62
   256
 51
90.0
 52
90.0
 71
     2
 49
0.5
 62
   256
  6
BYLAYER
 49
-0.5
 62
   256
  6
BYLAYER
  0
ACDBPLACEHOLDER
  5
F
102
{ACAD_REACTORS
330
E
102
}
330
E
  0
SCALE
  5
48
102
{ACAD_REACTORS
330
47
102
}
330
47
100
AcDbScale
 70
     0
300
1:1
140
1.0
141
1.0
290
     1
  0
SCALE
  5
49
102
{ACAD_REACTORS
330
47
102
}
330
47
100
AcDbScale
 70
     0
300
1:2
140
1.0
141
2.0
290
     0
  0
SCALE
  5
4A
102
{ACAD_REACTORS
330
47
102
}
330
47
100
AcDbScale
 70
     0
300
1:4
140
1.0
141
4.0
290
     0
  0
SCALE
  5
4B
102
{ACAD_REACTORS
330
47
102
}
330
47
100
AcDbScale
 70
     0
300
1:5
140
1.0
141
5.0
290
     0
  0
SCALE
  5
4C
102
{ACAD_REACTORS
330
47
102
}
330
47
100
AcDbScale
 70
     0
300
1:8
140
1.0
141
8.0
290
     0
  0
SCALE
  5
4D
102
{ACAD_REACTORS
330
47
102
}
330
47
100
AcDbScale
 70
     0
300
1:10
140
1.0
141
10.0
290
     0
  0
SCALE
  5
4E
102
{ACAD_REACTORS
330
47
102
}
330
47
100
AcDbScale
 70
     0
300
1:16
140
1.0
141
16.0
290
     0
  0
SCALE
  5
4F
102
{ACAD_REACTORS
330
47
102
}
330
47
100
AcDbScale
 70
     0
300
1:20
140
1.0
141
20.0
290
     0
  0
SCALE
  5
50
102
{ACAD_REACTORS
330
47
102
}
330
47
100
AcDbScale
 70
     0
300
1:30
140
1.0
141
30.0
290
     0
  0
SCALE
  5
51
102
{ACAD_REACTORS
330
47
102
}
330
47
100
AcDbScale
 70
     0
300
1:40
140
1.0
141
40.0
290
     0
  0
SCALE
  5
52
102
{ACAD_REACTORS
330
47
102
}
330
47
100
AcDbScale
 70
     0
300
1:50
140
1.0
141
50.0
290
     0
  0
SCALE
  5
53
102
{ACAD_REACTORS
330
47
102
}
330
47
100
AcDbScale
 70
     0
300
1:100
140
1.0
141
100.0
290
     0
  0
SCALE
  5
54
102
{ACAD_REACTORS
330
47
102
}
330
47
100
AcDbScale
 70
     0
300
2:1
140
2.0
141
1.0
290
     0
  0
SCALE
  5
55
102
{ACAD_REACTORS
330
47
102
}
330
47
100
AcDbScale
 70
     0
300
4:1
140
4.0
141
1.0
290
     0
  0
SCALE
  5
56
102
{ACAD_REACTORS
330
47
102
}
330
47
100
AcDbScale
 70
     0
300
8:1
140
8.0
141
1.0
290
     0
  0
SCALE
  5
57
102
{ACAD_REACTORS
330
47
102
}
330
47
100
AcDbScale
 70
     0
300
10:1
140
10.0
141
1.0
290
     0
  0
SCALE
  5
58
102
{ACAD_REACTORS
330
47
102
}
330
47
100
AcDbScale
 70
     0
300
100:1
140
100.0
141
1.0
290
     0
  0
ENDSEC
  0
EOF
