  0
SECTION
  2
HEADER
  9
$ACADVER
  1
AC1015
  9
$ACADMAINTVER
 70
     6
  9
$DWGCODEPAGE
  3
ANSI_1252
  9
$INSBASE
 10
0.0
 20
0.0
 30
0.0
  9
$EXTMIN
 10
-107.0
 20
-30.2042833102
 30
0.0
  9
$EXTMAX
 10
8.0
 20
53.3544308215
 30
0.0
  9
$LIMMIN
 10
0.0
 20
0.0
  9
$LIMMAX
 10
420.0
 20
297.0
  9
$ORTHOMODE
 70
     0
  9
$REGENMODE
 70
     1
  9
$FILLMODE
 70
     1
  9
$QTEXTMODE
 70
     0
  9
$MIRRTEXT
 70
     1
  9
$LTSCALE
 40
1.0
  9
$ATTMODE
 70
     1
  9
$TEXTSIZE
 40
3.5
  9
$TRACEWID
 40
1.0
  9
$TEXTSTYLE
  7
Standard
  9
$CLAYER
  8
0
  9
$CELTYPE
  6
ByLayer
  9
$CECOLOR
 62
   256
  9
$CELTSCALE
 40
1.0
  9
$DISPSILH
 70
     0
  9
$DIMSCALE
 40
1.0
  9
$DIMASZ
 40
3.302
  9
$DIMEXO
 40
0.0
  9
$DIMDLI
 40
3.75
  9
$DIMRND
 40
0.0
  9
$DIMDLE
 40
0.0
  9
$DIMEXE
 40
1.0
  9
$DIMTP
 40
0.0
  9
$DIMTM
 40
0.0
  9
$DIMTXT
 40
3.5
  9
$DIMCEN
 40
2.5
  9
$DIMTSZ
 40
0.0
  9
$DIMTOL
 70
     0
  9
$DIMLIM
 70
     0
  9
$DIMTIH
 70
     1
  9
$DIMTOH
 70
     1
  9
$DIMSE1
 70
     0
  9
$DIMSE2
 70
     0
  9
$DIMTAD
 70
     1
  9
$DIMZIN
 70
     1
  9
$DIMBLK
  1

  9
$DIMASO
 70
     1
  9
$DIMSHO
 70
     1
  9
$DIMPOST
  1

  9
$DIMAPOST
  1

  9
$DIMALT
 70
     0
  9
$DIMALTD
 70
     3
  9
$DIMALTF
 40
0.0393700787
  9
$DIMLFAC
 40
1.0
  9
$DIMTOFL
 70
     1
  9
$DIMTVP
 40
0.0
  9
$DIMTIX
 70
     0
  9
$DIMSOXD
 70
     0
  9
$DIMSAH
 70
     0
  9
$DIMBLK1
  1

  9
$DIMBLK2
  1

  9
$DIMSTYLE
  2
ISO-25
  9
$DIMCLRD
 70
     0
  9
$DIMCLRE
 70
     0
  9
$DIMCLRT
 70
     0
  9
$DIMTFAC
 40
1.0
  9
$DIMGAP
 40
1.524
  9
$DIMJUST
 70
     0
  9
$DIMSD1
 70
     0
  9
$DIMSD2
 70
     0
  9
$DIMTOLJ
 70
     0
  9
$DIMTZIN
 70
     1
  9
$DIMALTZ
 70
     0
  9
$DIMALTTZ
 70
     0
  9
$DIMUPT
 70
     0
  9
$DIMDEC
 70
     2
  9
$DIMTDEC
 70
     2
  9
$DIMALTU
 70
     2
  9
$DIMALTTD
 70
     3
  9
$DIMTXSTY
  7
Standard
  9
$DIMAUNIT
 70
     0
  9
$DIMADEC
 70
     2
  9
$DIMALTRND
 40
0.0
  9
$DIMAZIN
 70
     0
  9
$DIMDSEP
 70
    44
  9
$DIMATFIT
 70
     3
  9
$DIMFRAC
 70
     0
  9
$DIMLDRBLK
  1

  9
$DIMLUNIT
 70
     2
  9
$DIMLWD
 70
    -2
  9
$DIMLWE
 70
    -2
  9
$DIMTMOVE
 70
     0
  9
$LUNITS
 70
     2
  9
$LUPREC
 70
     6
  9
$SKETCHINC
 40
1.0
  9
$FILLETRAD
 40
0.0
  9
$AUNITS
 70
     0
  9
$AUPREC
 70
     2
  9
$MENU
  1
.
  9
$ELEVATION
 40
0.0
  9
$PELEVATION
 40
0.0
  9
$THICKNESS
 40
0.0
  9
$LIMCHECK
 70
     0
  9
$CHAMFERA
 40
0.0
  9
$CHAMFERB
 40
0.0
  9
$CHAMFERC
 40
0.0
  9
$CHAMFERD
 40
0.0
  9
$SKPOLY
 70
     0
  9
$TDCREATE
 40
2460119.664554803
  9
$TDUCREATE
 40
2460119.58122147
  9
$TDUPDATE
 40
2460119.664584676
  9
$TDUUPDATE
 40
2460119.581251343
  9
$TDINDWG
 40
0.0000000116
  9
$TDUSRTIMER
 40
0.0000000116
  9
$USRTIMER
 70
     1
  9
$ANGBASE
 50
0.0
  9
$ANGDIR
 70
     0
  9
$PDMODE
 70
     0
  9
$PDSIZE
 40
-1.0
  9
$PLINEWID
 40
0.0
  9
$SPLFRAME
 70
     0
  9
$SPLINETYPE
 70
     6
  9
$SPLINESEGS
 70
     8
  9
$HANDSEED
  5
10C
  9
$SURFTAB1
 70
     6
  9
$SURFTAB2
 70
     6
  9
$SURFTYPE
 70
     6
  9
$SURFU
 70
     6
  9
$SURFV
 70
     6
  9
$UCSBASE
  2

  9
$UCSNAME
  2

  9
$UCSORG
 10
0.0
 20
0.0
 30
0.0
  9
$UCSXDIR
 10
1.0
 20
0.0
 30
0.0
  9
$UCSYDIR
 10
0.0
 20
1.0
 30
0.0
  9
$UCSORTHOREF
  2

  9
$UCSORTHOVIEW
 70
     0
  9
$UCSORGTOP
 10
0.0
 20
0.0
 30
0.0
  9
$UCSORGBOTTOM
 10
0.0
 20
0.0
 30
0.0
  9
$UCSORGLEFT
 10
0.0
 20
0.0
 30
0.0
  9
$UCSORGRIGHT
 10
0.0
 20
0.0
 30
0.0
  9
$UCSORGFRONT
 10
0.0
 20
0.0
 30
0.0
  9
$UCSORGBACK
 10
0.0
 20
0.0
 30
0.0
  9
$PUCSBASE
  2

  9
$PUCSNAME
  2

  9
$PUCSORG
 10
0.0
 20
0.0
 30
0.0
  9
$PUCSXDIR
 10
1.0
 20
0.0
 30
0.0
  9
$PUCSYDIR
 10
0.0
 20
1.0
 30
0.0
  9
$PUCSORTHOREF
  2

  9
$PUCSORTHOVIEW
 70
     0
  9
$PUCSORGTOP
 10
0.0
 20
0.0
 30
0.0
  9
$PUCSORGBOTTOM
 10
0.0
 20
0.0
 30
0.0
  9
$PUCSORGLEFT
 10
0.0
 20
0.0
 30
0.0
  9
$PUCSORGRIGHT
 10
0.0
 20
0.0
 30
0.0
  9
$PUCSORGFRONT
 10
0.0
 20
0.0
 30
0.0
  9
$PUCSORGBACK
 10
0.0
 20
0.0
 30
0.0
  9
$USERI1
 70
     0
  9
$USERI2
 70
     0
  9
$USERI3
 70
     0
  9
$USERI4
 70
     0
  9
$USERI5
 70
     0
  9
$USERR1
 40
0.0
  9
$USERR2
 40
0.0
  9
$USERR3
 40
0.0
  9
$USERR4
 40
0.0
  9
$USERR5
 40
0.0
  9
$WORLDVIEW
 70
     1
  9
$SHADEDGE
 70
     3
  9
$SHADEDIF
 70
    70
  9
$TILEMODE
 70
     1
  9
$MAXACTVP
 70
    64
  9
$PINSBASE
 10
0.0
 20
0.0
 30
0.0
  9
$PLIMCHECK
 70
     0
  9
$PEXTMIN
 10
1.0000000000E+20
 20
1.0000000000E+20
 30
1.0000000000E+20
  9
$PEXTMAX
 10
-1.0000000000E+20
 20
-1.0000000000E+20
 30
-1.0000000000E+20
  9
$PLIMMIN
 10
0.0
 20
0.0
  9
$PLIMMAX
 10
420.0
 20
297.0
  9
$UNITMODE
 70
     0
  9
$VISRETAIN
 70
     1
  9
$PLINEGEN
 70
     0
  9
$PSLTSCALE
 70
     1
  9
$TREEDEPTH
 70
  3020
  9
$CMLSTYLE
  2
Standard
  9
$CMLJUST
 70
     0
  9
$CMLSCALE
 40
20.0
  9
$PROXYGRAPHICS
 70
     1
  9
$MEASUREMENT
 70
     1
  9
$CELWEIGHT
370
    -1
  9
$ENDCAPS
280
     0
  9
$JOINSTYLE
280
     0
  9
$LWDISPLAY
290
     1
  9
$INSUNITS
 70
     4
  9
$HYPERLINKBASE
  1

  9
$STYLESHEET
  1

  9
$XEDIT
290
     1
  9
$CEPSNTYPE
380
     0
  9
$PSTYLEMODE
290
     1
  9
$FINGERPRINTGUID
  2
{258d9833-48ee-4dd5-ae41-43a87a40d576}
  9
$VERSIONGUID
  2
{FAEB1C32-E019-11D5-929B-00C0DF256EC4}
  9
$EXTNAMES
290
     1
  9
$PSVPSCALE
 40
0.0
  9
$OLESTARTUP
290
     0
  0
ENDSEC
  0
SECTION
  2
CLASSES
  0
CLASS
  1
ACDBDICTIONARYWDFLT
  2
AcDbDictionaryWithDefault
  3
ObjectDBX Classes
 90
        0
280
     0
281
     0
  0
CLASS
  1
VISUALSTYLE
  2
AcDbVisualStyle
  3
ObjectDBX Classes
 90
     4095
280
     0
281
     0
  0
CLASS
  1
MATERIAL
  2
AcDbMaterial
  3
ObjectDBX Classes
 90
     1153
280
     0
281
     0
  0
CLASS
  1
SCALE
  2
AcDbScale
  3
ObjectDBX Classes
 90
     1153
280
     0
281
     0
  0
CLASS
  1
TABLESTYLE
  2
AcDbTableStyle
  3
ObjectDBX Classes
 90
     4095
280
     0
281
     0
  0
CLASS
  1
MLEADERSTYLE
  2
AcDbMLeaderStyle
  3
ACDB_MLEADERSTYLE_CLASS
 90
     4095
280
     0
281
     0
  0
CLASS
  1
SUN
  2
AcDbSun
  3
SCENEOE
 90
     1153
280
     0
281
     0
  0
CLASS
  1
ACDBPLACEHOLDER
  2
AcDbPlaceHolder
  3
ObjectDBX Classes
 90
        0
280
     0
281
     0
  0
CLASS
  1
LAYOUT
  2
AcDbLayout
  3
ObjectDBX Classes
 90
        0
280
     0
281
     0
  0
ENDSEC
  0
SECTION
  2
TABLES
  0
TABLE
  2
VPORT
  5
8
330
0
100
AcDbSymbolTable
 70
     1
  0
VPORT
  5
29
330
8
100
AcDbSymbolTableRecord
100
AcDbViewportTableRecord
  2
*Active
 70
     0
 10
0.0
 20
0.0
 11
1.0
 21
1.0
 12
-49.5
 22
11.5750737556
 13
0.0
 23
0.0
 14
10.0
 24
10.0
 15
10.0
 25
10.0
 16
0.0
 26
0.0
 36
1.0
 17
0.0
 27
0.0
 37
0.0
 40
85.2298884142
 41
1.376277761
 42
50.0
 43
0.0
 44
0.0
 50
0.0
 51
0.0
 71
     0
 72
   100
 73
     1
 74
     3
 75
     0
 76
     0
 77
     0
 78
     0
281
     0
 65
     1
110
0.0
120
0.0
130
0.0
111
1.0
121
0.0
131
0.0
112
0.0
122
1.0
132
0.0
 79
     0
146
0.0
  0
ENDTAB
  0
TABLE
  2
LTYPE
  5
5
330
0
100
AcDbSymbolTable
 70
     6
  0
LTYPE
  5
14
330
5
100
AcDbSymbolTableRecord
100
AcDbLinetypeTableRecord
  2
ByBlock
 70
     0
  3

 72
    65
 73
     0
 40
0.0
  0
LTYPE
  5
15
330
5
100
AcDbSymbolTableRecord
100
AcDbLinetypeTableRecord
  2
ByLayer
 70
     0
  3

 72
    65
 73
     0
 40
0.0
  0
LTYPE
  5
16
330
5
100
AcDbSymbolTableRecord
100
AcDbLinetypeTableRecord
  2
Continuous
 70
     0
  3
Solid line
 72
    65
 73
     0
 40
0.0
  0
LTYPE
  5
5E
330
5
100
AcDbSymbolTableRecord
100
AcDbLinetypeTableRecord
  2
HIDDEN
 70
     0
  3
Hidden __ __ __ __ __ __ __ __ __ __ __ __ __ __
 72
    65
 73
     2
 40
1.905
 49
1.27
 74
     0
 49
-0.635
 74
     0
  0
LTYPE
  5
5F
330
5
100
AcDbSymbolTableRecord
100
AcDbLinetypeTableRecord
  2
PHANTOM
 70
     0
  3
Phantom ______  __  __  ______  __  __  ______
 72
    65
 73
     6
 40
12.7
 49
6.35
 74
     0
 49
-1.27
 74
     0
 49
1.27
 74
     0
 49
-1.27
 74
     0
 49
1.27
 74
     0
 49
-1.27
 74
     0
  0
LTYPE
  5
60
330
5
100
AcDbSymbolTableRecord
100
AcDbLinetypeTableRecord
  2
CENTER
 70
     0
  3
Center ____ _ ____ _ ____ _ ____ _ ____ _ ____
 72
    65
 73
     4
 40
10.16
 49
6.35
 74
     0
 49
-1.27
 74
     0
 49
1.27
 74
     0
 49
-1.27
 74
     0
  0
LTYPE
  5
61
330
5
100
AcDbSymbolTableRecord
100
AcDbLinetypeTableRecord
  2
CENTERX2
 70
     0
  3
Center (2x) ________  __  ________  __  _____
 72
    65
 73
     4
 40
20.32
 49
12.7
 74
     0
 49
-2.54
 74
     0
 49
2.54
 74
     0
 49
-2.54
 74
     0
  0
LTYPE
  5
62
330
5
100
AcDbSymbolTableRecord
100
AcDbLinetypeTableRecord
  2
DOT2
 70
     0
  3
Dot (.5x) ........................................
 72
    65
 73
     2
 40
0.635
 49
0.0
 74
     0
 49
-0.635
 74
     0
  0
ENDTAB
  0
TABLE
  2
LAYER
  5
2
330
0
100
AcDbSymbolTable
 70
     1
  0
LAYER
  5
10
330
2
100
AcDbSymbolTableRecord
100
AcDbLayerTableRecord
  2
0
 70
     0
 62
     7
  6
Continuous
370
    -3
390
F
  0
ENDTAB
  0
TABLE
  2
STYLE
  5
3
330
0
100
AcDbSymbolTable
 70
     2
  0
STYLE
  5
11
330
3
100
AcDbSymbolTableRecord
100
AcDbTextStyleTableRecord
  2
Standard
 70
     0
 40
0.0
 41
1.0
 50
0.0
 71
     0
 42
3.5
  3
txt
  4

  0
STYLE
  5
109
330
3
100
AcDbSymbolTableRecord
100
AcDbTextStyleTableRecord
  2
SLDTEXTSTYLE0
 70
     0
 40
0.0
 41
0.7
 50
0.0
 71
     0
 42
3.5
  3
TXT
  4
bigfont
  0
ENDTAB
  0
TABLE
  2
VIEW
  5
6
330
0
100
AcDbSymbolTable
 70
     0
  0
ENDTAB
  0
TABLE
  2
UCS
  5
7
330
0
100
AcDbSymbolTable
 70
     0
  0
ENDTAB
  0
TABLE
  2
APPID
  5
9
330
0
100
AcDbSymbolTable
 70
     1
  0
APPID
  5
12
330
9
100
AcDbSymbolTableRecord
100
AcDbRegAppTableRecord
  2
ACAD
 70
     0
  0
ENDTAB
  0
TABLE
  2
DIMSTYLE
  5
A
330
0
100
AcDbSymbolTable
 70
     1
100
AcDbDimStyleTable
  0
DIMSTYLE
105
27
330
A
100
AcDbSymbolTableRecord
100
AcDbDimStyleTableRecord
  2
ISO-25
 70
     0
 41
2.5
 42
0.625
 43
3.75
 44
1.25
 73
     0
 74
     0
 77
     1
 78
     8
140
2.5
141
2.5
143
0.0393700787
147
0.625
171
     3
172
     1
178
     0
271
     2
272
     2
274
     3
278
    44
283
     0
284
     8
340
11
  0
ENDTAB
  0
TABLE
  2
BLOCK_RECORD
  5
1
330
0
100
AcDbSymbolTable
 70
     1
  0
BLOCK_RECORD
  5
1F
330
1
100
AcDbSymbolTableRecord
100
AcDbBlockTableRecord
  2
*Model_Space
340
22
  0
BLOCK_RECORD
  5
1B
330
1
100
AcDbSymbolTableRecord
100
AcDbBlockTableRecord
  2
*Paper_Space
340
1E
  0
BLOCK_RECORD
  5
23
330
1
100
AcDbSymbolTableRecord
100
AcDbBlockTableRecord
  2
*Paper_Space0
340
26
  0
ENDTAB
  0
ENDSEC
  0
SECTION
  2
BLOCKS
  0
BLOCK
  5
20
330
1F
100
AcDbEntity
  8
0
100
AcDbBlockBegin
  2
*Model_Space
 70
     0
 10
0.0
 20
0.0
 30
0.0
  3
*Model_Space
  1

  0
ENDBLK
  5
21
330
1F
100
AcDbEntity
  8
0
100
AcDbBlockEnd
  0
BLOCK
  5
1C
330
1B
100
AcDbEntity
 67
     1
  8
0
100
AcDbBlockBegin
  2
*Paper_Space
 70
     0
 10
0.0
 20
0.0
 30
0.0
  3
*Paper_Space
  1

  0
ENDBLK
  5
1D
330
1B
100
AcDbEntity
 67
     1
  8
0
100
AcDbBlockEnd
  0
BLOCK
  5
24
330
23
100
AcDbEntity
  8
0
100
AcDbBlockBegin
  2
*Paper_Space0
 70
     0
 10
0.0
 20
0.0
 30
0.0
  3
*Paper_Space0
  1

  0
ENDBLK
  5
25
330
23
100
AcDbEntity
  8
0
100
AcDbBlockEnd
  0
ENDSEC
  0
SECTION
  2
ENTITIES
  0
SPLINE
  5
63
330
1F
100
AcDbEntity
  8
0
  6
Continuous
 62
     7
370
    25
100
AcDbSpline
210
0.0
220
0.0
230
1.0
 70
     8
 71
     3
 72
    11
 73
     7
 74
     0
 42
0.00000001
 43
0.00000001
 40
0.0
 40
0.0
 40
0.0
 40
0.0
 40
0.2174275847138364
 40
0.453717904744205
 40
0.7060634601970602
 40
1.0
 40
1.0
 40
1.0
 40
1.0
 10
-20.06262757368709
 20
4.982789692245269
 30
0.0
 10
-20.0760453418389
 20
4.9773609844693
 30
0.0
 10
-20.10404492459742
 20
4.966032606237883
 30
0.0
 10
-20.14808655818987
 20
4.949468207421532
 30
0.0
 10
-20.19840660974001
 20
4.935812419835018
 30
0.0
 10
-20.23334467290693
 20
4.925720060777522
 30
0.0
 10
-20.25214370271935
 20
4.920289692245269
 30
0.0
  0
SPLINE
  5
64
330
1F
100
AcDbEntity
  8
0
  6
Continuous
 62
     7
370
    25
100
AcDbSpline
210
0.0
220
0.0
230
1.0
 70
     8
 71
     3
 72
    15
 73
    11
 74
     0
 42
0.00000001
 43
0.00000001
 40
0.0
 40
0.0
 40
0.0
 40
0.0
 40
0.1277495409901375
 40
0.2484983750796418
 40
0.3638421863908142
 40
0.4776852789308909
 40
0.5947449719179333
 40
0.7194738153116618
 40
0.8521050583803571
 40
1.0
 40
1.0
 40
1.0
 40
1.0
 10
-19.64125660594515
 20
5.70053162772914
 30
0.0
 10
-19.63683435213051
 20
5.66229843514004
 30
0.0
 10
-19.62823218511988
 20
5.587927238509032
 30
0.0
 10
-19.63328862361337
 20
5.477818078358116
 30
0.0
 10
-19.6600274342394
 20
5.375084588083516
 30
0.0
 10
-19.70611958620209
 20
5.281133611035868
 30
0.0
 10
-19.76675066829871
 20
5.192153837167351
 30
0.0
 10
-19.84927881183534
 20
5.114505496086334
 30
0.0
 10
-19.94786113558102
 20
5.042033711477707
 30
0.0
 10
-20.02300913607674
 20
5.003241276510503
 30
0.0
 10
-20.06262757368709
 20
4.982789692245269
 30
0.0
  0
SPLINE
  5
65
330
1F
100
AcDbEntity
  8
0
  6
Continuous
 62
     7
370
    25
100
AcDbSpline
210
0.0
220
0.0
230
1.0
 70
     8
 71
     3
 72
    15
 73
    11
 74
     0
 42
0.00000001
 43
0.00000001
 40
0.0
 40
0.0
 40
0.0
 40
0.0
 40
0.1123468368572635
 40
0.2323396366447434
 40
0.3615106711617561
 40
0.4998027709657651
 40
0.6380223716298988
 40
0.7678661609980529
 40
0.8876531631427371
 40
1.0
 40
1.0
 40
1.0
 40
1.0
 10
-18.05657918659032
 20
5.539241305148494
 30
0.0
 10
-18.11541845779758
 20
5.523560960714335
 30
0.0
 10
-18.23710141100888
 20
5.491133118238221
 30
0.0
 10
-18.432434358713
 20
5.471968902113649
 30
0.0
 10
-18.64226752021017
 20
5.46664771217137
 30
0.0
 10
-18.86129857943349
 20
5.486567949900831
 30
0.0
 10
-19.07879486022433
 20
5.519837840041265
 30
0.0
 10
-19.283725180011
 20
5.565680332064408
 30
0.0
 10
-19.47174289299688
 20
5.622476168862134
 30
0.0
 10
-19.58597243243914
 20
5.675075094118718
 30
0.0
 10
-19.64125660594515
 20
5.70053162772914
 30
0.0
  0
SPLINE
  5
67
330
1F
100
AcDbEntity
  8
0
  6
Continuous
 62
     7
370
    25
100
AcDbSpline
210
0.0
220
0.0
230
1.0
 70
     8
 71
     3
 72
    11
 73
     7
 74
     0
 42
0.00000001
 43
0.00000001
 40
0.0
 40
0.0
 40
0.0
 40
0.0
 40
0.2141423936400961
 40
0.4527186097425266
 40
0.7135340259035888
 40
1.0
 40
1.0
 40
1.0
 40
1.0
 10
-15.7400469285258
 20
6.244886466438817
 30
0.0
 10
-15.79546748724364
 20
6.219143576110219
 30
0.0
 10
-15.9126321358095
 20
6.164720510587269
 30
0.0
 10
-16.10488337714233
 20
6.097483674820037
 30
0.0
 10
-16.31680416397701
 20
6.024437604884163
 30
0.0
 10
-16.46757820369309
 20
5.98386533086723
 30
0.0
 10
-16.54649854142903
 20
5.962628401922688
 30
0.0
  0
SPLINE
  5
68
330
1F
100
AcDbEntity
  8
0
  6
Continuous
 62
     7
370
    25
100
AcDbSpline
210
0.0
220
0.0
230
1.0
 70
     8
 71
     3
 72
    23
 73
    19
 74
     0
 42
0.00000001
 43
0.00000001
 40
0.0
 40
0.0
 40
0.0
 40
0.0
 40
0.106191036465892
 40
0.20393318048947
 40
0.2913404920744598
 40
0.3711756758749572
 40
0.4410158963387101
 40
0.5037163692640786
 40
0.5571283299920671
 40
0.6040286724453636
 40
0.6454434234341886
 40
0.6857189305335654
 40
0.7264347375558025
 40
0.7699389233167325
 40
0.817493056869534
 40
0.8711081828830236
 40
0.932412877348754
 40
1.0
 40
1.0
 40
1.0
 40
1.0
 10
-16.02633725110644
 20
7.924321950309784
 30
0.0
 10
-15.97282180807742
 20
7.86961570692408
 30
0.0
 10
-15.87004877877641
 20
7.764555820726802
 30
0.0
 10
-15.72992909570205
 20
7.608123602004235
 30
0.0
 10
-15.60749459024786
 20
7.46156444163595
 30
0.0
 10
-15.50298791004195
 20
7.326304307603923
 30
0.0
 10
-15.41707981543002
 20
7.199560312392824
 30
0.0
 10
-15.34821891582441
 20
7.084461609688001
 30
0.0
 10
-15.29807202272392
 20
6.977955066054434
 30
0.0
 10
-15.26666161741712
 20
6.88041440449375
 30
0.0
 10
-15.2527573730314
 20
6.788278887821239
 30
0.0
 10
-15.26017012084254
 20
6.699190347870393
 30
0.0
 10
-15.29317642344163
 20
6.614926524749762
 30
0.0
 10
-15.34180436738634
 20
6.532809109796234
 30
0.0
 10
-15.41300933400137
 20
6.455824567546768
 30
0.0
 10
-15.50309072743766
 20
6.380725166872349
 30
0.0
 10
-15.6137658518888
 20
6.309032517762335
 30
0.0
 10
-15.6966072874871
 20
6.266952175076649
 30
0.0
 10
-15.7400469285258
 20
6.244886466438817
 30
0.0
  0
SPLINE
  5
6A
330
1F
100
AcDbEntity
  8
0
  6
Continuous
 62
     7
370
    25
100
AcDbSpline
210
0.0
220
0.0
230
1.0
 70
     8
 71
     3
 72
    23
 73
    19
 74
     0
 42
0.00000001
 43
0.00000001
 40
0.0
 40
0.0
 40
0.0
 40
0.0
 40
0.0829643812146571
 40
0.1584922070673149
 40
0.227880187491695
 40
0.2907017089901057
 40
0.3487272750899756
 40
0.4044951231731748
 40
0.4584908767092022
 40
0.5108116900617067
 40
0.5633299411472836
 40
0.6161602532492423
 40
0.6707698216302963
 40
0.7266358334180086
 40
0.7863496458778281
 40
0.8516981344862758
 40
0.9231437812987768
 40
0.9999999999999999
 40
0.9999999999999999
 40
0.9999999999999999
 40
0.9999999999999999
 10
-21.16343402529999
 20
10.70658001482591
 30
0.0
 10
-21.06549544952543
 20
10.73153456028758
 30
0.0
 10
-20.87839707303808
 20
10.77920683757906
 30
0.0
 10
-20.60655807041302
 20
10.83577065731801
 30
0.0
 10
-20.35708025899875
 20
10.8784560433779
 30
0.0
 10
-20.12717699010946
 20
10.90785854018253
 30
0.0
 10
-19.91218908355734
 20
10.92205199570167
 30
0.0
 10
-19.70772297786127
 20
10.91308064614029
 30
0.0
 10
-19.51140541939255
 20
10.88852943400524
 30
0.0
 10
-19.32383980632986
 20
10.83970184079722
 30
0.0
 10
-19.14158379742544
 20
10.77834577677072
 30
0.0
 10
-18.96479701934732
 20
10.6957001777663
 30
0.0
 10
-18.79126329383404
 20
10.59789575127511
 30
0.0
 10
-18.62229282452987
 20
10.47733649485591
 30
0.0
 10
-18.44956590347
 20
10.34042759487957
 30
0.0
 10
-18.26766934728973
 20
10.18473687914342
 30
0.0
 10
-18.07680341460025
 20
10.00771226087721
 30
0.0
 10
-17.94928003141735
 20
9.879750158000073
 30
0.0
 10
-17.88319208981612
 20
9.81343485353559
 30
0.0
  0
SPLINE
  5
6D
330
1F
100
AcDbEntity
  8
0
  6
Continuous
 62
     7
370
    25
100
AcDbSpline
210
0.0
220
0.0
230
1.0
 70
     8
 71
     3
 72
    15
 73
    11
 74
     0
 42
0.00000001
 43
0.00000001
 40
0.0
 40
0.0
 40
0.0
 40
0.0
 40
0.1495581557343662
 40
0.2790846452920539
 40
0.3909082408129582
 40
0.4949913400176911
 40
0.5973497395667029
 40
0.7101318405796102
 40
0.8407141475272634
 40
1.0
 40
1.0
 40
1.0
 40
1.0
 10
-19.05859531562258
 20
8.879967111600106
 30
0.0
 10
-19.11937164503796
 20
8.940267465581156
 30
0.0
 10
-19.23278398456408
 20
9.052791605900705
 30
0.0
 10
-19.40702606666242
 20
9.193420138590465
 30
0.0
 10
-19.57366691344448
 20
9.30134335354218
 30
0.0
 10
-19.74573004086593
 20
9.36530171599732
 30
0.0
 10
-19.9271258017763
 20
9.393911711594855
 30
0.0
 10
-20.12568016755594
 20
9.389785419533814
 30
0.0
 10
-20.35376817144472
 20
9.354300316305151
 30
0.0
 10
-20.51458143555404
 20
9.313614663450949
 30
0.0
 10
-20.60295015433225
 20
9.291257434180753
 30
0.0
  0
SPLINE
  5
6F
330
1F
100
AcDbEntity
  8
0
  6
Continuous
 62
     7
370
    25
100
AcDbSpline
210
0.0
220
0.0
230
1.0
 70
     8
 71
     3
 72
    15
 73
    11
 74
     0
 42
0.00000001
 43
0.00000001
 40
0.0
 40
0.0
 40
0.0
 40
0.0
 40
0.1112106426961182
 40
0.1973787864058507
 40
0.2706254204758524
 40
0.3456837268037939
 40
0.4454318472511185
 40
0.5875511926589227
 40
0.7721234313030287
 40
1.0
 40
1.0
 40
1.0
 40
1.0
 10
-17.88319208981612
 20
7.162225176116236
 30
0.0
 10
-17.85121587686502
 20
7.179473169065989
 30
0.0
 10
-17.794463879456
 20
7.210085238503092
 30
0.0
 10
-17.73041455298661
 20
7.272389299790118
 30
0.0
 10
-17.69820960020707
 20
7.345482706868212
 30
0.0
 10
-17.71429252307843
 20
7.428123336485149
 30
0.0
 10
-17.76593178224242
 20
7.517737608507733
 30
0.0
 10
-17.84765063213131
 20
7.630133267333109
 30
0.0
 10
-17.96592464501179
 20
7.766668236531992
 30
0.0
 10
-18.0593805819356
 20
7.863022197299704
 30
0.0
 10
-18.11101467046128
 20
7.916257434180752
 30
0.0
  0
SPLINE
  5
70
330
1F
100
AcDbEntity
  8
0
  6
Continuous
 62
     7
370
    25
100
AcDbSpline
210
0.0
220
0.0
230
1.0
 70
     8
 71
     3
 72
    11
 73
     7
 74
     0
 42
0.00000001
 43
0.00000001
 40
0.0
 40
0.0
 40
0.0
 40
0.0
 40
0.353725945130982
 40
0.637113968978846
 40
0.8515957361716059
 40
1.0
 40
1.0
 40
1.0
 40
1.0
 10
-18.35698241239676
 20
7.004967111600107
 30
0.0
 10
-18.30050225958667
 20
7.021670671625633
 30
0.0
 10
-18.19877295524614
 20
7.051756311569286
 30
0.0
 10
-18.06316817442213
 20
7.093238715651235
 30
0.0
 10
-17.96166478280702
 20
7.129182151918148
 30
0.0
 10
-17.90596913516836
 20
7.152634292561086
 30
0.0
 10
-17.88319208981612
 20
7.162225176116236
 30
0.0
  0
SPLINE
  5
72
330
1F
100
AcDbEntity
  8
0
  6
Continuous
 62
     7
370
    25
100
AcDbSpline
210
0.0
220
0.0
230
1.0
 70
     8
 71
     3
 72
    19
 73
    15
 74
     0
 42
0.00000001
 43
0.00000001
 40
0.0
 40
0.0
 40
0.0
 40
0.0
 40
0.0800889192789886
 40
0.1531491521772524
 40
0.2167927827772133
 40
0.2735220943190498
 40
0.374539799958758
 40
0.4708459283120304
 40
0.5716681471586926
 40
0.6831589561504217
 40
0.7476207237125967
 40
0.8227773722380404
 40
0.9060070334495388
 40
1.0
 40
1.0
 40
1.0
 40
1.0
 10
-20.1916598317516
 20
7.32553162772914
 30
0.0
 10
-20.1577005990621
 20
7.290930715327009
 30
0.0
 10
-20.09276243106322
 20
7.224765502378062
 30
0.0
 10
-19.99594720649867
 20
7.136177782234046
 30
0.0
 10
-19.91115467632158
 20
7.055418190324199
 30
0.0
 10
-19.80925061720031
 20
6.968399542618745
 30
0.0
 10
-19.68135938830412
 20
6.881178006288357
 30
0.0
 10
-19.51134273414771
 20
6.816033202428553
 30
0.0
 10
-19.32424437552674
 20
6.791206822516824
 30
0.0
 10
-19.15680174921614
 20
6.810893121084162
 30
0.0
 10
-19.00776400127684
 20
6.840231175908976
 30
0.0
 10
-18.87646471994925
 20
6.871230797423102
 30
0.0
 10
-18.72744561488564
 20
6.904772149557862
 30
0.0
 10
-18.62369945906408
 20
6.932038308848115
 30
0.0
 10
-18.56867596078386
 20
6.946499369664624
 30
0.0
  0
SPLINE
  5
76
330
1F
100
AcDbEntity
  8
0
  6
Continuous
 62
     7
370
    25
100
AcDbSpline
210
0.0
220
0.0
230
1.0
 70
     8
 71
     3
 72
    15
 73
    11
 74
     0
 42
0.00000001
 43
0.00000001
 40
0.0
 40
0.0
 40
0.0
 40
0.0
 40
0.1336262628333097
 40
0.2448396910697601
 40
0.3444089306436348
 40
0.4407504009567263
 40
0.5473381416314395
 40
0.6733269166272037
 40
0.8213743832475856
 40
1.0
 40
1.0
 40
1.0
 40
1.0
 10
-21.58077273497741
 20
6.125934853535591
 30
0.0
 10
-21.55677029771922
 20
6.139164625477454
 30
0.0
 10
-21.51279129839222
 20
6.163405169263443
 30
0.0
 10
-21.45774092077501
 20
6.210015423149073
 30
0.0
 10
-21.4291951039425
 20
6.26756052433451
 30
0.0
 10
-21.41712378834325
 20
6.329706751220503
 30
0.0
 10
-21.43251784942038
 20
6.396892586761528
 30
0.0
 10
-21.4658026373479
 20
6.46789388817724
 30
0.0
 10
-21.52085819744049
 20
6.543340776418598
 30
0.0
 10
-21.56610973311158
 20
6.592827182323873
 30
0.0
 10
-21.5908533801387
 20
6.619886466438818
 30
0.0
  0
SPLINE
  5
77
330
1F
100
AcDbEntity
  8
0
  6
Continuous
 62
     7
370
    25
100
AcDbSpline
210
0.0
220
0.0
230
1.0
 70
     8
 71
     3
 72
    11
 73
     7
 74
     0
 42
0.00000001
 43
0.00000001
 40
0.0
 40
0.0
 40
0.0
 40
0.0
 40
0.3450859608673684
 40
0.6277204110088828
 40
0.8455097013872858
 40
1.0
 40
1.0
 40
1.0
 40
1.0
 10
-22.04851467046128
 20
5.974725176116237
 30
0.0
 10
-21.99405958755148
 20
5.990097957519572
 30
0.0
 10
-21.8950043639204
 20
6.018061449968227
 30
0.0
 10
-21.76184371445316
 20
6.056852862585114
 30
0.0
 10
-21.66080314196666
 20
6.093426524840093
 30
0.0
 10
-21.60424393514435
 20
6.116400858662778
 30
0.0
 10
-21.58077273497741
 20
6.125934853535591
 30
0.0
  0
SPLINE
  5
79
330
1F
100
AcDbEntity
  8
0
  6
Continuous
 62
     7
370
    25
100
AcDbSpline
210
0.0
220
0.0
230
1.0
 70
     8
 71
     3
 72
    19
 73
    15
 74
     0
 42
0.00000001
 43
0.00000001
 40
0.0
 40
0.0
 40
0.0
 40
0.0
 40
0.0870929926857245
 40
0.1668294051513259
 40
0.2367888495951938
 40
0.2979438862926036
 40
0.4065796712401956
 40
0.5047707119628873
 40
0.6043611880706362
 40
0.7102593226488803
 40
0.7702440864736234
 40
0.8390652703114925
 40
0.9157196175912781
 40
1.0
 40
1.0
 40
1.0
 40
1.0
 10
-23.77432112207418
 20
6.327547756761398
 30
0.0
 10
-23.73895653758172
 20
6.291669290111707
 30
0.0
 10
-23.67121454810167
 20
6.222942942970224
 30
0.0
 10
-23.57110144535493
 20
6.129461524037286
 30
0.0
 10
-23.48042591194821
 20
6.047874060588619
 30
0.0
 10
-23.37279054930421
 20
5.960386461724859
 30
0.0
 10
-23.24233170422784
 20
5.875306957271498
 30
0.0
 10
-23.07571752139195
 20
5.810030336190623
 30
0.0
 10
-22.89966455888825
 20
5.789807607968256
 30
0.0
 10
-22.74593738752517
 20
5.799971026944349
 30
0.0
 10
-22.61188587278262
 20
5.821598962915046
 30
0.0
 10
-22.49549499104407
 20
5.845788560201407
 30
0.0
 10
-22.36671832609583
 20
5.878671676700122
 30
0.0
 10
-22.27696793166423
 20
5.903339217246664
 30
0.0
 10
-22.22996628336451
 20
5.916257434180753
 30
0.0
  0
SPLINE
  5
7B
330
1F
100
AcDbEntity
  8
0
  6
Continuous
 62
     7
370
    25
100
AcDbSpline
210
0.0
220
0.0
230
1.0
 70
     8
 71
     3
 72
    15
 73
    11
 74
     0
 42
0.00000001
 43
0.00000001
 40
0.0
 40
0.0
 40
0.0
 40
0.0
 40
0.1170643836695609
 40
0.2101072870225184
 40
0.2883965633803258
 40
0.3647173585410201
 40
0.4649554683495439
 40
0.6023987307055996
 40
0.7803565855736173
 40
1.0
 40
1.0
 40
1.0
 40
1.0
 10
-24.92351467046128
 20
8.059402595471077
 30
0.0
 10
-24.95751493177202
 20
8.04155220422412
 30
0.0
 10
-25.01853863888194
 20
8.00951430200635
 30
0.0
 10
-25.08810529095075
 20
7.943799367067626
 30
0.0
 10
-25.12410647581454
 20
7.867670661668337
 30
0.0
 10
-25.11403489415754
 20
7.781542948932517
 30
0.0
 10
-25.06388334781212
 20
7.690951668464906
 30
0.0
 10
-24.98619475962074
 20
7.579514846034577
 30
0.0
 10
-24.87096174855426
 20
7.447529774787397
 30
0.0
 10
-24.78143750975675
 20
7.353359658458509
 30
0.0
 10
-24.73198241239676
 20
7.301338079342043
 30
0.0
  0
SPLINE
  5
7C
330
1F
100
AcDbEntity
  8
0
  6
Continuous
 62
     7
370
    25
100
AcDbSpline
210
0.0
220
0.0
230
1.0
 70
     8
 71
     3
 72
    11
 73
     7
 74
     0
 42
0.00000001
 43
0.00000001
 40
0.0
 40
0.0
 40
0.0
 40
0.0
 40
0.301668696518461
 40
0.5660449939261362
 40
0.8003180336750533
 40
1.0
 40
1.0
 40
1.0
 40
1.0
 10
-24.48399854142902
 20
8.21061227289043
 30
0.0
 10
-24.52918726529619
 20
8.198357022189748
 30
0.0
 10
-24.61397846578243
 20
8.175361519545655
 30
0.0
 10
-24.73144585887348
 20
8.135179135932319
 30
0.0
 10
-24.83469326116961
 20
8.101769658095964
 30
0.0
 10
-24.89552382644224
 20
8.072753991839761
 30
0.0
 10
-24.92351467046128
 20
8.059402595471077
 30
0.0
  0
SPLINE
  5
7F
330
1F
100
AcDbEntity
  8
0
  6
Continuous
 62
     7
370
    25
100
AcDbSpline
210
0.0
220
0.0
230
1.0
 70
     8
 71
     3
 72
    11
 73
     7
 74
     0
 42
0.00000001
 43
0.00000001
 40
0.0
 40
0.0
 40
0.0
 40
0.0
 40
0.2150549533778826
 40
0.4545324225022758
 40
0.7150027354080264
 40
1.0
 40
1.0
 40
1.0
 40
1.0
 10
-27.11706305755806
 20
8.96262840192269
 30
0.0
 10
-27.06215767285218
 20
8.987295386387206
 30
0.0
 10
-26.94611162449666
 20
9.0394306384629
 30
0.0
 10
-26.75930386270446
 20
9.111461463661035
 30
0.0
 10
-26.55047143877061
 20
9.179884778930575
 30
0.0
 10
-26.40352002121429
 20
9.221255079343035
 30
0.0
 10
-26.3267404769129
 20
9.24287033740656
 30
0.0
  0
SPLINE
  5
80
330
1F
100
AcDbEntity
  8
0
  6
Continuous
 62
     7
370
    25
100
AcDbSpline
210
0.0
220
0.0
230
1.0
 70
     8
 71
     3
 72
    23
 73
    19
 74
     0
 42
0.00000001
 43
0.00000001
 40
0.0
 40
0.0
 40
0.0
 40
0.0
 40
0.1073044995359987
 40
0.2060715160100701
 40
0.2943953344561482
 40
0.3743210812728198
 40
0.4448936093670715
 40
0.5074403422287823
 40
0.5605581667917237
 40
0.6070516367027406
 40
0.647847531773436
 40
0.6876071013257214
 40
0.7284356374698373
 40
0.7715906143265192
 40
0.8189452352092863
 40
0.8731225410903233
 40
0.9329774287121088
 40
1.0
 40
1.0
 40
1.0
 40
1.0
 10
-26.82472434788064
 20
7.303354208374301
 30
0.0
 10
-26.87822662686412
 20
7.358070407983826
 30
0.0
 10
-26.9809743754468
 20
7.463149414480299
 30
0.0
 10
-27.12126601909177
 20
7.619451576077128
 30
0.0
 10
-27.24280014232951
 20
7.766024917948752
 30
0.0
 10
-27.34878559959004
 20
7.899497389831992
 30
0.0
 10
-27.43328134349473
 20
8.025851848934803
 30
0.0
 10
-27.50289871511617
 20
8.139118977700067
 30
0.0
 10
-27.55266303940201
 20
8.243699062898349
 30
0.0
 10
-27.58509951997666
 20
8.338947872825115
 30
0.0
 10
-27.59584271604346
 20
8.429566484940011
 30
0.0
 10
-27.58812381642933
 20
8.51652458105434
 30
0.0
 10
-27.55889013938523
 20
8.600687351373823
 30
0.0
 10
-27.50893399577482
 20
8.680778605464187
 30
0.0
 10
-27.4374511936127
 20
8.755793632389896
 30
0.0
 10
-27.34910816758494
 20
8.829810919732937
 30
0.0
 10
-27.24098099950913
 20
8.901064037355688
 30
0.0
 10
-27.15989594979537
 20
8.941348353596851
 30
0.0
 10
-27.11706305755806
 20
8.962628401922688
 30
0.0
  0
SPLINE
  5
82
330
1F
100
AcDbEntity
  8
0
  6
Continuous
 62
     7
370
    25
100
AcDbSpline
210
0.0
220
0.0
230
1.0
 70
     8
 71
     3
 72
    23
 73
    19
 74
     0
 42
0.00000001
 43
0.00000001
 40
0.0
 40
0.0
 40
0.0
 40
0.0
 40
0.0790800132239575
 40
0.1518531130231359
 40
0.2188566040580104
 40
0.2792422343159803
 40
0.3358678050977851
 40
0.3902329725589258
 40
0.4438779643711311
 40
0.4962028419440379
 40
0.5482803470308185
 40
0.6023847415907556
 40
0.6574802033763724
 40
0.7149973581721301
 40
0.7766626792699782
 40
0.8446840031246942
 40
0.9188381992426008
 40
0.9999999999999999
 40
0.9999999999999999
 40
0.9999999999999999
 40
0.9999999999999999
 10
-21.71383725110644
 20
4.511015498696881
 30
0.0
 10
-21.80643441305853
 20
4.486274421748703
 30
0.0
 10
-21.98424378266131
 20
4.438765457081662
 30
0.0
 10
-22.24281768202456
 20
4.379022961994743
 30
0.0
 10
-22.48191033814576
 20
4.337691864278895
 30
0.0
 10
-22.70292410702143
 20
4.306498811903094
 30
0.0
 10
-22.91067591717114
 20
4.296922233851681
 30
0.0
 10
-23.11035849987882
 20
4.302117731513517
 30
0.0
 10
-23.30355156216428
 20
4.326102594300297
 30
0.0
 10
-23.49061755458804
 20
4.368740120782078
 30
0.0
 10
-23.67300859316653
 20
4.430212979357045
 30
0.0
 10
-23.85104924755286
 20
4.511447849901248
 30
0.0
 10
-24.02864391713013
 20
4.60837716349703
 30
0.0
 10
-24.20302296201094
 20
4.728042455718947
 30
0.0
 10
-24.38248393738576
 20
4.867017256458314
 30
0.0
 10
-24.56911184805517
 20
5.029044282380999
 30
0.0
 10
-24.76762427510755
 20
5.213149532023095
 30
0.0
 10
-24.90046729696009
 20
5.346548551350337
 30
0.0
 10
-24.96988563820322
 20
5.416257434180753
 30
0.0
  0
SPLINE
  5
84
330
1F
100
AcDbEntity
  8
0
  6
Continuous
 62
     7
370
    25
100
AcDbSpline
210
0.0
220
0.0
230
1.0
 70
     8
 71
     3
 72
    11
 73
     7
 74
     0
 42
0.00000001
 43
0.00000001
 40
0.0
 40
0.0
 40
0.0
 40
0.0
 40
0.2174275847138364
 40
0.4537179047442063
 40
0.7060634601970602
 40
1.0
 40
1.0
 40
1.0
 40
1.0
 10
-25.49196526076253
 20
10.50183465637835
 30
0.0
 10
-25.50538302891434
 20
10.49640594860238
 30
0.0
 10
-25.53338261167287
 20
10.48507757037096
 30
0.0
 10
-25.57742424526533
 20
10.46851317155462
 30
0.0
 10
-25.62774429681544
 20
10.45485738396809
 30
0.0
 10
-25.66268235998237
 20
10.4447650249106
 30
0.0
 10
-25.68148138979479
 20
10.43933465637835
 30
0.0
  0
SPLINE
  5
85
330
1F
100
AcDbEntity
  8
0
  6
Continuous
 62
     7
370
    25
100
AcDbSpline
210
0.0
220
0.0
230
1.0
 70
     8
 71
     3
 72
    15
 73
    11
 74
     0
 42
0.00000001
 43
0.00000001
 40
0.0
 40
0.0
 40
0.0
 40
0.0
 40
0.1277495409901376
 40
0.2484983750796419
 40
0.3638421863908134
 40
0.477685278930891
 40
0.5947449719179343
 40
0.7194738153116629
 40
0.8521050583803571
 40
1.0
 40
1.0
 40
1.0
 40
1.0
 10
-25.07059429302059
 20
11.21957659186222
 30
0.0
 10
-25.06617203920595
 20
11.18134339927312
 30
0.0
 10
-25.05756987219532
 20
11.10697220264211
 30
0.0
 10
-25.06262631068881
 20
10.9968630424912
 30
0.0
 10
-25.08936512131486
 20
10.8941295522166
 30
0.0
 10
-25.13545727327753
 20
10.80017857516895
 30
0.0
 10
-25.19608835537415
 20
10.71119880130043
 30
0.0
 10
-25.27861649891077
 20
10.63355046021941
 30
0.0
 10
-25.37719882265647
 20
10.56107867561079
 30
0.0
 10
-25.45234682315218
 20
10.52228624064359
 30
0.0
 10
-25.49196526076253
 20
10.50183465637835
 30
0.0
  0
SPLINE
  5
86
330
1F
100
AcDbEntity
  8
0
  6
Continuous
 62
     7
370
    25
100
AcDbSpline
210
0.0
220
0.0
230
1.0
 70
     8
 71
     3
 72
    15
 73
    11
 74
     0
 42
0.00000001
 43
0.00000001
 40
0.0
 40
0.0
 40
0.0
 40
0.0
 40
0.1123468368572635
 40
0.2323396366447434
 40
0.3615106711617561
 40
0.499802770965765
 40
0.6380223716298988
 40
0.7678661609980529
 40
0.8876531631427372
 40
1.0
 40
1.0
 40
1.0
 40
1.0
 10
-23.48591687366576
 20
11.05828626928157
 30
0.0
 10
-23.54475614487303
 20
11.04260592484741
 30
0.0
 10
-23.66643909808432
 20
11.0101780823713
 30
0.0
 10
-23.86177204578845
 20
10.99101386624673
 30
0.0
 10
-24.07160520728561
 20
10.98569267630445
 30
0.0
 10
-24.29063626650893
 20
11.00561291403391
 30
0.0
 10
-24.50813254729979
 20
11.03888280417435
 30
0.0
 10
-24.71306286708644
 20
11.08472529619749
 30
0.0
 10
-24.90108058007232
 20
11.14152113299522
 30
0.0
 10
-25.01531011951458
 20
11.1941200582518
 30
0.0
 10
-25.07059429302059
 20
11.21957659186222
 30
0.0
  0
SPLINE
  5
88
330
1F
100
AcDbEntity
  8
0
  6
Continuous
 62
     7
370
    25
100
AcDbSpline
210
0.0
220
0.0
230
1.0
 70
     8
 71
     3
 72
    11
 73
     7
 74
     0
 42
0.00000001
 43
0.00000001
 40
0.0
 40
0.0
 40
0.0
 40
0.0
 40
0.2141423936400961
 40
0.4527186097425266
 40
0.7135340259035888
 40
1.0
 40
1.0
 40
1.0
 40
1.0
 10
-21.16938461560124
 20
11.7639314305719
 30
0.0
 10
-21.22480517431908
 20
11.7381885402433
 30
0.0
 10
-21.34196982288494
 20
11.68376547472035
 30
0.0
 10
-21.53422106421777
 20
11.61652863895312
 30
0.0
 10
-21.74614185105245
 20
11.54348256901724
 30
0.0
 10
-21.89691589076853
 20
11.50291029500031
 30
0.0
 10
-21.97583622850447
 20
11.48167336605577
 30
0.0
  0
SPLINE
  5
89
330
1F
100
AcDbEntity
  8
0
  6
Continuous
 62
     7
370
    25
100
AcDbSpline
210
0.0
220
0.0
230
1.0
 70
     8
 71
     3
 72
    23
 73
    19
 74
     0
 42
0.00000001
 43
0.00000001
 40
0.0
 40
0.0
 40
0.0
 40
0.0
 40
0.1061910364658923
 40
0.2039331804894701
 40
0.2913404920744598
 40
0.3711756758749578
 40
0.4410158963387106
 40
0.503716369264079
 40
0.5571283299920669
 40
0.6040286724453636
 40
0.6454434234341883
 40
0.6857189305335659
 40
0.7264347375558027
 40
0.7699389233167315
 40
0.8174930568695339
 40
0.8711081828830227
 40
0.9324128773487547
 40
1.0
 40
1.0
 40
1.0
 40
1.0
 10
-21.45567493818189
 20
13.44336691444286
 30
0.0
 10
-21.40215949515286
 20
13.38866067105716
 30
0.0
 10
-21.29938646585185
 20
13.28360078485988
 30
0.0
 10
-21.1592667827775
 20
13.12716856613731
 30
0.0
 10
-21.03683227732331
 20
12.98060940576903
 30
0.0
 10
-20.93232559711741
 20
12.84534927173701
 30
0.0
 10
-20.84641750250546
 20
12.7186052765259
 30
0.0
 10
-20.77755660289986
 20
12.60350657382108
 30
0.0
 10
-20.72740970979937
 20
12.49700003018751
 30
0.0
 10
-20.69599930449256
 20
12.39945936862683
 30
0.0
 10
-20.68209506010685
 20
12.30732385195432
 30
0.0
 10
-20.68950780791798
 20
12.21823531200347
 30
0.0
 10
-20.72251411051708
 20
12.13397148888285
 30
0.0
 10
-20.77114205446177
 20
12.0518540739293
 30
0.0
 10
-20.84234702107683
 20
11.97486953167985
 30
0.0
 10
-20.9324284145131
 20
11.89977013100543
 30
0.0
 10
-21.04310353896424
 20
11.82807748189542
 30
0.0
 10
-21.12594497456254
 20
11.78599713920973
 30
0.0
 10
-21.16938461560124
 20
11.7639314305719
 30
0.0
  0
SPLINE
  5
8B
330
1F
100
AcDbEntity
  8
0
  6
Continuous
 62
     7
370
    25
100
AcDbSpline
210
0.0
220
0.0
230
1.0
 70
     8
 71
     3
 72
    23
 73
    19
 74
     0
 42
0.00000001
 43
0.00000001
 40
0.0
 40
0.0
 40
0.0
 40
0.0
 40
0.082964381214657
 40
0.1584922070673149
 40
0.227880187491695
 40
0.2907017089901056
 40
0.3487272750899756
 40
0.4044951231731747
 40
0.4584908767092022
 40
0.5108116900617067
 40
0.5633299411472836
 40
0.6161602532492424
 40
0.6707698216302961
 40
0.7266358334180086
 40
0.7863496458778284
 40
0.8516981344862756
 40
0.9231437812987769
 40
1.0
 40
1.0
 40
1.0
 40
1.0
 10
-26.59277171237544
 20
16.22562497895899
 30
0.0
 10
-26.49483313660086
 20
16.25057952442066
 30
0.0
 10
-26.30773476011351
 20
16.29825180171214
 30
0.0
 10
-26.03589575748845
 20
16.35481562145108
 30
0.0
 10
-25.78641794607421
 20
16.39750100751098
 30
0.0
 10
-25.5565146771849
 20
16.4269035043156
 30
0.0
 10
-25.3415267706328
 20
16.44109695983475
 30
0.0
 10
-25.1370606649367
 20
16.43212561027336
 30
0.0
 10
-24.940743106468
 20
16.40757439813833
 30
0.0
 10
-24.75317749340531
 20
16.3587468049303
 30
0.0
 10
-24.57092148450087
 20
16.29739074090379
 30
0.0
 10
-24.39413470642277
 20
16.21474514189939
 30
0.0
 10
-24.22060098090948
 20
16.11694071540818
 30
0.0
 10
-24.05163051160532
 20
15.99638145898899
 30
0.0
 10
-23.87890359054544
 20
15.85947255901265
 30
0.0
 10
-23.69700703436517
 20
15.7037818432765
 30
0.0
 10
-23.50614110167569
 20
15.52675722501028
 30
0.0
 10
-23.37861771849279
 20
15.39879512213315
 30
0.0
 10
-23.31252977689156
 20
15.33247981766867
 30
0.0
  0
SPLINE
  5
8E
330
1F
100
AcDbEntity
  8
0
  6
Continuous
 62
     7
370
    25
100
AcDbSpline
210
0.0
220
0.0
230
1.0
 70
     8
 71
     3
 72
    15
 73
    11
 74
     0
 42
0.00000001
 43
0.00000001
 40
0.0
 40
0.0
 40
0.0
 40
0.0
 40
0.1495581557343662
 40
0.2790846452920539
 40
0.3909082408129582
 40
0.4949913400176911
 40
0.5973497395667029
 40
0.7101318405796102
 40
0.8407141475272634
 40
1.0
 40
1.0
 40
1.0
 40
1.0
 10
-24.48793300269802
 20
14.39901207573319
 30
0.0
 10
-24.5487093321134
 20
14.45931242971424
 30
0.0
 10
-24.66212167163952
 20
14.57183657003379
 30
0.0
 10
-24.83636375373787
 20
14.71246510272354
 30
0.0
 10
-25.00300460051993
 20
14.82038831767526
 30
0.0
 10
-25.17506772794137
 20
14.8843466801304
 30
0.0
 10
-25.35646348885174
 20
14.91295667572794
 30
0.0
 10
-25.55501785463138
 20
14.90883038366689
 30
0.0
 10
-25.78310585852017
 20
14.87334528043823
 30
0.0
 10
-25.94391912262949
 20
14.83265962758403
 30
0.0
 10
-26.03228784140769
 20
14.81030239831383
 30
0.0
  0
SPLINE
  5
90
330
1F
100
AcDbEntity
  8
0
  6
Continuous
 62
     7
370
    25
100
AcDbSpline
210
0.0
220
0.0
230
1.0
 70
     8
 71
     3
 72
    15
 73
    11
 74
     0
 42
0.00000001
 43
0.00000001
 40
0.0
 40
0.0
 40
0.0
 40
0.0
 40
0.1112106426961178
 40
0.1973787864058509
 40
0.2706254204758534
 40
0.3456837268037941
 40
0.4454318472511186
 40
0.5875511926589221
 40
0.7721234313030287
 40
1.0
 40
1.0
 40
1.0
 40
1.0
 10
-23.31252977689156
 20
12.68127014024932
 30
0.0
 10
-23.28055356394046
 20
12.69851813319906
 30
0.0
 10
-23.22380156653145
 20
12.72913020263617
 30
0.0
 10
-23.15975224006206
 20
12.7914342639232
 30
0.0
 10
-23.1275472872825
 20
12.86452767100129
 30
0.0
 10
-23.14363021015389
 20
12.94716830061823
 30
0.0
 10
-23.19526946931786
 20
13.03678257264082
 30
0.0
 10
-23.27698831920677
 20
13.14917823146619
 30
0.0
 10
-23.39526233208723
 20
13.28571320066507
 30
0.0
 10
-23.48871826901104
 20
13.38206716143278
 30
0.0
 10
-23.54035235753673
 20
13.43530239831383
 30
0.0
  0
SPLINE
  5
91
330
1F
100
AcDbEntity
  8
0
  6
Continuous
 62
     7
370
    25
100
AcDbSpline
210
0.0
220
0.0
230
1.0
 70
     8
 71
     3
 72
    11
 73
     7
 74
     0
 42
0.00000001
 43
0.00000001
 40
0.0
 40
0.0
 40
0.0
 40
0.0
 40
0.353725945130982
 40
0.637113968978846
 40
0.8515957361716066
 40
1.0
 40
1.0
 40
1.0
 40
1.0
 10
-23.78632009947221
 20
12.52401207573319
 30
0.0
 10
-23.72983994666211
 20
12.54071563575871
 30
0.0
 10
-23.62811064232159
 20
12.57080127570237
 30
0.0
 10
-23.49250586149758
 20
12.61228367978431
 30
0.0
 10
-23.39100246988246
 20
12.64822711605123
 30
0.0
 10
-23.3353068222438
 20
12.67167925669416
 30
0.0
 10
-23.31252977689156
 20
12.68127014024932
 30
0.0
  0
SPLINE
  5
93
330
1F
100
AcDbEntity
  8
0
  6
Continuous
 62
     7
370
    25
100
AcDbSpline
210
0.0
220
0.0
230
1.0
 70
     8
 71
     3
 72
    19
 73
    15
 74
     0
 42
0.00000001
 43
0.00000001
 40
0.0
 40
0.0
 40
0.0
 40
0.0
 40
0.0800889192789886
 40
0.1531491521772527
 40
0.216792782777213
 40
0.2735220943190498
 40
0.374539799958758
 40
0.4708459283120304
 40
0.5716681471586926
 40
0.6831589561504217
 40
0.7476207237125967
 40
0.8227773722380404
 40
0.9060070334495388
 40
1.0
 40
1.0
 40
1.0
 40
1.0
 10
-25.62099751882705
 20
12.84457659186222
 30
0.0
 10
-25.58703828613755
 20
12.80997567946009
 30
0.0
 10
-25.52210011813867
 20
12.74381046651115
 30
0.0
 10
-25.4252848935741
 20
12.65522274636712
 30
0.0
 10
-25.34049236339703
 20
12.57446315445729
 30
0.0
 10
-25.23858830427575
 20
12.48744450675182
 30
0.0
 10
-25.11069707537957
 20
12.40022297042144
 30
0.0
 10
-24.94068042122316
 20
12.33507816656163
 30
0.0
 10
-24.75358206260219
 20
12.3102517866499
 30
0.0
 10
-24.58613943629159
 20
12.32993808521725
 30
0.0
 10
-24.43710168835228
 20
12.35927614004205
 30
0.0
 10
-24.30580240702469
 20
12.39027576155619
 30
0.0
 10
-24.15678330196109
 20
12.42381711369094
 30
0.0
 10
-24.05303714613953
 20
12.45108327298119
 30
0.0
 10
-23.99801364785931
 20
12.4655443337977
 30
0.0
  0
SPLINE
  5
97
330
1F
100
AcDbEntity
  8
0
  6
Continuous
 62
     7
370
    25
100
AcDbSpline
210
0.0
220
0.0
230
1.0
 70
     8
 71
     3
 72
    15
 73
    11
 74
     0
 42
0.00000001
 43
0.00000001
 40
0.0
 40
0.0
 40
0.0
 40
0.0
 40
0.1336262628333089
 40
0.2448396910697592
 40
0.344408930643635
 40
0.4407504009567265
 40
0.5473381416314397
 40
0.6733269166272037
 40
0.8213743832475868
 40
1.0
 40
1.0
 40
1.0
 40
1.0
 10
-27.01011042205285
 20
11.64497981766867
 30
0.0
 10
-26.98610798479467
 20
11.65820958961053
 30
0.0
 10
-26.94212898546767
 20
11.68245013339653
 30
0.0
 10
-26.88707860785046
 20
11.72906038728216
 30
0.0
 10
-26.85853279101794
 20
11.78660548846759
 30
0.0
 10
-26.8464614754187
 20
11.84875171535358
 30
0.0
 10
-26.86185553649581
 20
11.91593755089461
 30
0.0
 10
-26.89514032442335
 20
11.98693885231032
 30
0.0
 10
-26.95019588451592
 20
12.06238574055168
 30
0.0
 10
-26.99544742018701
 20
12.11187214645695
 30
0.0
 10
-27.02019106721415
 20
12.1389314305719
 30
0.0
  0
SPLINE
  5
98
330
1F
100
AcDbEntity
  8
0
  6
Continuous
 62
     7
370
    25
100
AcDbSpline
210
0.0
220
0.0
230
1.0
 70
     8
 71
     3
 72
    11
 73
     7
 74
     0
 42
0.00000001
 43
0.00000001
 40
0.0
 40
0.0
 40
0.0
 40
0.0
 40
0.3450859608673684
 40
0.6277204110088828
 40
0.8455097013872864
 40
1.0
 40
1.0
 40
1.0
 40
1.0
 10
-27.47785235753673
 20
11.49377014024932
 30
0.0
 10
-27.42339727462693
 20
11.50914292165265
 30
0.0
 10
-27.32434205099585
 20
11.53710641410131
 30
0.0
 10
-27.1911814015286
 20
11.57589782671819
 30
0.0
 10
-27.09014082904212
 20
11.61247148897318
 30
0.0
 10
-27.0335816222198
 20
11.63544582279586
 30
0.0
 10
-27.01011042205285
 20
11.64497981766867
 30
0.0
  0
SPLINE
  5
9A
330
1F
100
AcDbEntity
  8
0
  6
Continuous
 62
     7
370
    25
100
AcDbSpline
210
0.0
220
0.0
230
1.0
 70
     8
 71
     3
 72
    19
 73
    15
 74
     0
 42
0.00000001
 43
0.00000001
 40
0.0
 40
0.0
 40
0.0
 40
0.0
 40
0.0870929926857246
 40
0.166829405151326
 40
0.2367888495951939
 40
0.2979438862926037
 40
0.4065796712401954
 40
0.5047707119628873
 40
0.6043611880706363
 40
0.7102593226488804
 40
0.7702440864736235
 40
0.8390652703114927
 40
0.9157196175912784
 40
0.9999999999999999
 40
0.9999999999999999
 40
0.9999999999999999
 40
0.9999999999999999
 10
-29.20365880914963
 20
11.84659272089448
 30
0.0
 10
-29.16829422465717
 20
11.81071425424479
 30
0.0
 10
-29.10055223517713
 20
11.74198790710331
 30
0.0
 10
-29.00043913243035
 20
11.64850648817036
 30
0.0
 10
-28.90976359902367
 20
11.5669190247217
 30
0.0
 10
-28.80212823637965
 20
11.47943142585794
 30
0.0
 10
-28.67166939130328
 20
11.39435192140458
 30
0.0
 10
-28.50505520846738
 20
11.3290753003237
 30
0.0
 10
-28.32900224596372
 20
11.30885257210134
 30
0.0
 10
-28.1752750746006
 20
11.31901599107743
 30
0.0
 10
-28.04122355985808
 20
11.34064392704813
 30
0.0
 10
-27.9248326781195
 20
11.36483352433449
 30
0.0
 10
-27.79605601317128
 20
11.3977166408332
 30
0.0
 10
-27.70630561873967
 20
11.42238418137974
 30
0.0
 10
-27.65930397043995
 20
11.43530239831383
 30
0.0
  0
SPLINE
  5
9C
330
1F
100
AcDbEntity
  8
0
  6
Continuous
 62
     7
370
    25
100
AcDbSpline
210
0.0
220
0.0
230
1.0
 70
     8
 71
     3
 72
    15
 73
    11
 74
     0
 42
0.00000001
 43
0.00000001
 40
0.0
 40
0.0
 40
0.0
 40
0.0
 40
0.1170643836695609
 40
0.2101072870225184
 40
0.2883965633803258
 40
0.3647173585410193
 40
0.4649554683495438
 40
0.6023987307055996
 40
0.7803565855736173
 40
1.0
 40
1.0
 40
1.0
 40
1.0
 10
-30.35285235753673
 20
13.57844755960416
 30
0.0
 10
-30.38685261884746
 20
13.56059716835719
 30
0.0
 10
-30.44787632595738
 20
13.52855926613943
 30
0.0
 10
-30.5174429780262
 20
13.46284433120071
 30
0.0
 10
-30.55344416288998
 20
13.38671562580142
 30
0.0
 10
-30.54337258123298
 20
13.3005879130656
 30
0.0
 10
-30.49322103488756
 20
13.20999663259799
 30
0.0
 10
-30.41553244669618
 20
13.09855981016765
 30
0.0
 10
-30.3002994356297
 20
12.96657473892048
 30
0.0
 10
-30.21077519683219
 20
12.87240462259159
 30
0.0
 10
-30.16132009947221
 20
12.82038304347512
 30
0.0
  0
SPLINE
  5
9D
330
1F
100
AcDbEntity
  8
0
  6
Continuous
 62
     7
370
    25
100
AcDbSpline
210
0.0
220
0.0
230
1.0
 70
     8
 71
     3
 72
    11
 73
     7
 74
     0
 42
0.00000001
 43
0.00000001
 40
0.0
 40
0.0
 40
0.0
 40
0.0
 40
0.301668696518461
 40
0.5660449939261362
 40
0.8003180336750533
 40
1.0
 40
1.0
 40
1.0
 40
1.0
 10
-29.91333622850447
 20
13.72965723702351
 30
0.0
 10
-29.95852495237164
 20
13.71740198632283
 30
0.0
 10
-30.04331615285788
 20
13.69440648367874
 30
0.0
 10
-30.16078354594893
 20
13.6542241000654
 30
0.0
 10
-30.26403094824505
 20
13.62081462222904
 30
0.0
 10
-30.32486151351769
 20
13.59179895597284
 30
0.0
 10
-30.35285235753673
 20
13.57844755960416
 30
0.0
  0
SPLINE
  5
A0
330
1F
100
AcDbEntity
  8
0
  6
Continuous
 62
     7
370
    25
100
AcDbSpline
210
0.0
220
0.0
230
1.0
 70
     8
 71
     3
 72
    11
 73
     7
 74
     0
 42
0.00000001
 43
0.00000001
 40
0.0
 40
0.0
 40
0.0
 40
0.0
 40
0.2150549533778885
 40
0.4545324225022798
 40
0.7150027354080245
 40
1.0
 40
1.0
 40
1.0
 40
1.0
 10
-32.54640074463351
 20
14.48167336605577
 30
0.0
 10
-32.49149535992763
 20
14.50634035052029
 30
0.0
 10
-32.3754493115721
 20
14.55847560259598
 30
0.0
 10
-32.18864154977988
 20
14.6305064277941
 30
0.0
 10
-31.97980912584606
 20
14.69892974306366
 30
0.0
 10
-31.83285770828974
 20
14.74030004347612
 30
0.0
 10
-31.75607816398834
 20
14.76191530153964
 30
0.0
  0
SPLINE
  5
A1
330
1F
100
AcDbEntity
  8
0
  6
Continuous
 62
     7
370
    25
100
AcDbSpline
210
0.0
220
0.0
230
1.0
 70
     8
 71
     3
 72
    23
 73
    19
 74
     0
 42
0.00000001
 43
0.00000001
 40
0.0
 40
0.0
 40
0.0
 40
0.0
 40
0.1073044995359984
 40
0.2060715160100709
 40
0.2943953344561503
 40
0.3743210812728209
 40
0.4448936093670726
 40
0.5074403422287834
 40
0.5605581667917242
 40
0.6070516367027412
 40
0.6478475317734368
 40
0.6876071013257221
 40
0.7284356374698379
 40
0.7715906143265207
 40
0.8189452352092876
 40
0.8731225410903247
 40
0.9329774287121088
 40
1.0
 40
1.0
 40
1.0
 40
1.0
 10
-32.25406203495608
 20
12.82239917250738
 30
0.0
 10
-32.30756431393954
 20
12.8771153721169
 30
0.0
 10
-32.41031206252224
 20
12.98219437861337
 30
0.0
 10
-32.55060370616722
 20
13.13849654021021
 30
0.0
 10
-32.67213782940495
 20
13.28506988208183
 30
0.0
 10
-32.77812328666548
 20
13.41854235396507
 30
0.0
 10
-32.86261903057017
 20
13.54489681306788
 30
0.0
 10
-32.93223640219162
 20
13.65816394183314
 30
0.0
 10
-32.98200072647746
 20
13.76274402703144
 30
0.0
 10
-33.0144372070521
 20
13.8579928369582
 30
0.0
 10
-33.02518040311891
 20
13.94861144907309
 30
0.0
 10
-33.01746150350478
 20
14.03556954518742
 30
0.0
 10
-32.98822782646069
 20
14.11973231550691
 30
0.0
 10
-32.93827168285026
 20
14.19982356959726
 30
0.0
 10
-32.86678888068815
 20
14.27483859652298
 30
0.0
 10
-32.77844585466038
 20
14.34885588386602
 30
0.0
 10
-32.67031868658459
 20
14.42010900148877
 30
0.0
 10
-32.58923363687082
 20
14.46039331772993
 30
0.0
 10
-32.5464007446335
 20
14.48167336605577
 30
0.0
  0
SPLINE
  5
A3
330
1F
100
AcDbEntity
  8
0
  6
Continuous
 62
     7
370
    25
100
AcDbSpline
210
0.0
220
0.0
230
1.0
 70
     8
 71
     3
 72
    23
 73
    19
 74
     0
 42
0.00000001
 43
0.00000001
 40
0.0
 40
0.0
 40
0.0
 40
0.0
 40
0.0790800132239575
 40
0.1518531130231359
 40
0.2188566040580104
 40
0.2792422343159803
 40
0.3358678050977851
 40
0.3902329725589258
 40
0.4438779643711311
 40
0.496202841944038
 40
0.5482803470308185
 40
0.6023847415907557
 40
0.6574802033763724
 40
0.71499735817213
 40
0.7766626792699782
 40
0.8446840031246942
 40
0.9188381992426008
 40
0.9999999999999999
 40
0.9999999999999999
 40
0.9999999999999999
 40
0.9999999999999999
 10
-27.14317493818189
 20
10.03006046282996
 30
0.0
 10
-27.23577210013397
 20
10.00531938588178
 30
0.0
 10
-27.41358146973675
 20
9.957810421214743
 30
0.0
 10
-27.67215536910001
 20
9.89806792612782
 30
0.0
 10
-27.91124802522119
 20
9.856736828411975
 30
0.0
 10
-28.13226179409688
 20
9.825543776036177
 30
0.0
 10
-28.34001360424658
 20
9.815967197984758
 30
0.0
 10
-28.53969618695427
 20
9.8211626956466
 30
0.0
 10
-28.73288924923972
 20
9.845147558433375
 30
0.0
 10
-28.91995524166347
 20
9.887785084915159
 30
0.0
 10
-29.10234628024197
 20
9.949257943490126
 30
0.0
 10
-29.28038693462831
 20
10.03049281403433
 30
0.0
 10
-29.45798160420556
 20
10.1274221276301
 30
0.0
 10
-29.6323606490864
 20
10.24708741985203
 30
0.0
 10
-29.81182162446119
 20
10.38606222059139
 30
0.0
 10
-29.99844953513062
 20
10.54808924651408
 30
0.0
 10
-30.19696196218299
 20
10.73219449615617
 30
0.0
 10
-30.32980498403554
 20
10.86559351548342
 30
0.0
 10
-30.39922332527866
 20
10.93530239831383
 30
0.0
  0
CIRCLE
  5
A5
330
1F
100
AcDbEntity
  8
0
  6
Continuous
 62
     7
370
    25
100
AcDbCircle
 10
0.0
 20
0.0
 30
0.0
 40
4.000000000000003
  0
CIRCLE
  5
A6
330
1F
100
AcDbEntity
  8
0
  6
Continuous
 62
     7
370
    25
100
AcDbCircle
 10
-24.5451307937
 20
24.950682442
 30
0.0
 40
4.000000000000007
  0
SPLINE
  5
B1
330
1F
100
AcDbEntity
  8
0
  6
Continuous
 62
     7
370
    25
100
AcDbSpline
210
0.0
220
0.0
230
1.0
 70
     8
 71
     3
 72
    11
 73
     7
 74
     0
 42
0.00000001
 43
0.00000001
 40
0.0
 40
0.0
 40
0.0
 40
0.0
 40
0.2174275847138445
 40
0.4537179047442131
 40
0.7060634601970683
 40
1.0
 40
1.0
 40
1.0
 40
1.0
 10
-14.63328988661165
 20
-0.536255271887812
 30
0.0
 10
-14.64670765476346
 20
-0.5416839796637818
 30
0.0
 10
-14.67470723752198
 20
-0.5530123578951982
 30
0.0
 10
-14.71874887111443
 20
-0.5695767567115497
 30
0.0
 10
-14.76906892266458
 20
-0.5832325442980627
 30
0.0
 10
-14.80400698583149
 20
-0.5933249033555598
 30
0.0
 10
-14.82280601564391
 20
-0.5987552718878121
 30
0.0
  0
SPLINE
  5
B2
330
1F
100
AcDbEntity
  8
0
  6
Continuous
 62
     7
370
    25
100
AcDbSpline
210
0.0
220
0.0
230
1.0
 70
     8
 71
     3
 72
    15
 73
    11
 74
     0
 42
0.00000001
 43
0.00000001
 40
0.0
 40
0.0
 40
0.0
 40
0.0
 40
0.1277495409901375
 40
0.2484983750796421
 40
0.3638421863908147
 40
0.4776852789308921
 40
0.5947449719179355
 40
0.7194738153116628
 40
0.8521050583803583
 40
0.9999999999999999
 40
0.9999999999999999
 40
0.9999999999999999
 40
0.9999999999999999
 10
-14.21191891886971
 20
0.1814866635960581
 30
0.0
 10
-14.20749666505507
 20
0.1432534710069586
 30
0.0
 10
-14.19889449804444
 20
0.0688822743759501
 30
0.0
 10
-14.20395093653792
 20
-0.0412268857749656
 30
0.0
 10
-14.23068974716396
 20
-0.143960376049565
 30
0.0
 10
-14.27678189912665
 20
-0.2379113530972133
 30
0.0
 10
-14.33741298122328
 20
-0.3268911269657289
 30
0.0
 10
-14.41994112475989
 20
-0.4045394680467478
 30
0.0
 10
-14.51852344850559
 20
-0.4770112526553717
 30
0.0
 10
-14.5936714490013
 20
-0.5158036876225773
 30
0.0
 10
-14.63328988661165
 20
-0.536255271887812
 30
0.0
  0
SPLINE
  5
B3
330
1F
100
AcDbEntity
  8
0
  6
Continuous
 62
     7
370
    25
100
AcDbSpline
210
0.0
220
0.0
230
1.0
 70
     8
 71
     3
 72
    15
 73
    11
 74
     0
 42
0.00000001
 43
0.00000001
 40
0.0
 40
0.0
 40
0.0
 40
0.0
 40
0.1123468368572643
 40
0.2323396366447439
 40
0.3615106711617575
 40
0.4998027709657651
 40
0.6380223716298986
 40
0.7678661609980525
 40
0.8876531631427362
 40
1.0
 40
1.0
 40
1.0
 40
1.0
 10
-12.62724149951488
 20
0.0201963410154139
 30
0.0
 10
-12.68608077072215
 20
0.0045159965812534
 30
0.0
 10
-12.80776372393344
 20
-0.0279118458948596
 30
0.0
 10
-13.00309667163756
 20
-0.0470760620194313
 30
0.0
 10
-13.21292983313473
 20
-0.0523972519617128
 30
0.0
 10
-13.43196089235805
 20
-0.0324770142322486
 30
0.0
 10
-13.6494571731489
 20
0.0007928759081857
 30
0.0
 10
-13.85438749293556
 20
0.0466353679313292
 30
0.0
 10
-14.04240520592144
 20
0.1034312047290525
 30
0.0
 10
-14.1566347453637
 20
0.1560301299856383
 30
0.0
 10
-14.21191891886971
 20
0.1814866635960581
 30
0.0
  0
SPLINE
  5
B5
330
1F
100
AcDbEntity
  8
0
  6
Continuous
 62
     7
370
    25
100
AcDbSpline
210
0.0
220
0.0
230
1.0
 70
     8
 71
     3
 72
    11
 73
     7
 74
     0
 42
0.00000001
 43
0.00000001
 40
0.0
 40
0.0
 40
0.0
 40
0.0
 40
0.2141423936400988
 40
0.4527186097425298
 40
0.7135340259035904
 40
1.0
 40
1.0
 40
1.0
 40
1.0
 10
-10.31070924145036
 20
0.7258415023057365
 30
0.0
 10
-10.3661298001682
 20
0.7000986119771389
 30
0.0
 10
-10.48329444873407
 20
0.6456755464541892
 30
0.0
 10
-10.67554569006687
 20
0.5784387106869509
 30
0.0
 10
-10.88746647690159
 20
0.5053926407510863
 30
0.0
 10
-11.03824051661765
 20
0.4648203667341494
 30
0.0
 10
-11.11716085435359
 20
0.4435834377896075
 30
0.0
  0
SPLINE
  5
B6
330
1F
100
AcDbEntity
  8
0
  6
Continuous
 62
     7
370
    25
100
AcDbSpline
210
0.0
220
0.0
230
1.0
 70
     8
 71
     3
 72
    23
 73
    19
 74
     0
 42
0.00000001
 43
0.00000001
 40
0.0
 40
0.0
 40
0.0
 40
0.0
 40
0.1061910364658922
 40
0.20393318048947
 40
0.29134049207446
 40
0.3711756758749571
 40
0.4410158963387102
 40
0.5037163692640786
 40
0.5571283299920672
 40
0.6040286724453638
 40
0.6454434234341886
 40
0.6857189305335654
 40
0.7264347375558027
 40
0.7699389233167325
 40
0.8174930568695341
 40
0.8711081828830234
 40
0.9324128773487539
 40
1.0
 40
1.0
 40
1.0
 40
1.0
 10
-10.59699956403101
 20
2.405276986176704
 30
0.0
 10
-10.54348412100198
 20
2.350570742790999
 30
0.0
 10
-10.44071109170097
 20
2.245510856593722
 30
0.0
 10
-10.30059140862662
 20
2.089078637871157
 30
0.0
 10
-10.17815690317243
 20
1.942519477502869
 30
0.0
 10
-10.07365022296652
 20
1.807259343470842
 30
0.0
 10
-9.987742128354578
 20
1.680515348259741
 30
0.0
 10
-9.918881228748976
 20
1.565416645554922
 30
0.0
 10
-9.868734335648485
 20
1.458910101921351
 30
0.0
 10
-9.837323930341688
 20
1.361369440360669
 30
0.0
 10
-9.823419685955965
 20
1.269233923688155
 30
0.0
 10
-9.830832433767103
 20
1.180145383737313
 30
0.0
 10
-9.86383873636619
 20
1.095881560616683
 30
0.0
 10
-9.9124666803109
 20
1.013764145663149
 30
0.0
 10
-9.983671646925943
 20
0.9367796034136875
 30
0.0
 10
-10.07375304036222
 20
0.8616802027392647
 30
0.0
 10
-10.18442816481336
 20
0.789987553629256
 30
0.0
 10
-10.26726960041166
 20
0.7479072109435672
 30
0.0
 10
-10.31070924145036
 20
0.7258415023057365
 30
0.0
  0
SPLINE
  5
B8
330
1F
100
AcDbEntity
  8
0
  6
Continuous
 62
     7
370
    25
100
AcDbSpline
210
0.0
220
0.0
230
1.0
 70
     8
 71
     3
 72
    23
 73
    19
 74
     0
 42
0.00000001
 43
0.00000001
 40
0.0
 40
0.0
 40
0.0
 40
0.0
 40
0.0829643812146572
 40
0.1584922070673155
 40
0.2278801874916955
 40
0.2907017089901057
 40
0.3487272750899762
 40
0.4044951231731744
 40
0.4584908767092024
 40
0.5108116900617063
 40
0.5633299411472839
 40
0.6161602532492431
 40
0.6707698216302961
 40
0.7266358334180087
 40
0.7863496458778284
 40
0.8516981344862764
 40
0.9231437812987769
 40
1.0
 40
1.0
 40
1.0
 40
1.0
 10
-15.73409633822456
 20
5.187535050692833
 30
0.0
 10
-15.63615776244999
 20
5.212489596154499
 30
0.0
 10
-15.44905938596263
 20
5.260161873445977
 30
0.0
 10
-15.17722038333758
 20
5.316725693184922
 30
0.0
 10
-14.92774257192331
 20
5.359411079244817
 30
0.0
 10
-14.69783930303402
 20
5.388813576049444
 30
0.0
 10
-14.48285139648191
 20
5.403007031568593
 30
0.0
 10
-14.27838529078584
 20
5.394035682007205
 30
0.0
 10
-14.0820677323171
 20
5.369484469872158
 30
0.0
 10
-13.89450211925443
 20
5.320656876664143
 30
0.0
 10
-13.71224611034999
 20
5.259300812637634
 30
0.0
 10
-13.53545933227188
 20
5.17665521363322
 30
0.0
 10
-13.36192560675861
 20
5.078850787142023
 30
0.0
 10
-13.19295513745443
 20
4.958291530722832
 30
0.0
 10
-13.02022821639456
 20
4.821382630746485
 30
0.0
 10
-12.83833166021428
 20
4.66569191501034
 30
0.0
 10
-12.64746572752481
 20
4.488667296744127
 30
0.0
 10
-12.51994234434192
 20
4.360705193866992
 30
0.0
 10
-12.45385440274068
 20
4.29438988940251
 30
0.0
  0
SPLINE
  5
BB
330
1F
100
AcDbEntity
  8
0
  6
Continuous
 62
     7
370
    25
100
AcDbSpline
210
0.0
220
0.0
230
1.0
 70
     8
 71
     3
 72
    15
 73
    11
 74
     0
 42
0.00000001
 43
0.00000001
 40
0.0
 40
0.0
 40
0.0
 40
0.0
 40
0.1495581557343666
 40
0.279084645292055
 40
0.3909082408129591
 40
0.4949913400176904
 40
0.5973497395667041
 40
0.7101318405796103
 40
0.8407141475272634
 40
1.0
 40
1.0
 40
1.0
 40
1.0
 10
-13.62925762854714
 20
3.360922147467027
 30
0.0
 10
-13.69003395796252
 20
3.421222501448076
 30
0.0
 10
-13.80344629748863
 20
3.533746641767622
 30
0.0
 10
-13.97768837958699
 20
3.674375174457383
 30
0.0
 10
-14.14432922636905
 20
3.782298389409097
 30
0.0
 10
-14.31639235379049
 20
3.846256751864242
 30
0.0
 10
-14.49778811470086
 20
3.874866747461773
 30
0.0
 10
-14.6963424804805
 20
3.870740455400732
 30
0.0
 10
-14.92443048436929
 20
3.835255352172069
 30
0.0
 10
-15.0852437484786
 20
3.794569699317867
 30
0.0
 10
-15.17361246725681
 20
3.772212470047672
 30
0.0
  0
SPLINE
  5
BD
330
1F
100
AcDbEntity
  8
0
  6
Continuous
 62
     7
370
    25
100
AcDbSpline
210
0.0
220
0.0
230
1.0
 70
     8
 71
     3
 72
    15
 73
    11
 74
     0
 42
0.00000001
 43
0.00000001
 40
0.0
 40
0.0
 40
0.0
 40
0.0
 40
0.1112106426961179
 40
0.1973787864058517
 40
0.2706254204758533
 40
0.3456837268037943
 40
0.4454318472511198
 40
0.5875511926589225
 40
0.7721234313030284
 40
1.0
 40
1.0
 40
1.0
 40
1.0
 10
-12.45385440274068
 20
1.643180211983154
 30
0.0
 10
-12.42187818978958
 20
1.660428204932906
 30
0.0
 10
-12.36512619238057
 20
1.691040274370012
 30
0.0
 10
-12.30107686591117
 20
1.753344335657039
 30
0.0
 10
-12.26887191313163
 20
1.826437742735131
 30
0.0
 10
-12.284954836003
 20
1.909078372352073
 30
0.0
 10
-12.33659409516698
 20
1.998692644374651
 30
0.0
 10
-12.41831294505588
 20
2.111088303200032
 30
0.0
 10
-12.53658695793635
 20
2.24762327239891
 30
0.0
 10
-12.63004289486017
 20
2.343977233166622
 30
0.0
 10
-12.68167698338585
 20
2.397212470047672
 30
0.0
  0
SPLINE
  5
BE
330
1F
100
AcDbEntity
  8
0
  6
Continuous
 62
     7
370
    25
100
AcDbSpline
210
0.0
220
0.0
230
1.0
 70
     8
 71
     3
 72
    11
 73
     7
 74
     0
 42
0.00000001
 43
0.00000001
 40
0.0
 40
0.0
 40
0.0
 40
0.0
 40
0.3537259451309848
 40
0.6371139689788522
 40
0.851595736171609
 40
1.0
 40
1.0
 40
1.0
 40
1.0
 10
-12.92764472532133
 20
1.485922147467025
 30
0.0
 10
-12.87116457251124
 20
1.502625707492551
 30
0.0
 10
-12.7694352681707
 20
1.532711347436204
 30
0.0
 10
-12.6338304873467
 20
1.574193751518153
 30
0.0
 10
-12.53232709573158
 20
1.610137187785066
 30
0.0
 10
-12.47663144809292
 20
1.633589328428003
 30
0.0
 10
-12.45385440274069
 20
1.643180211983156
 30
0.0
  0
SPLINE
  5
C0
330
1F
100
AcDbEntity
  8
0
  6
Continuous
 62
     7
370
    25
100
AcDbSpline
210
0.0
220
0.0
230
1.0
 70
     8
 71
     3
 72
    19
 73
    15
 74
     0
 42
0.00000001
 43
0.00000001
 40
0.0
 40
0.0
 40
0.0
 40
0.0
 40
0.0800889192789881
 40
0.153149152177252
 40
0.2167927827772136
 40
0.2735220943190487
 40
0.3745397999587577
 40
0.4708459283120294
 40
0.5716681471586926
 40
0.6831589561504218
 40
0.7476207237125959
 40
0.8227773722380405
 40
0.9060070334495381
 40
1.0
 40
1.0
 40
1.0
 40
1.0
 10
-14.76232214467617
 20
1.806486663596058
 30
0.0
 10
-14.72836291198666
 20
1.771885751193931
 30
0.0
 10
-14.66342474398778
 20
1.705720538244982
 30
0.0
 10
-14.56660951942323
 20
1.617132818100962
 30
0.0
 10
-14.48181698924614
 20
1.536373226191122
 30
0.0
 10
-14.37991293012487
 20
1.449354578485662
 30
0.0
 10
-14.25202170122869
 20
1.362133042155277
 30
0.0
 10
-14.08200504707227
 20
1.296988238295471
 30
0.0
 10
-13.89490668845131
 20
1.272161858383743
 30
0.0
 10
-13.7274640621407
 20
1.29184815695108
 30
0.0
 10
-13.5784263142014
 20
1.321186211775894
 30
0.0
 10
-13.44712703287381
 20
1.352185833290021
 30
0.0
 10
-13.29810792781021
 20
1.385727185424783
 30
0.0
 10
-13.19436177198864
 20
1.41299334471503
 30
0.0
 10
-13.13933827370843
 20
1.427454405531542
 30
0.0
  0
SPLINE
  5
C4
330
1F
100
AcDbEntity
  8
0
  6
Continuous
 62
     7
370
    25
100
AcDbSpline
210
0.0
220
0.0
230
1.0
 70
     8
 71
     3
 72
    15
 73
    11
 74
     0
 42
0.00000001
 43
0.00000001
 40
0.0
 40
0.0
 40
0.0
 40
0.0
 40
0.1336262628333097
 40
0.2448396910697601
 40
0.3444089306436354
 40
0.4407504009567256
 40
0.5473381416314395
 40
0.6733269166272037
 40
0.8213743832475856
 40
1.0
 40
1.0
 40
1.0
 40
1.0
 10
-16.15143504790197
 20
0.6068898894025093
 30
0.0
 10
-16.12743261064378
 20
0.6201196613443722
 30
0.0
 10
-16.08345361131679
 20
0.6443602051303624
 30
0.0
 10
-16.02840323369958
 20
0.6909704590159927
 30
0.0
 10
-15.99985741686705
 20
0.7485155602014268
 30
0.0
 10
-15.98778610126782
 20
0.8106617870874238
 30
0.0
 10
-16.00318016234494
 20
0.8778476226284464
 30
0.0
 10
-16.03646495027246
 20
0.9488489240441593
 30
0.0
 10
-16.09152051036504
 20
1.024295812285516
 30
0.0
 10
-16.13677204603614
 20
1.073782218190791
 30
0.0
 10
-16.16151569306327
 20
1.100841502305735
 30
0.0
  0
SPLINE
  5
C5
330
1F
100
AcDbEntity
  8
0
  6
Continuous
 62
     7
370
    25
100
AcDbSpline
210
0.0
220
0.0
230
1.0
 70
     8
 71
     3
 72
    11
 73
     7
 74
     0
 42
0.00000001
 43
0.00000001
 40
0.0
 40
0.0
 40
0.0
 40
0.0
 40
0.3450859608673684
 40
0.627720411008883
 40
0.845509701387286
 40
1.0
 40
1.0
 40
1.0
 40
1.0
 10
-16.61917698338585
 20
0.4556802119831549
 30
0.0
 10
-16.56472190047604
 20
0.4710529933864907
 30
0.0
 10
-16.46566667684496
 20
0.4990164858351461
 30
0.0
 10
-16.33250602737772
 20
0.537807898452031
 30
0.0
 10
-16.23146545489123
 20
0.5743815607070144
 30
0.0
 10
-16.17490624806891
 20
0.597355894529696
 30
0.0
 10
-16.15143504790197
 20
0.6068898894025093
 30
0.0
  0
SPLINE
  5
C7
330
1F
100
AcDbEntity
  8
0
  6
Continuous
 62
     7
370
    25
100
AcDbSpline
210
0.0
220
0.0
230
1.0
 70
     8
 71
     3
 72
    19
 73
    15
 74
     0
 42
0.00000001
 43
0.00000001
 40
0.0
 40
0.0
 40
0.0
 40
0.0
 40
0.0870929926857242
 40
0.1668294051513258
 40
0.2367888495951939
 40
0.2979438862926033
 40
0.4065796712401954
 40
0.5047707119628871
 40
0.6043611880706362
 40
0.7102593226488803
 40
0.7702440864736234
 40
0.8390652703114925
 40
0.9157196175912781
 40
0.9999999999999999
 40
0.9999999999999999
 40
0.9999999999999999
 40
0.9999999999999999
 10
-18.34498343499875
 20
0.8085027926283163
 30
0.0
 10
-18.30961885050628
 20
0.7726243259786256
 30
0.0
 10
-18.24187686102624
 20
0.7038979788371452
 30
0.0
 10
-18.14176375827948
 20
0.610416559904202
 30
0.0
 10
-18.05108822487278
 20
0.5288290964555395
 30
0.0
 10
-17.94345286222877
 20
0.4413414975917764
 30
0.0
 10
-17.8129940171524
 20
0.3562619931384171
 30
0.0
 10
-17.6463798343165
 20
0.2909853720575416
 30
0.0
 10
-17.47032687181282
 20
0.2707626438351752
 30
0.0
 10
-17.31659970044973
 20
0.2809260628112691
 30
0.0
 10
-17.18254818570719
 20
0.3025539987819656
 30
0.0
 10
-17.06615730396863
 20
0.3267435960683258
 30
0.0
 10
-16.93738063902039
 20
0.3596267125670402
 30
0.0
 10
-16.84763024458878
 20
0.3842942531135825
 30
0.0
 10
-16.80062859628907
 20
0.3972124700476719
 30
0.0
  0
SPLINE
  5
C8
330
1F
100
AcDbEntity
  8
0
  6
Continuous
 62
     7
370
    25
100
AcDbSpline
210
0.0
220
0.0
230
1.0
 70
     8
 71
     3
 72
    15
 73
    11
 74
     0
 42
0.00000001
 43
0.00000001
 40
0.0
 40
0.0
 40
0.0
 40
0.0
 40
0.1170643836695604
 40
0.2101072870225183
 40
0.2883965633803257
 40
0.3647173585410201
 40
0.4649554683495434
 40
0.6023987307055996
 40
0.7803565855736173
 40
1.0
 40
1.0
 40
1.0
 40
1.0
 10
-19.49417698338585
 20
2.540357631337994
 30
0.0
 10
-19.52817724469658
 20
2.522507240091038
 30
0.0
 10
-19.58920095180651
 20
2.49046933787327
 30
0.0
 10
-19.65876760387531
 20
2.424754402934544
 30
0.0
 10
-19.6947687887391
 20
2.348625697535255
 30
0.0
 10
-19.6846972070821
 20
2.262497984799439
 30
0.0
 10
-19.63454566073667
 20
2.171906704331822
 30
0.0
 10
-19.55685707254531
 20
2.060469881901495
 30
0.0
 10
-19.44162406147882
 20
1.928484810654317
 30
0.0
 10
-19.35209982268131
 20
1.834314694325429
 30
0.0
 10
-19.30264472532133
 20
1.782293115208961
 30
0.0
  0
SPLINE
  5
C9
330
1F
100
AcDbEntity
  8
0
  6
Continuous
 62
     7
370
    25
100
AcDbSpline
210
0.0
220
0.0
230
1.0
 70
     8
 71
     3
 72
    11
 73
     7
 74
     0
 42
0.00000001
 43
0.00000001
 40
0.0
 40
0.0
 40
0.0
 40
0.0
 40
0.3016686965184607
 40
0.5660449939261356
 40
0.8003180336750523
 40
1.0
 40
1.0
 40
1.0
 40
1.0
 10
-19.05466085435359
 20
2.691567308757349
 30
0.0
 10
-19.09984957822076
 20
2.679312058056669
 30
0.0
 10
-19.184640778707
 20
2.656316555412576
 30
0.0
 10
-19.30210817179804
 20
2.616134171799237
 30
0.0
 10
-19.40535557409418
 20
2.582724693962887
 30
0.0
 10
-19.4661861393668
 20
2.55370902770668
 30
0.0
 10
-19.49417698338585
 20
2.540357631337994
 30
0.0
  0
SPLINE
  5
CC
330
1F
100
AcDbEntity
  8
0
  6
Continuous
 62
     7
370
    25
100
AcDbSpline
210
0.0
220
0.0
230
1.0
 70
     8
 71
     3
 72
    11
 73
     7
 74
     0
 42
0.00000001
 43
0.00000001
 40
0.0
 40
0.0
 40
0.0
 40
0.0
 40
0.2150549533778828
 40
0.4545324225022762
 40
0.7150027354080266
 40
1.0
 40
1.0
 40
1.0
 40
1.0
 10
-21.68772537048262
 20
3.443583437789607
 30
0.0
 10
-21.63281998577673
 20
3.468250422254123
 30
0.0
 10
-21.51677393742121
 20
3.520385674329819
 30
0.0
 10
-21.32996617562901
 20
3.592416499527953
 30
0.0
 10
-21.12113375169518
 20
3.660839814797494
 30
0.0
 10
-20.97418233413886
 20
3.702210115209954
 30
0.0
 10
-20.89740278983746
 20
3.723825373273478
 30
0.0
  0
SPLINE
  5
CD
330
1F
100
AcDbEntity
  8
0
  6
Continuous
 62
     7
370
    25
100
AcDbSpline
210
0.0
220
0.0
230
1.0
 70
     8
 71
     3
 72
    23
 73
    19
 74
     0
 42
0.00000001
 43
0.00000001
 40
0.0
 40
0.0
 40
0.0
 40
0.0
 40
0.1073044995359985
 40
0.2060715160100698
 40
0.2943953344561479
 40
0.3743210812728198
 40
0.4448936093670714
 40
0.5074403422287821
 40
0.5605581667917235
 40
0.6070516367027408
 40
0.6478475317734361
 40
0.6876071013257213
 40
0.7284356374698375
 40
0.7715906143265195
 40
0.8189452352092863
 40
0.8731225410903235
 40
0.932977428712109
 40
1.0
 40
1.0
 40
1.0
 40
1.0
 10
-21.3953866608052
 20
1.784309244241219
 30
0.0
 10
-21.44888893978867
 20
1.839025443850742
 30
0.0
 10
-21.55163668837136
 20
1.944104450347215
 30
0.0
 10
-21.69192833201635
 20
2.10040661194405
 30
0.0
 10
-21.81346245525406
 20
2.24697995381567
 30
0.0
 10
-21.9194479125146
 20
2.380452425698912
 30
0.0
 10
-22.00394365641928
 20
2.506806884801722
 30
0.0
 10
-22.07356102804075
 20
2.620074013566986
 30
0.0
 10
-22.12332535232657
 20
2.724654098765269
 30
0.0
 10
-22.15576183290123
 20
2.819902908692038
 30
0.0
 10
-22.16650502896802
 20
2.910521520806928
 30
0.0
 10
-22.15878612935389
 20
2.997479616921258
 30
0.0
 10
-22.12955245230981
 20
3.081642387240745
 30
0.0
 10
-22.07959630869938
 20
3.161733641331106
 30
0.0
 10
-22.00811350653725
 20
3.236748668256812
 30
0.0
 10
-21.91977048050951
 20
3.31076595559986
 30
0.0
 10
-21.81164331243369
 20
3.382019073222609
 30
0.0
 10
-21.73055826271993
 20
3.42230338946377
 30
0.0
 10
-21.68772537048262
 20
3.443583437789607
 30
0.0
  0
SPLINE
  5
CF
330
1F
100
AcDbEntity
  8
0
  6
Continuous
 62
     7
370
    25
100
AcDbSpline
210
0.0
220
0.0
230
1.0
 70
     8
 71
     3
 72
    23
 73
    19
 74
     0
 42
0.00000001
 43
0.00000001
 40
0.0
 40
0.0
 40
0.0
 40
0.0
 40
0.0790800132239575
 40
0.1518531130231359
 40
0.2188566040580104
 40
0.2792422343159803
 40
0.3358678050977851
 40
0.3902329725589259
 40
0.4438779643711313
 40
0.496202841944038
 40
0.5482803470308186
 40
0.6023847415907557
 40
0.6574802033763726
 40
0.7149973581721302
 40
0.7766626792699785
 40
0.8446840031246943
 40
0.9188381992426011
 40
1.0
 40
1.0
 40
1.0
 40
1.0
 10
-16.28449956403101
 20
-1.008029465436201
 30
0.0
 10
-16.37709672598309
 20
-1.032770542384379
 30
0.0
 10
-16.55490609558587
 20
-1.080279507051418
 30
0.0
 10
-16.81347999494914
 20
-1.140022002138337
 30
0.0
 10
-17.05257265107031
 20
-1.181353099854187
 30
0.0
 10
-17.273586419946
 20
-1.212546152229987
 30
0.0
 10
-17.4813382300957
 20
-1.2221227302814
 30
0.0
 10
-17.68102081280339
 20
-1.216927232619562
 30
0.0
 10
-17.87421387508884
 20
-1.192942369832785
 30
0.0
 10
-18.0612798675126
 20
-1.150304843351001
 30
0.0
 10
-18.24367090609109
 20
-1.088831984776037
 30
0.0
 10
-18.42171156047742
 20
-1.007597114231831
 30
0.0
 10
-18.59930623005468
 20
-0.9106678006360527
 30
0.0
 10
-18.7736852749355
 20
-0.7910025084141327
 30
0.0
 10
-18.95314625031031
 20
-0.6520277076747689
 30
0.0
 10
-19.13977416097974
 20
-0.4900006817520792
 30
0.0
 10
-19.33828658803212
 20
-0.3058954321099854
 30
0.0
 10
-19.47112960988465
 20
-0.1724964127827449
 30
0.0
 10
-19.54054795112778
 20
-0.1027875299523286
 30
0.0
  0
LINE
  5
D2
330
1F
100
AcDbEntity
  8
0
  6
Continuous
 62
     7
370
    25
100
AcDbLine
 10
-16.5464985414
 20
5.9626284019
 30
0.0
 11
-18.0565791866
 21
5.5392413051
 31
0.0
  0
LINE
  5
D3
330
1F
100
AcDbEntity
  8
0
  6
Continuous
 62
     7
370
    25
100
AcDbLine
 10
-17.8831920898
 20
9.8134348535
 30
0.0
 11
-16.0263372511
 21
7.9243219503
 31
0.0
  0
LINE
  5
D4
330
1F
100
AcDbEntity
  8
0
  6
Continuous
 62
     7
370
    25
100
AcDbLine
 10
-21.8045630576
 20
10.5130316277
 30
0.0
 11
-21.1634340253
 21
10.7065800148
 31
0.0
  0
LINE
  5
D5
330
1F
100
AcDbEntity
  8
0
  6
Continuous
 62
     7
370
    25
100
AcDbLine
 10
-20.6029501543
 20
9.2912574342
 30
0.0
 11
-21.8045630576
 21
10.5130316277
 31
0.0
  0
LINE
  5
D6
330
1F
100
AcDbEntity
  8
0
  6
Continuous
 62
     7
370
    25
100
AcDbLine
 10
-18.1110146705
 20
7.9162574342
 30
0.0
 11
-19.0585953156
 21
8.8799671116
 31
0.0
  0
LINE
  5
D7
330
1F
100
AcDbEntity
  8
0
  6
Continuous
 62
     7
370
    25
100
AcDbLine
 10
-18.5686759608
 20
6.9464993697
 30
0.0
 11
-18.3569824124
 21
7.0049671116
 31
0.0
  0
LINE
  5
D8
330
1F
100
AcDbEntity
  8
0
  6
Continuous
 62
     7
370
    25
100
AcDbLine
 10
-21.145288864
 20
8.2973058213
 30
0.0
 11
-20.1916598318
 21
7.3255316277
 31
0.0
  0
LINE
  5
D9
330
1F
100
AcDbEntity
  8
0
  6
Continuous
 62
     7
370
    25
100
AcDbLine
 10
-22.7803695092
 20
7.8315800148
 30
0.0
 11
-21.145288864
 21
8.2973058213
 31
0.0
  0
LINE
  5
DA
330
1F
100
AcDbEntity
  8
0
  6
Continuous
 62
     7
370
    25
100
AcDbLine
 10
-21.5908533801
 20
6.6198864664
 30
0.0
 11
-22.7803695092
 21
7.8315800148
 31
0.0
  0
LINE
  5
DB
330
1F
100
AcDbEntity
  8
0
  6
Continuous
 62
     7
370
    25
100
AcDbLine
 10
-22.2299662834
 20
5.9162574342
 30
0.0
 11
-22.0485146705
 21
5.9747251761
 31
0.0
  0
LINE
  5
DC
330
1F
100
AcDbEntity
  8
0
  6
Continuous
 62
     7
370
    25
100
AcDbLine
 10
-24.7319824124
 20
7.3013380793
 30
0.0
 11
-23.7743211221
 21
6.3275477568
 31
0.0
  0
LINE
  5
DD
330
1F
100
AcDbEntity
  8
0
  6
Continuous
 62
     7
370
    25
100
AcDbLine
 10
-25.6856114447
 20
9.4323864664
 30
0.0
 11
-24.4839985414
 21
8.2106122729
 31
0.0
  0
LINE
  5
DE
330
1F
100
AcDbEntity
  8
0
  6
Continuous
 62
     7
370
    25
100
AcDbLine
 10
-26.3267404769
 20
9.2428703374
 30
0.0
 11
-25.6856114447
 21
9.4323864664
 31
0.0
  0
LINE
  5
DF
330
1F
100
AcDbEntity
  8
0
  6
Continuous
 62
     7
370
    25
100
AcDbLine
 10
-24.9698856382
 20
5.4162574342
 30
0.0
 11
-26.8247243479
 21
7.3033542084
 31
0.0
  0
LINE
  5
E0
330
1F
100
AcDbEntity
  8
0
  6
Continuous
 62
     7
370
    25
100
AcDbLine
 10
-20.2521437027
 20
4.9202896922
 30
0.0
 11
-21.7138372511
 21
4.5110154987
 31
0.0
  0
LINE
  5
E1
330
1F
100
AcDbEntity
  8
0
  6
Continuous
 62
     7
370
    25
100
AcDbLine
 10
-21.9758362285
 20
11.4816733661
 30
0.0
 11
-23.4859168737
 21
11.0582862693
 31
0.0
  0
LINE
  5
E2
330
1F
100
AcDbEntity
  8
0
  6
Continuous
 62
     7
370
    25
100
AcDbLine
 10
-23.3125297769
 20
15.3324798177
 30
0.0
 11
-21.4556749382
 21
13.4433669144
 31
0.0
  0
LINE
  5
E3
330
1F
100
AcDbEntity
  8
0
  6
Continuous
 62
     7
370
    25
100
AcDbLine
 10
-27.2339007446
 20
16.0320765919
 30
0.0
 11
-26.5927717124
 21
16.225624979
 31
0.0
  0
LINE
  5
E4
330
1F
100
AcDbEntity
  8
0
  6
Continuous
 62
     7
370
    25
100
AcDbLine
 10
-26.0322878414
 20
14.8103023983
 30
0.0
 11
-27.2339007446
 21
16.0320765919
 31
0.0
  0
LINE
  5
E5
330
1F
100
AcDbEntity
  8
0
  6
Continuous
 62
     7
370
    25
100
AcDbLine
 10
-23.5403523575
 20
13.4353023983
 30
0.0
 11
-24.4879330027
 21
14.3990120757
 31
0.0
  0
LINE
  5
E6
330
1F
100
AcDbEntity
  8
0
  6
Continuous
 62
     7
370
    25
100
AcDbLine
 10
-23.9980136479
 20
12.4655443338
 30
0.0
 11
-23.7863200995
 21
12.5240120757
 31
0.0
  0
LINE
  5
E7
330
1F
100
AcDbEntity
  8
0
  6
Continuous
 62
     7
370
    25
100
AcDbLine
 10
-26.5746265511
 20
13.8163507854
 30
0.0
 11
-25.6209975188
 21
12.8445765919
 31
0.0
  0
LINE
  5
E8
330
1F
100
AcDbEntity
  8
0
  6
Continuous
 62
     7
370
    25
100
AcDbLine
 10
-28.2097071962
 20
13.350624979
 30
0.0
 11
-26.5746265511
 21
13.8163507854
 31
0.0
  0
LINE
  5
E9
330
1F
100
AcDbEntity
  8
0
  6
Continuous
 62
     7
370
    25
100
AcDbLine
 10
-27.0201910672
 20
12.1389314306
 30
0.0
 11
-28.2097071962
 21
13.350624979
 31
0.0
  0
LINE
  5
EA
330
1F
100
AcDbEntity
  8
0
  6
Continuous
 62
     7
370
    25
100
AcDbLine
 10
-27.6593039704
 20
11.4353023983
 30
0.0
 11
-27.4778523575
 21
11.4937701402
 31
0.0
  0
LINE
  5
EB
330
1F
100
AcDbEntity
  8
0
  6
Continuous
 62
     7
370
    25
100
AcDbLine
 10
-30.1613200995
 20
12.8203830435
 30
0.0
 11
-29.2036588091
 21
11.8465927209
 31
0.0
  0
LINE
  5
EC
330
1F
100
AcDbEntity
  8
0
  6
Continuous
 62
     7
370
    25
100
AcDbLine
 10
-31.1149491317
 20
14.9514314306
 30
0.0
 11
-29.9133362285
 21
13.729657237
 31
0.0
  0
LINE
  5
ED
330
1F
100
AcDbEntity
  8
0
  6
Continuous
 62
     7
370
    25
100
AcDbLine
 10
-31.756078164
 20
14.7619153015
 30
0.0
 11
-31.1149491317
 21
14.9514314306
 31
0.0
  0
LINE
  5
EE
330
1F
100
AcDbEntity
  8
0
  6
Continuous
 62
     7
370
    25
100
AcDbLine
 10
-30.3992233253
 20
10.9353023983
 30
0.0
 11
-32.254062035
 21
12.8223991725
 31
0.0
  0
LINE
  5
EF
330
1F
100
AcDbEntity
  8
0
  6
Continuous
 62
     7
370
    25
100
AcDbLine
 10
-25.6814813898
 20
10.4393346564
 30
0.0
 11
-27.1431749382
 21
10.0300604628
 31
0.0
  0
LINE
  5
F0
330
1F
100
AcDbEntity
  8
0
  6
Continuous
 62
     7
370
    25
100
AcDbLine
 10
-49.2781964221
 20
12.2852920615
 30
0.0
 11
-104.573934526
 21
-20.9176924671
 31
0.0
  0
LINE
  5
F1
330
1F
100
AcDbEntity
  8
0
  6
Continuous
 62
     7
370
    25
100
AcDbLine
 10
-74.0074477855
 20
40.1873335536
 30
0.0
 11
-56.9627610723
 21
40.1450183661
 31
0.0
  0
LINE
  5
F2
330
1F
100
AcDbEntity
  8
0
  6
Continuous
 62
     7
370
    25
100
AcDbLine
 10
-47.9642383256
 20
53.0345708881
 30
0.0
 11
-74.7526884788
 21
46.0913663287
 31
0.0
  0
LINE
  5
F3
330
1F
100
AcDbEntity
  8
0
  6
Continuous
 62
     7
370
    25
100
AcDbLine
 10
5.7030131296
 20
5.61031561
 30
0.0
 11
-38.3265103177
 21
50.3673253339
 31
0.0
  0
LINE
  5
F4
330
1F
100
AcDbEntity
  8
0
  6
Continuous
 62
     7
370
    25
100
AcDbLine
 10
1.6965494842
 20
-7.8180381073
 30
0.0
 11
-100.9396565724
 21
-30.0905571272
 31
0.0
  0
LINE
  5
F5
330
1F
100
AcDbEntity
  8
0
  6
Continuous
 62
     7
370
    25
100
AcDbLine
 10
-11.1171608544
 20
0.4435834378
 30
0.0
 11
-12.6272414995
 21
0.020196341
 31
0.0
  0
LINE
  5
F6
330
1F
100
AcDbEntity
  8
0
  6
Continuous
 62
     7
370
    25
100
AcDbLine
 10
-12.4538544027
 20
4.2943898894
 30
0.0
 11
-10.596999564
 21
2.4052769862
 31
0.0
  0
LINE
  5
F7
330
1F
100
AcDbEntity
  8
0
  6
Continuous
 62
     7
370
    25
100
AcDbLine
 10
-16.3752253705
 20
4.9939866636
 30
0.0
 11
-15.7340963382
 21
5.1875350507
 31
0.0
  0
LINE
  5
F8
330
1F
100
AcDbEntity
  8
0
  6
Continuous
 62
     7
370
    25
100
AcDbLine
 10
-15.1736124673
 20
3.77221247
 30
0.0
 11
-16.3752253705
 21
4.9939866636
 31
0.0
  0
LINE
  5
F9
330
1F
100
AcDbEntity
  8
0
  6
Continuous
 62
     7
370
    25
100
AcDbLine
 10
-12.6816769834
 20
2.39721247
 30
0.0
 11
-13.6292576285
 21
3.3609221475
 31
0.0
  0
LINE
  5
FA
330
1F
100
AcDbEntity
  8
0
  6
Continuous
 62
     7
370
    25
100
AcDbLine
 10
-13.1393382737
 20
1.4274544055
 30
0.0
 11
-12.9276447253
 21
1.4859221475
 31
0.0
  0
LINE
  5
FB
330
1F
100
AcDbEntity
  8
0
  6
Continuous
 62
     7
370
    25
100
AcDbLine
 10
-15.7159511769
 20
2.7782608571
 30
0.0
 11
-14.7623221447
 21
1.8064866636
 31
0.0
  0
LINE
  5
FC
330
1F
100
AcDbEntity
  8
0
  6
Continuous
 62
     7
370
    25
100
AcDbLine
 10
-17.3510318221
 20
2.3125350507
 30
0.0
 11
-15.7159511769
 21
2.7782608571
 31
0.0
  0
LINE
  5
FD
330
1F
100
AcDbEntity
  8
0
  6
Continuous
 62
     7
370
    25
100
AcDbLine
 10
-16.1615156931
 20
1.1008415023
 30
0.0
 11
-17.3510318221
 21
2.3125350507
 31
0.0
  0
LINE
  5
FE
330
1F
100
AcDbEntity
  8
0
  6
Continuous
 62
     7
370
    25
100
AcDbLine
 10
-16.8006285963
 20
0.39721247
 30
0.0
 11
-16.6191769834
 21
0.455680212
 31
0.0
  0
LINE
  5
FF
330
1F
100
AcDbEntity
  8
0
  6
Continuous
 62
     7
370
    25
100
AcDbLine
 10
-20.2562737576
 20
3.9133415023
 30
0.0
 11
-19.0546608544
 21
2.6915673088
 31
0.0
  0
LINE
  5
100
330
1F
100
AcDbEntity
  8
0
  6
Continuous
 62
     7
370
    25
100
AcDbLine
 10
-20.8974027898
 20
3.7238253733
 30
0.0
 11
-20.2562737576
 21
3.9133415023
 31
0.0
  0
LINE
  5
101
330
1F
100
AcDbEntity
  8
0
  6
Continuous
 62
     7
370
    25
100
AcDbLine
 10
-19.5405479511
 20
-0.10278753
 30
0.0
 11
-21.3953866608
 21
1.7843092442
 31
0.0
  0
LINE
  5
102
330
1F
100
AcDbEntity
  8
0
  6
Continuous
 62
     7
370
    25
100
AcDbLine
 10
-14.8228060156
 20
-0.5987552719
 30
0.0
 11
-16.284499564
 21
-1.0080294654
 31
0.0
  0
LINE
  5
103
330
1F
100
AcDbEntity
  8
0
  6
Continuous
 62
     7
370
    25
100
AcDbLine
 10
-19.3026447253
 20
1.7822931152
 30
0.0
 11
-18.344983435
 21
0.8085027926
 31
0.0
  0
ARC
  5
104
330
1F
100
AcDbEntity
  8
0
  6
Continuous
 62
     7
370
    25
100
AcDbCircle
 10
-102.0
 20
-25.2042833102
 30
0.0
 40
4.999999999999998
100
AcDbArc
 50
120.9832124973
 51
282.2436101108
  0
ARC
  5
105
330
1F
100
AcDbEntity
  8
0
  6
Continuous
 62
     7
370
    25
100
AcDbCircle
 10
-57.0
 20
25.1450645908
 30
0.0
 40
15.00000000000001
100
AcDbArc
 50
300.9832124973
 51
89.8577576277
  0
ARC
  5
106
330
1F
100
AcDbEntity
  8
0
  6
Continuous
 62
     7
370
    25
100
AcDbCircle
 10
-74.0
 20
43.1873243087
 30
0.0
 40
3.000000000000014
100
AcDbArc
 50
104.5305486196
 51
269.8577576277
  0
ARC
  5
107
330
1F
100
AcDbEntity
  8
0
  6
Continuous
 62
     7
370
    25
100
AcDbCircle
 10
-45.4552767297
 20
43.3544308215
 30
0.0
 40
10.00000000000006
100
AcDbArc
 50
44.5305486196
 51
104.5305486196
  0
ARC
  5
108
330
1F
100
AcDbEntity
  8
0
  6
Continuous
 62
     7
370
    25
100
AcDbCircle
 10
0.0
 20
0.0
 30
0.0
 40
8.000000000000012
100
AcDbArc
 50
282.2436101108
 51
44.5305486196
  0
MTEXT
  5
10A
330
1F
100
AcDbEntity
  8
0
  6
Continuous
 62
     7
100
AcDbMText
 10
-107.0
 20
-31.2238497018
 30
0.0
 40
4.83362
 41
0.0
 71
     1
 72
     1
  1
Produit SOLIDWORKS Maker – Usage personnel uniquement.
  7
SLDTEXTSTYLE0
 73
     1
 44
1.0
  0
ENDSEC
  0
SECTION
  2
OBJECTS
  0
DICTIONARY
  5
C
330
0
100
AcDbDictionary
281
     1
  3
ACAD_GROUP
350
D
  3
ACAD_LAYOUT
350
1A
  3
ACAD_MLINESTYLE
350
17
  3
ACAD_PLOTSETTINGS
350
19
  3
ACAD_PLOTSTYLENAME
350
E
  3
ACAD_SCALELIST
350
47
  3
DWGPROPS
350
10B
  0
DICTIONARY
  5
D
102
{ACAD_REACTORS
330
C
102
}
330
C
100
AcDbDictionary
281
     1
  0
DICTIONARY
  5
1A
102
{ACAD_REACTORS
330
C
102
}
330
C
100
AcDbDictionary
281
     1
  3
Layout1
350
1E
  3
Layout2
350
26
  3
Model
350
22
  0
DICTIONARY
  5
17
102
{ACAD_REACTORS
330
C
102
}
330
C
100
AcDbDictionary
281
     1
  3
Standard
350
18
  0
DICTIONARY
  5
19
102
{ACAD_REACTORS
330
C
102
}
330
C
100
AcDbDictionary
281
     1
  0
ACDBDICTIONARYWDFLT
  5
E
102
{ACAD_REACTORS
330
C
102
}
330
C
100
AcDbDictionary
281
     1
  3
Normal
350
F
100
AcDbDictionaryWithDefault
340
F
  0
DICTIONARY
  5
47
102
{ACAD_REACTORS
330
C
102
}
330
C
100
AcDbDictionary
281
     1
  3
A0
350
48
  3
A1
350
49
  3
A2
350
4A
  3
A3
350
4B
  3
A4
350
4C
  3
A5
350
4D
  3
A6
350
4E
  3
A7
350
4F
  3
A8
350
50
  3
A9
350
51
  3
B0
350
52
  3
B1
350
53
  3
B2
350
54
  3
B3
350
55
  3
B4
350
56
  3
B5
350
57
  3
B6
350
58
  0
XRECORD
  5
10B
102
{ACAD_REACTORS
330
C
102
}
330
C
100
AcDbXrecord
280
     1
  1
DWGPROPS COOKIE
  2

  3

  4

  6

  7

  8
cyprien
  9

300
=
301
=
302
=
303
=
304
=
305
=
306
=
307
=
308
=
309
=
 40
0.0
 41
2460119.58122147
 42
2460119.581251343
  1

 90
        0
  0
LAYOUT
  5
1E
102
{ACAD_REACTORS
330
1A
102
}
330
1A
100
AcDbPlotSettings
  1

  2
none_device
  4

  6

 40
0.0
 41
0.0
 42
0.0
 43
0.0
 44
0.0
 45
0.0
 46
0.0
 47
0.0
 48
0.0
 49
0.0
140
0.0
141
0.0
142
1.0
143
1.0
 70
   688
 72
     1
 73
     0
 74
     5
  7

 75
    16
147
1.0
148
0.0
149
0.0
100
AcDbLayout
  1
Layout1
 70
     1
 71
     1
 10
0.0
 20
0.0
 11
420.0
 21
297.0
 12
0.0
 22
0.0
 32
0.0
 14
1.0000000000E+20
 24
1.0000000000E+20
 34
1.0000000000E+20
 15
-1.0000000000E+20
 25
-1.0000000000E+20
 35
-1.0000000000E+20
146
0.0
 13
0.0
 23
0.0
 33
0.0
 16
1.0
 26
0.0
 36
0.0
 17
0.0
 27
1.0
 37
0.0
 76
     0
330
1B
  0
LAYOUT
  5
26
102
{ACAD_REACTORS
330
1A
102
}
330
1A
100
AcDbPlotSettings
  1

  2
none_device
  4

  6

 40
0.0
 41
0.0
 42
0.0
 43
0.0
 44
0.0
 45
0.0
 46
0.0
 47
0.0
 48
0.0
 49
0.0
140
0.0
141
0.0
142
1.0
143
1.0
 70
   688
 72
     1
 73
     0
 74
     5
  7

 75
    16
147
1.0
148
0.0
149
0.0
100
AcDbLayout
  1
Layout2
 70
     1
 71
     2
 10
0.0
 20
0.0
 11
0.0
 21
0.0
 12
0.0
 22
0.0
 32
0.0
 14
0.0
 24
0.0
 34
0.0
 15
0.0
 25
0.0
 35
0.0
146
0.0
 13
0.0
 23
0.0
 33
0.0
 16
1.0
 26
0.0
 36
0.0
 17
0.0
 27
1.0
 37
0.0
 76
     0
330
23
  0
LAYOUT
  5
22
102
{ACAD_REACTORS
330
1A
102
}
330
1A
100
AcDbPlotSettings
  1

  2
none_device
  4
ANSI_A_(11.00_x_8.50_Inches)
  6

 40
6.35
 41
19.05
 42
6.35000508
 43
19.05000254
 44
279.4
 45
215.9
 46
252.4108409383
 47
61.0588261104
 48
0.0
 49
0.0
140
0.0
141
0.0
142
0.0946956522
143
1.0
 70
  1696
 72
     0
 73
     0
 74
     0
  7

 75
     0
147
0.0179189148
148
-1300.4909072572
149
0.0
100
AcDbLayout
  1
Model
 70
     1
 71
     0
 10
0.0
 20
0.0
 11
420.0
 21
297.0
 12
0.0
 22
0.0
 32
0.0
 14
-107.0
 24
-30.2042833102
 34
0.0
 15
8.0
 25
53.3544308215
 35
0.0
146
0.0
 13
0.0
 23
0.0
 33
0.0
 16
1.0
 26
0.0
 36
0.0
 17
0.0
 27
1.0
 37
0.0
 76
     0
330
1F
331
29
  0
MLINESTYLE
  5
18
102
{ACAD_REACTORS
330
17
102
}
330
17
100
AcDbMlineStyle
  2
Standard
 70
     0
  3

 62
   256
 51
90.0
 52
90.0
 71
     2
 49
0.5
 62
   256
  6
BYLAYER
 49
-0.5
 62
   256
  6
BYLAYER
  0
ACDBPLACEHOLDER
  5
F
102
{ACAD_REACTORS
330
E
102
}
330
E
  0
SCALE
  5
48
102
{ACAD_REACTORS
330
47
102
}
330
47
100
AcDbScale
 70
     0
300
1:1
140
1.0
141
1.0
290
     1
  0
SCALE
  5
49
102
{ACAD_REACTORS
330
47
102
}
330
47
100
AcDbScale
 70
     0
300
1:2
140
1.0
141
2.0
290
     0
  0
SCALE
  5
4A
102
{ACAD_REACTORS
330
47
102
}
330
47
100
AcDbScale
 70
     0
300
1:4
140
1.0
141
4.0
290
     0
  0
SCALE
  5
4B
102
{ACAD_REACTORS
330
47
102
}
330
47
100
AcDbScale
 70
     0
300
1:5
140
1.0
141
5.0
290
     0
  0
SCALE
  5
4C
102
{ACAD_REACTORS
330
47
102
}
330
47
100
AcDbScale
 70
     0
300
1:8
140
1.0
141
8.0
290
     0
  0
SCALE
  5
4D
102
{ACAD_REACTORS
330
47
102
}
330
47
100
AcDbScale
 70
     0
300
1:10
140
1.0
141
10.0
290
     0
  0
SCALE
  5
4E
102
{ACAD_REACTORS
330
47
102
}
330
47
100
AcDbScale
 70
     0
300
1:16
140
1.0
141
16.0
290
     0
  0
SCALE
  5
4F
102
{ACAD_REACTORS
330
47
102
}
330
47
100
AcDbScale
 70
     0
300
1:20
140
1.0
141
20.0
290
     0
  0
SCALE
  5
50
102
{ACAD_REACTORS
330
47
102
}
330
47
100
AcDbScale
 70
     0
300
1:30
140
1.0
141
30.0
290
     0
  0
SCALE
  5
51
102
{ACAD_REACTORS
330
47
102
}
330
47
100
AcDbScale
 70
     0
300
1:40
140
1.0
141
40.0
290
     0
  0
SCALE
  5
52
102
{ACAD_REACTORS
330
47
102
}
330
47
100
AcDbScale
 70
     0
300
1:50
140
1.0
141
50.0
290
     0
  0
SCALE
  5
53
102
{ACAD_REACTORS
330
47
102
}
330
47
100
AcDbScale
 70
     0
300
1:100
140
1.0
141
100.0
290
     0
  0
SCALE
  5
54
102
{ACAD_REACTORS
330
47
102
}
330
47
100
AcDbScale
 70
     0
300
2:1
140
2.0
141
1.0
290
     0
  0
SCALE
  5
55
102
{ACAD_REACTORS
330
47
102
}
330
47
100
AcDbScale
 70
     0
300
4:1
140
4.0
141
1.0
290
     0
  0
SCALE
  5
56
102
{ACAD_REACTORS
330
47
102
}
330
47
100
AcDbScale
 70
     0
300
8:1
140
8.0
141
1.0
290
     0
  0
SCALE
  5
57
102
{ACAD_REACTORS
330
47
102
}
330
47
100
AcDbScale
 70
     0
300
10:1
140
10.0
141
1.0
290
     0
  0
SCALE
  5
58
102
{ACAD_REACTORS
330
47
102
}
330
47
100
AcDbScale
 70
     0
300
100:1
140
100.0
141
1.0
290
     0
  0
ENDSEC
  0
EOF
