ISO-10303-21;
HEADER;
FILE_DESCRIPTION (( 'STEP AP214' ),
    '1' );
FILE_NAME ('bague lame.STEP',
    '2023-06-20T23:52:48',
    ( '' ),
    ( '' ),
    'SwSTEP 2.0',
    'SolidWorks 2018',
    '' );
FILE_SCHEMA (( 'AUTOMOTIVE_DESIGN' ));
ENDSEC;

DATA;
#1 = ORIENTED_EDGE ( 'NONE', *, *, #89, .F. ) ;
#2 = DIRECTION ( 'NONE',  ( -0.000000000000000000, -0.000000000000000000, -1.000000000000000000 ) ) ;
#3 = AXIS2_PLACEMENT_3D ( 'NONE', #191, #132, #209 ) ;
#4 = CARTESIAN_POINT ( 'NONE',  ( 0.000000000000000000, 0.000000000000000000, 4.000000000000000000 ) ) ;
#5 = CIRCLE ( 'NONE', #68, 10.50000000000000000 ) ;
#6 = CYLINDRICAL_SURFACE ( 'NONE', #36, 8.250000000000001776 ) ;
#7 = DIRECTION ( 'NONE',  ( -0.000000000000000000, -0.000000000000000000, -1.000000000000000000 ) ) ;
#8 = VERTEX_POINT ( 'NONE', #126 ) ;
#9 = AXIS2_PLACEMENT_3D ( 'NONE', #152, #32, #171 ) ;
#10 = PRODUCT_DEFINITION ( 'UNKNOWN', '', #195, #98 ) ;
#11 =( NAMED_UNIT ( * ) PLANE_ANGLE_UNIT ( ) SI_UNIT ( $, .RADIAN. ) );
#12 = EDGE_LOOP ( 'NONE', ( #208, #130 ) ) ;
#13 = VERTEX_POINT ( 'NONE', #27 ) ;
#14 =( NAMED_UNIT ( * ) PLANE_ANGLE_UNIT ( ) SI_UNIT ( $, .RADIAN. ) );
#15 = ORIENTED_EDGE ( 'NONE', *, *, #87, .T. ) ;
#16 = APPLICATION_CONTEXT ( 'automotive_design' ) ;
#17 = COLOUR_RGB ( '',0.7529411764705882248, 0.7529411764705882248, 0.7529411764705882248 ) ;
#18 = CIRCLE ( 'NONE', #59, 10.50000000000000000 ) ;
#19 = UNCERTAINTY_MEASURE_WITH_UNIT (LENGTH_MEASURE( 1.000000000000000082E-05 ), #184, 'distance_accuracy_value', 'NONE');
#20 = PRODUCT_CONTEXT ( 'NONE', #153, 'mechanical' ) ;
#21 = CYLINDRICAL_SURFACE ( 'NONE', #52, 10.50000000000000000 ) ;
#22 = LINE ( 'NONE', #123, #70 ) ;
#23 = EDGE_LOOP ( 'NONE', ( #147, #25, #154, #60 ) ) ;
#24 = DIRECTION ( 'NONE',  ( -0.000000000000000000, -0.000000000000000000, -1.000000000000000000 ) ) ;
#25 = ORIENTED_EDGE ( 'NONE', *, *, #206, .T. ) ;
#26 = CIRCLE ( 'NONE', #93, 10.50000000000000000 ) ;
#27 = CARTESIAN_POINT ( 'NONE',  ( 8.250000000000001776, 1.010333609296566747E-15, 4.000000000000000000 ) ) ;
#28 = DIRECTION ( 'NONE',  ( -1.000000000000000000, 0.000000000000000000, 0.000000000000000000 ) ) ;
#29 = PRESENTATION_LAYER_ASSIGNMENT (  '', '', ( #129 ) ) ;
#30 = PRODUCT_RELATED_PRODUCT_CATEGORY ( 'part', '', ( #205 ) ) ;
#31 = ADVANCED_FACE ( 'NONE', ( #97 ), #6, .F. ) ;
#32 = DIRECTION ( 'NONE',  ( 0.000000000000000000, 0.000000000000000000, 1.000000000000000000 ) ) ;
#33 = FACE_OUTER_BOUND ( 'NONE', #50, .T. ) ;
#34 = FACE_BOUND ( 'NONE', #187, .T. ) ;
#35 = DIRECTION ( 'NONE',  ( 1.000000000000000000, 0.000000000000000000, -0.000000000000000000 ) ) ;
#36 = AXIS2_PLACEMENT_3D ( 'NONE', #91, #2, #176 ) ;
#37 = FILL_AREA_STYLE ('',( #118 ) ) ;
#38 = PRODUCT_DEFINITION_SHAPE ( 'NONE', 'NONE',  #10 ) ;
#39 = AXIS2_PLACEMENT_3D ( 'NONE', #186, #90, #198 ) ;
#40 = DIRECTION ( 'NONE',  ( -0.000000000000000000, -0.000000000000000000, -1.000000000000000000 ) ) ;
#41 = CARTESIAN_POINT ( 'NONE',  ( 0.000000000000000000, 0.000000000000000000, 4.000000000000000000 ) ) ;
#42 = CYLINDRICAL_SURFACE ( 'NONE', #3, 10.50000000000000000 ) ;
#43 = ORIENTED_EDGE ( 'NONE', *, *, #125, .T. ) ;
#44 = ADVANCED_FACE ( 'NONE', ( #111, #34 ), #162, .F. ) ;
#45 = VERTEX_POINT ( 'NONE', #143 ) ;
#46 = ORIENTED_EDGE ( 'NONE', *, *, #155, .F. ) ;
#47 = EDGE_CURVE ( 'NONE', #13, #66, #22, .T. ) ;
#48 = LINE ( 'NONE', #58, #182 ) ;
#49 = DIRECTION ( 'NONE',  ( 1.000000000000000000, 0.000000000000000000, 0.000000000000000000 ) ) ;
#50 = EDGE_LOOP ( 'NONE', ( #145, #100, #80, #1 ) ) ;
#51 = ORIENTED_EDGE ( 'NONE', *, *, #104, .T. ) ;
#52 = AXIS2_PLACEMENT_3D ( 'NONE', #201, #40, #28 ) ;
#53 = CIRCLE ( 'NONE', #212, 8.250000000000001776 ) ;
#54 = DIRECTION ( 'NONE',  ( 1.000000000000000000, 0.000000000000000000, 0.000000000000000000 ) ) ;
#55 = AXIS2_PLACEMENT_3D ( 'NONE', #150, #134, #81 ) ;
#56 = CARTESIAN_POINT ( 'NONE',  ( 10.50000000000000000, 1.285879139104720831E-15, 0.000000000000000000 ) ) ;
#57 = LINE ( 'NONE', #74, #172 ) ;
#58 = CARTESIAN_POINT ( 'NONE',  ( 10.50000000000000000, 1.285879139104720831E-15, 4.000000000000000000 ) ) ;
#59 = AXIS2_PLACEMENT_3D ( 'NONE', #177, #142, #54 ) ;
#60 = ORIENTED_EDGE ( 'NONE', *, *, #165, .F. ) ;
#61 = EDGE_LOOP ( 'NONE', ( #148, #189, #158, #166 ) ) ;
#62 = ADVANCED_FACE ( 'NONE', ( #33 ), #99, .F. ) ;
#63 = AXIS2_PLACEMENT_3D ( 'NONE', #135, #101, #193 ) ;
#64 = CARTESIAN_POINT ( 'NONE',  ( 10.50000000000000000, 1.285879139104720831E-15, 4.000000000000000000 ) ) ;
#65 = DIRECTION ( 'NONE',  ( 0.000000000000000000, 0.000000000000000000, 1.000000000000000000 ) ) ;
#66 = VERTEX_POINT ( 'NONE', #146 ) ;
#67 = SURFACE_SIDE_STYLE ('',( #156 ) ) ;
#68 = AXIS2_PLACEMENT_3D ( 'NONE', #41, #204, #202 ) ;
#69 = CIRCLE ( 'NONE', #55, 10.50000000000000000 ) ;
#70 = VECTOR ( 'NONE', #24, 1000.000000000000000 ) ;
#71 = EDGE_CURVE ( 'NONE', #79, #8, #18, .T. ) ;
#72 = FACE_OUTER_BOUND ( 'NONE', #61, .T. ) ;
#73 = STYLED_ITEM ( 'NONE', ( #122 ), #139 ) ;
#74 = CARTESIAN_POINT ( 'NONE',  ( -8.250000000000001776, 0.000000000000000000, 4.000000000000000000 ) ) ;
#75 = PLANE ( 'NONE',  #83 ) ;
#76 = SHAPE_DEFINITION_REPRESENTATION ( #38, #139 ) ;
#77 = VECTOR ( 'NONE', #7, 1000.000000000000000 ) ;
#78 = AXIS2_PLACEMENT_3D ( 'NONE', #138, #196, #181 ) ;
#79 = VERTEX_POINT ( 'NONE', #56 ) ;
#80 = ORIENTED_EDGE ( 'NONE', *, *, #125, .F. ) ;
#81 = DIRECTION ( 'NONE',  ( 1.000000000000000000, 0.000000000000000000, 0.000000000000000000 ) ) ;
#82 = SURFACE_SIDE_STYLE ('',( #210 ) ) ;
#83 = AXIS2_PLACEMENT_3D ( 'NONE', #4, #65, #35 ) ;
#84 = SURFACE_STYLE_USAGE ( .BOTH. , #67 ) ;
#85 = VERTEX_POINT ( 'NONE', #159 ) ;
#86 = DIRECTION ( 'NONE',  ( 0.000000000000000000, 0.000000000000000000, 1.000000000000000000 ) ) ;
#87 = EDGE_CURVE ( 'NONE', #127, #45, #5, .T. ) ;
#88 = ORIENTED_EDGE ( 'NONE', *, *, #113, .F. ) ;
#89 = EDGE_CURVE ( 'NONE', #121, #85, #57, .T. ) ;
#90 = DIRECTION ( 'NONE',  ( 0.000000000000000000, 0.000000000000000000, 1.000000000000000000 ) ) ;
#91 = CARTESIAN_POINT ( 'NONE',  ( 0.000000000000000000, 0.000000000000000000, 4.000000000000000000 ) ) ;
#92 = DIRECTION ( 'NONE',  ( -0.000000000000000000, -0.000000000000000000, -1.000000000000000000 ) ) ;
#93 = AXIS2_PLACEMENT_3D ( 'NONE', #178, #137, #49 ) ;
#94 = ADVANCED_FACE ( 'NONE', ( #72 ), #21, .T. ) ;
#95 = ORIENTED_EDGE ( 'NONE', *, *, #131, .F. ) ;
#96 = FACE_BOUND ( 'NONE', #170, .T. ) ;
#97 = FACE_OUTER_BOUND ( 'NONE', #23, .T. ) ;
#98 = PRODUCT_DEFINITION_CONTEXT ( 'detailed design', #16, 'design' ) ;
#99 = CYLINDRICAL_SURFACE ( 'NONE', #108, 8.250000000000001776 ) ;
#100 = ORIENTED_EDGE ( 'NONE', *, *, #47, .T. ) ;
#101 = DIRECTION ( 'NONE',  ( 0.000000000000000000, 0.000000000000000000, 1.000000000000000000 ) ) ;
#102 = CARTESIAN_POINT ( 'NONE',  ( 0.000000000000000000, 0.000000000000000000, 4.000000000000000000 ) ) ;
#103 =( NAMED_UNIT ( * ) PLANE_ANGLE_UNIT ( ) SI_UNIT ( $, .RADIAN. ) );
#104 = EDGE_CURVE ( 'NONE', #45, #8, #124, .T. ) ;
#105 =( GEOMETRIC_REPRESENTATION_CONTEXT ( 3 ) GLOBAL_UNCERTAINTY_ASSIGNED_CONTEXT ( ( #163 ) ) GLOBAL_UNIT_ASSIGNED_CONTEXT ( ( #115, #11, #192 ) ) REPRESENTATION_CONTEXT ( 'NONE', 'WORKASPACE' ) );
#106 = DIRECTION ( 'NONE',  ( -1.000000000000000000, 0.000000000000000000, 0.000000000000000000 ) ) ;
#107 = CIRCLE ( 'NONE', #9, 8.250000000000001776 ) ;
#108 = AXIS2_PLACEMENT_3D ( 'NONE', #199, #144, #106 ) ;
#109 = CARTESIAN_POINT ( 'NONE',  ( -8.250000000000001776, 0.000000000000000000, 4.000000000000000000 ) ) ;
#110 = DIRECTION ( 'NONE',  ( -0.000000000000000000, -0.000000000000000000, -1.000000000000000000 ) ) ;
#111 = FACE_OUTER_BOUND ( 'NONE', #12, .T. ) ;
#112 = CLOSED_SHELL ( 'NONE', ( #62, #94, #114, #44, #167, #31 ) ) ;
#113 = EDGE_CURVE ( 'NONE', #127, #79, #48, .T. ) ;
#114 = ADVANCED_FACE ( 'NONE', ( #157, #96 ), #75, .T. ) ;
#115 =( LENGTH_UNIT ( ) NAMED_UNIT ( * ) SI_UNIT ( .MILLI., .METRE. ) );
#116 =( NAMED_UNIT ( * ) SI_UNIT ( $, .STERADIAN. ) SOLID_ANGLE_UNIT ( ) );
#117 = DIRECTION ( 'NONE',  ( 0.000000000000000000, 0.000000000000000000, 1.000000000000000000 ) ) ;
#118 = FILL_AREA_STYLE_COLOUR ( '', #17 ) ;
#119 =( LENGTH_UNIT ( ) NAMED_UNIT ( * ) SI_UNIT ( .MILLI., .METRE. ) );
#120 = FACE_OUTER_BOUND ( 'NONE', #136, .T. ) ;
#121 = VERTEX_POINT ( 'NONE', #109 ) ;
#122 = PRESENTATION_STYLE_ASSIGNMENT (( #207 ) ) ;
#123 = CARTESIAN_POINT ( 'NONE',  ( 8.250000000000001776, 1.010333609296566747E-15, 4.000000000000000000 ) ) ;
#124 = LINE ( 'NONE', #128, #77 ) ;
#125 = EDGE_CURVE ( 'NONE', #85, #66, #200, .T. ) ;
#126 = CARTESIAN_POINT ( 'NONE',  ( -10.50000000000000000, 0.000000000000000000, 0.000000000000000000 ) ) ;
#127 = VERTEX_POINT ( 'NONE', #64 ) ;
#128 = CARTESIAN_POINT ( 'NONE',  ( -10.50000000000000000, 0.000000000000000000, 4.000000000000000000 ) ) ;
#129 = STYLED_ITEM ( 'NONE', ( #188 ), #179 ) ;
#130 = ORIENTED_EDGE ( 'NONE', *, *, #71, .F. ) ;
#131 = EDGE_CURVE ( 'NONE', #121, #13, #53, .T. ) ;
#132 = DIRECTION ( 'NONE',  ( -0.000000000000000000, -0.000000000000000000, -1.000000000000000000 ) ) ;
#133 = ORIENTED_EDGE ( 'NONE', *, *, #165, .T. ) ;
#134 = DIRECTION ( 'NONE',  ( 0.000000000000000000, 0.000000000000000000, 1.000000000000000000 ) ) ;
#135 = CARTESIAN_POINT ( 'NONE',  ( 0.000000000000000000, 0.000000000000000000, 0.000000000000000000 ) ) ;
#136 = EDGE_LOOP ( 'NONE', ( #88, #46, #51, #214 ) ) ;
#137 = DIRECTION ( 'NONE',  ( 0.000000000000000000, 0.000000000000000000, 1.000000000000000000 ) ) ;
#138 = CARTESIAN_POINT ( 'NONE',  ( 0.000000000000000000, 0.000000000000000000, 0.000000000000000000 ) ) ;
#139 = ADVANCED_BREP_SHAPE_REPRESENTATION ( 'bague lame', ( #179, #151 ), #174 ) ;
#140 = DIRECTION ( 'NONE',  ( 1.000000000000000000, 0.000000000000000000, 0.000000000000000000 ) ) ;
#141 = APPLICATION_PROTOCOL_DEFINITION ( 'draft international standard', 'automotive_design', 1998, #16 ) ;
#142 = DIRECTION ( 'NONE',  ( 0.000000000000000000, 0.000000000000000000, 1.000000000000000000 ) ) ;
#143 = CARTESIAN_POINT ( 'NONE',  ( -10.50000000000000000, 0.000000000000000000, 4.000000000000000000 ) ) ;
#144 = DIRECTION ( 'NONE',  ( -0.000000000000000000, -0.000000000000000000, -1.000000000000000000 ) ) ;
#145 = ORIENTED_EDGE ( 'NONE', *, *, #131, .T. ) ;
#146 = CARTESIAN_POINT ( 'NONE',  ( 8.250000000000001776, 1.010333609296566747E-15, 0.000000000000000000 ) ) ;
#147 = ORIENTED_EDGE ( 'NONE', *, *, #47, .F. ) ;
#148 = ORIENTED_EDGE ( 'NONE', *, *, #87, .F. ) ;
#149 = EDGE_CURVE ( 'NONE', #8, #79, #69, .T. ) ;
#150 = CARTESIAN_POINT ( 'NONE',  ( 0.000000000000000000, 0.000000000000000000, 0.000000000000000000 ) ) ;
#151 = AXIS2_PLACEMENT_3D ( 'NONE', #213, #86, #140 ) ;
#152 = CARTESIAN_POINT ( 'NONE',  ( 0.000000000000000000, 0.000000000000000000, 4.000000000000000000 ) ) ;
#153 = APPLICATION_CONTEXT ( 'automotive_design' ) ;
#154 = ORIENTED_EDGE ( 'NONE', *, *, #89, .T. ) ;
#155 = EDGE_CURVE ( 'NONE', #45, #127, #26, .T. ) ;
#156 = SURFACE_STYLE_FILL_AREA ( #37 ) ;
#157 = FACE_OUTER_BOUND ( 'NONE', #164, .T. ) ;
#158 = ORIENTED_EDGE ( 'NONE', *, *, #71, .T. ) ;
#159 = CARTESIAN_POINT ( 'NONE',  ( -8.250000000000001776, 0.000000000000000000, 0.000000000000000000 ) ) ;
#160 = CIRCLE ( 'NONE', #78, 8.250000000000001776 ) ;
#161 =( GEOMETRIC_REPRESENTATION_CONTEXT ( 3 ) GLOBAL_UNCERTAINTY_ASSIGNED_CONTEXT ( ( #194 ) ) GLOBAL_UNIT_ASSIGNED_CONTEXT ( ( #119, #14, #116 ) ) REPRESENTATION_CONTEXT ( 'NONE', 'WORKASPACE' ) );
#162 = PLANE ( 'NONE',  #39 ) ;
#163 = UNCERTAINTY_MEASURE_WITH_UNIT (LENGTH_MEASURE( 1.000000000000000082E-05 ), #115, 'distance_accuracy_value', 'NONE');
#164 = EDGE_LOOP ( 'NONE', ( #175, #15 ) ) ;
#165 = EDGE_CURVE ( 'NONE', #66, #85, #160, .T. ) ;
#166 = ORIENTED_EDGE ( 'NONE', *, *, #104, .F. ) ;
#167 = ADVANCED_FACE ( 'NONE', ( #120 ), #42, .T. ) ;
#168 = FILL_AREA_STYLE_COLOUR ( '', #197 ) ;
#169 = FILL_AREA_STYLE ('',( #168 ) ) ;
#170 = EDGE_LOOP ( 'NONE', ( #95, #183 ) ) ;
#171 = DIRECTION ( 'NONE',  ( 1.000000000000000000, 0.000000000000000000, 0.000000000000000000 ) ) ;
#172 = VECTOR ( 'NONE', #110, 1000.000000000000000 ) ;
#173 = APPLICATION_PROTOCOL_DEFINITION ( 'draft international standard', 'automotive_design', 1998, #153 ) ;
#174 =( GEOMETRIC_REPRESENTATION_CONTEXT ( 3 ) GLOBAL_UNCERTAINTY_ASSIGNED_CONTEXT ( ( #19 ) ) GLOBAL_UNIT_ASSIGNED_CONTEXT ( ( #184, #103, #180 ) ) REPRESENTATION_CONTEXT ( 'NONE', 'WORKASPACE' ) );
#175 = ORIENTED_EDGE ( 'NONE', *, *, #155, .T. ) ;
#176 = DIRECTION ( 'NONE',  ( -1.000000000000000000, 0.000000000000000000, 0.000000000000000000 ) ) ;
#177 = CARTESIAN_POINT ( 'NONE',  ( 0.000000000000000000, 0.000000000000000000, 0.000000000000000000 ) ) ;
#178 = CARTESIAN_POINT ( 'NONE',  ( 0.000000000000000000, 0.000000000000000000, 4.000000000000000000 ) ) ;
#179 = MANIFOLD_SOLID_BREP ( 'Boss.-Extru.1', #112 ) ;
#180 =( NAMED_UNIT ( * ) SI_UNIT ( $, .STERADIAN. ) SOLID_ANGLE_UNIT ( ) );
#181 = DIRECTION ( 'NONE',  ( 1.000000000000000000, 0.000000000000000000, 0.000000000000000000 ) ) ;
#182 = VECTOR ( 'NONE', #92, 1000.000000000000000 ) ;
#183 = ORIENTED_EDGE ( 'NONE', *, *, #206, .F. ) ;
#184 =( LENGTH_UNIT ( ) NAMED_UNIT ( * ) SI_UNIT ( .MILLI., .METRE. ) );
#185 = MECHANICAL_DESIGN_GEOMETRIC_PRESENTATION_REPRESENTATION (  '', ( #129 ), #161 ) ;
#186 = CARTESIAN_POINT ( 'NONE',  ( 0.000000000000000000, 0.000000000000000000, 0.000000000000000000 ) ) ;
#187 = EDGE_LOOP ( 'NONE', ( #43, #133 ) ) ;
#188 = PRESENTATION_STYLE_ASSIGNMENT (( #84 ) ) ;
#189 = ORIENTED_EDGE ( 'NONE', *, *, #113, .T. ) ;
#190 = PRESENTATION_LAYER_ASSIGNMENT (  '', '', ( #73 ) ) ;
#191 = CARTESIAN_POINT ( 'NONE',  ( 0.000000000000000000, 0.000000000000000000, 4.000000000000000000 ) ) ;
#192 =( NAMED_UNIT ( * ) SI_UNIT ( $, .STERADIAN. ) SOLID_ANGLE_UNIT ( ) );
#193 = DIRECTION ( 'NONE',  ( 1.000000000000000000, 0.000000000000000000, 0.000000000000000000 ) ) ;
#194 = UNCERTAINTY_MEASURE_WITH_UNIT (LENGTH_MEASURE( 1.000000000000000082E-05 ), #119, 'distance_accuracy_value', 'NONE');
#195 = PRODUCT_DEFINITION_FORMATION_WITH_SPECIFIED_SOURCE ( 'ANY', '', #205, .NOT_KNOWN. ) ;
#196 = DIRECTION ( 'NONE',  ( 0.000000000000000000, 0.000000000000000000, 1.000000000000000000 ) ) ;
#197 = COLOUR_RGB ( '',0.7529411764705882248, 0.7529411764705882248, 0.7529411764705882248 ) ;
#198 = DIRECTION ( 'NONE',  ( 1.000000000000000000, 0.000000000000000000, -0.000000000000000000 ) ) ;
#199 = CARTESIAN_POINT ( 'NONE',  ( 0.000000000000000000, 0.000000000000000000, 4.000000000000000000 ) ) ;
#200 = CIRCLE ( 'NONE', #63, 8.250000000000001776 ) ;
#201 = CARTESIAN_POINT ( 'NONE',  ( 0.000000000000000000, 0.000000000000000000, 4.000000000000000000 ) ) ;
#202 = DIRECTION ( 'NONE',  ( 1.000000000000000000, 0.000000000000000000, 0.000000000000000000 ) ) ;
#203 = MECHANICAL_DESIGN_GEOMETRIC_PRESENTATION_REPRESENTATION (  '', ( #73 ), #105 ) ;
#204 = DIRECTION ( 'NONE',  ( 0.000000000000000000, 0.000000000000000000, 1.000000000000000000 ) ) ;
#205 = PRODUCT ( 'bague lame', 'bague lame', '', ( #20 ) ) ;
#206 = EDGE_CURVE ( 'NONE', #13, #121, #107, .T. ) ;
#207 = SURFACE_STYLE_USAGE ( .BOTH. , #82 ) ;
#208 = ORIENTED_EDGE ( 'NONE', *, *, #149, .F. ) ;
#209 = DIRECTION ( 'NONE',  ( -1.000000000000000000, 0.000000000000000000, 0.000000000000000000 ) ) ;
#210 = SURFACE_STYLE_FILL_AREA ( #169 ) ;
#211 = DIRECTION ( 'NONE',  ( 1.000000000000000000, 0.000000000000000000, 0.000000000000000000 ) ) ;
#212 = AXIS2_PLACEMENT_3D ( 'NONE', #102, #117, #211 ) ;
#213 = CARTESIAN_POINT ( 'NONE',  ( 0.000000000000000000, 0.000000000000000000, 0.000000000000000000 ) ) ;
#214 = ORIENTED_EDGE ( 'NONE', *, *, #149, .T. ) ;
ENDSEC;
END-ISO-10303-21;
