ISO-10303-21;
HEADER;
/* Generated by software containing ST-Developer
 * from STEP Tools, Inc. (www.steptools.com) 
 */

FILE_DESCRIPTION(
/* description */ (''),
/* implementation_level */ '2;1');

FILE_NAME(
/* name */ 'Pive1VD v1.step',
/* time_stamp */ '2023-06-10T15:25:26+02:00',
/* author */ (''),
/* organization */ (''),
/* preprocessor_version */ 'ST-DEVELOPER v19.2',
/* originating_system */ 'Autodesk Translation Framework v12.4.0.73',
/* authorisation */ '');

FILE_SCHEMA (('AUTOMOTIVE_DESIGN { 1 0 10303 214 3 1 1 }'));
ENDSEC;

DATA;
#10=MECHANICAL_DESIGN_GEOMETRIC_PRESENTATION_REPRESENTATION('',(#13),#377);
#11=SHAPE_REPRESENTATION_RELATIONSHIP('SRR','None',#384,#12);
#12=ADVANCED_BREP_SHAPE_REPRESENTATION('',(#14),#376);
#13=STYLED_ITEM('',(#393),#14);
#14=MANIFOLD_SOLID_BREP('Corps1',#216);
#15=LINE('',#326,#33);
#16=LINE('',#331,#34);
#17=LINE('',#335,#35);
#18=LINE('',#345,#36);
#19=LINE('',#346,#37);
#20=LINE('',#349,#38);
#21=LINE('',#351,#39);
#22=LINE('',#352,#40);
#23=LINE('',#355,#41);
#24=LINE('',#357,#42);
#25=LINE('',#359,#43);
#26=LINE('',#360,#44);
#27=LINE('',#362,#45);
#28=LINE('',#364,#46);
#29=LINE('',#365,#47);
#30=LINE('',#368,#48);
#31=LINE('',#369,#49);
#32=LINE('',#371,#50);
#33=VECTOR('',#264,1.55);
#34=VECTOR('',#271,2.5);
#35=VECTOR('',#276,3.5);
#36=VECTOR('',#287,10.);
#37=VECTOR('',#288,10.);
#38=VECTOR('',#291,10.);
#39=VECTOR('',#292,10.);
#40=VECTOR('',#293,10.);
#41=VECTOR('',#296,10.);
#42=VECTOR('',#297,10.);
#43=VECTOR('',#298,10.);
#44=VECTOR('',#299,10.);
#45=VECTOR('',#302,10.);
#46=VECTOR('',#303,10.);
#47=VECTOR('',#304,10.);
#48=VECTOR('',#307,10.);
#49=VECTOR('',#308,10.);
#50=VECTOR('',#311,10.);
#51=CYLINDRICAL_SURFACE('',#233,1.55);
#52=CYLINDRICAL_SURFACE('',#236,2.5);
#53=CYLINDRICAL_SURFACE('',#239,3.5);
#54=FACE_BOUND('',#71,.T.);
#55=FACE_BOUND('',#80,.T.);
#56=FACE_BOUND('',#83,.T.);
#57=FACE_OUTER_BOUND('',#70,.T.);
#58=FACE_OUTER_BOUND('',#72,.T.);
#59=FACE_OUTER_BOUND('',#73,.T.);
#60=FACE_OUTER_BOUND('',#74,.T.);
#61=FACE_OUTER_BOUND('',#75,.T.);
#62=FACE_OUTER_BOUND('',#76,.T.);
#63=FACE_OUTER_BOUND('',#77,.T.);
#64=FACE_OUTER_BOUND('',#78,.T.);
#65=FACE_OUTER_BOUND('',#79,.T.);
#66=FACE_OUTER_BOUND('',#81,.T.);
#67=FACE_OUTER_BOUND('',#82,.T.);
#68=FACE_OUTER_BOUND('',#84,.T.);
#69=FACE_OUTER_BOUND('',#85,.T.);
#70=EDGE_LOOP('',(#139));
#71=EDGE_LOOP('',(#140));
#72=EDGE_LOOP('',(#141,#142,#143,#144));
#73=EDGE_LOOP('',(#145,#146,#147,#148));
#74=EDGE_LOOP('',(#149));
#75=EDGE_LOOP('',(#150,#151,#152,#153,#154,#155,#156));
#76=EDGE_LOOP('',(#157,#158,#159,#160));
#77=EDGE_LOOP('',(#161,#162,#163,#164));
#78=EDGE_LOOP('',(#165,#166,#167,#168,#169));
#79=EDGE_LOOP('',(#170,#171,#172,#173,#174));
#80=EDGE_LOOP('',(#175));
#81=EDGE_LOOP('',(#176,#177,#178,#179));
#82=EDGE_LOOP('',(#180,#181,#182,#183,#184));
#83=EDGE_LOOP('',(#185));
#84=EDGE_LOOP('',(#186,#187,#188));
#85=EDGE_LOOP('',(#189,#190,#191,#192));
#86=CIRCLE('',#231,3.5);
#87=CIRCLE('',#232,2.5);
#88=CIRCLE('',#234,1.55);
#89=CIRCLE('',#235,1.55);
#90=CIRCLE('',#237,2.5);
#91=CIRCLE('',#240,3.5);
#92=CIRCLE('',#241,3.5);
#93=CIRCLE('',#242,3.5);
#94=CIRCLE('',#243,3.5);
#95=VERTEX_POINT('',#318);
#96=VERTEX_POINT('',#320);
#97=VERTEX_POINT('',#323);
#98=VERTEX_POINT('',#325);
#99=VERTEX_POINT('',#329);
#100=VERTEX_POINT('',#334);
#101=VERTEX_POINT('',#336);
#102=VERTEX_POINT('',#338);
#103=VERTEX_POINT('',#340);
#104=VERTEX_POINT('',#344);
#105=VERTEX_POINT('',#348);
#106=VERTEX_POINT('',#350);
#107=VERTEX_POINT('',#354);
#108=VERTEX_POINT('',#356);
#109=VERTEX_POINT('',#358);
#110=VERTEX_POINT('',#363);
#111=VERTEX_POINT('',#367);
#112=EDGE_CURVE('',#95,#95,#86,.T.);
#113=EDGE_CURVE('',#96,#96,#87,.T.);
#114=EDGE_CURVE('',#97,#97,#88,.T.);
#115=EDGE_CURVE('',#97,#98,#15,.T.);
#116=EDGE_CURVE('',#98,#98,#89,.T.);
#117=EDGE_CURVE('',#99,#99,#90,.T.);
#118=EDGE_CURVE('',#99,#96,#16,.T.);
#119=EDGE_CURVE('',#95,#100,#17,.T.);
#120=EDGE_CURVE('',#100,#101,#91,.T.);
#121=EDGE_CURVE('',#102,#101,#92,.T.);
#122=EDGE_CURVE('',#103,#102,#93,.T.);
#123=EDGE_CURVE('',#103,#100,#94,.T.);
#124=EDGE_CURVE('',#104,#101,#18,.T.);
#125=EDGE_CURVE('',#103,#104,#19,.T.);
#126=EDGE_CURVE('',#102,#105,#20,.T.);
#127=EDGE_CURVE('',#105,#106,#21,.T.);
#128=EDGE_CURVE('',#106,#103,#22,.T.);
#129=EDGE_CURVE('',#104,#107,#23,.T.);
#130=EDGE_CURVE('',#108,#107,#24,.T.);
#131=EDGE_CURVE('',#109,#108,#25,.T.);
#132=EDGE_CURVE('',#101,#109,#26,.T.);
#133=EDGE_CURVE('',#109,#102,#27,.T.);
#134=EDGE_CURVE('',#110,#108,#28,.T.);
#135=EDGE_CURVE('',#105,#110,#29,.T.);
#136=EDGE_CURVE('',#111,#110,#30,.T.);
#137=EDGE_CURVE('',#106,#111,#31,.T.);
#138=EDGE_CURVE('',#107,#111,#32,.T.);
#139=ORIENTED_EDGE('',*,*,#112,.T.);
#140=ORIENTED_EDGE('',*,*,#113,.F.);
#141=ORIENTED_EDGE('',*,*,#114,.F.);
#142=ORIENTED_EDGE('',*,*,#115,.T.);
#143=ORIENTED_EDGE('',*,*,#116,.F.);
#144=ORIENTED_EDGE('',*,*,#115,.F.);
#145=ORIENTED_EDGE('',*,*,#117,.F.);
#146=ORIENTED_EDGE('',*,*,#118,.T.);
#147=ORIENTED_EDGE('',*,*,#113,.T.);
#148=ORIENTED_EDGE('',*,*,#118,.F.);
#149=ORIENTED_EDGE('',*,*,#117,.T.);
#150=ORIENTED_EDGE('',*,*,#112,.F.);
#151=ORIENTED_EDGE('',*,*,#119,.T.);
#152=ORIENTED_EDGE('',*,*,#120,.T.);
#153=ORIENTED_EDGE('',*,*,#121,.F.);
#154=ORIENTED_EDGE('',*,*,#122,.F.);
#155=ORIENTED_EDGE('',*,*,#123,.T.);
#156=ORIENTED_EDGE('',*,*,#119,.F.);
#157=ORIENTED_EDGE('',*,*,#124,.T.);
#158=ORIENTED_EDGE('',*,*,#120,.F.);
#159=ORIENTED_EDGE('',*,*,#123,.F.);
#160=ORIENTED_EDGE('',*,*,#125,.T.);
#161=ORIENTED_EDGE('',*,*,#122,.T.);
#162=ORIENTED_EDGE('',*,*,#126,.T.);
#163=ORIENTED_EDGE('',*,*,#127,.T.);
#164=ORIENTED_EDGE('',*,*,#128,.T.);
#165=ORIENTED_EDGE('',*,*,#124,.F.);
#166=ORIENTED_EDGE('',*,*,#129,.T.);
#167=ORIENTED_EDGE('',*,*,#130,.F.);
#168=ORIENTED_EDGE('',*,*,#131,.F.);
#169=ORIENTED_EDGE('',*,*,#132,.F.);
#170=ORIENTED_EDGE('',*,*,#133,.F.);
#171=ORIENTED_EDGE('',*,*,#131,.T.);
#172=ORIENTED_EDGE('',*,*,#134,.F.);
#173=ORIENTED_EDGE('',*,*,#135,.F.);
#174=ORIENTED_EDGE('',*,*,#126,.F.);
#175=ORIENTED_EDGE('',*,*,#116,.T.);
#176=ORIENTED_EDGE('',*,*,#127,.F.);
#177=ORIENTED_EDGE('',*,*,#135,.T.);
#178=ORIENTED_EDGE('',*,*,#136,.F.);
#179=ORIENTED_EDGE('',*,*,#137,.F.);
#180=ORIENTED_EDGE('',*,*,#128,.F.);
#181=ORIENTED_EDGE('',*,*,#137,.T.);
#182=ORIENTED_EDGE('',*,*,#138,.F.);
#183=ORIENTED_EDGE('',*,*,#129,.F.);
#184=ORIENTED_EDGE('',*,*,#125,.F.);
#185=ORIENTED_EDGE('',*,*,#114,.T.);
#186=ORIENTED_EDGE('',*,*,#121,.T.);
#187=ORIENTED_EDGE('',*,*,#132,.T.);
#188=ORIENTED_EDGE('',*,*,#133,.T.);
#189=ORIENTED_EDGE('',*,*,#138,.T.);
#190=ORIENTED_EDGE('',*,*,#136,.T.);
#191=ORIENTED_EDGE('',*,*,#134,.T.);
#192=ORIENTED_EDGE('',*,*,#130,.T.);
#193=PLANE('',#230);
#194=PLANE('',#238);
#195=PLANE('',#244);
#196=PLANE('',#245);
#197=PLANE('',#246);
#198=PLANE('',#247);
#199=PLANE('',#248);
#200=PLANE('',#249);
#201=PLANE('',#250);
#202=PLANE('',#251);
#203=ADVANCED_FACE('',(#57,#54),#193,.T.);
#204=ADVANCED_FACE('',(#58),#51,.F.);
#205=ADVANCED_FACE('',(#59),#52,.T.);
#206=ADVANCED_FACE('',(#60),#194,.T.);
#207=ADVANCED_FACE('',(#61),#53,.T.);
#208=ADVANCED_FACE('',(#62),#195,.F.);
#209=ADVANCED_FACE('',(#63),#196,.T.);
#210=ADVANCED_FACE('',(#64),#197,.T.);
#211=ADVANCED_FACE('',(#65,#55),#198,.T.);
#212=ADVANCED_FACE('',(#66),#199,.T.);
#213=ADVANCED_FACE('',(#67,#56),#200,.T.);
#214=ADVANCED_FACE('',(#68),#201,.T.);
#215=ADVANCED_FACE('',(#69),#202,.T.);
#216=CLOSED_SHELL('',(#203,#204,#205,#206,#207,#208,#209,#210,#211,#212,
#213,#214,#215));
#217=DERIVED_UNIT_ELEMENT(#219,1.);
#218=DERIVED_UNIT_ELEMENT(#379,-3.);
#219=(
MASS_UNIT()
NAMED_UNIT(*)
SI_UNIT(.KILO.,.GRAM.)
);
#220=DERIVED_UNIT((#217,#218));
#221=MEASURE_REPRESENTATION_ITEM('density measure',
POSITIVE_RATIO_MEASURE(7850.),#220);
#222=PROPERTY_DEFINITION_REPRESENTATION(#227,#224);
#223=PROPERTY_DEFINITION_REPRESENTATION(#228,#225);
#224=REPRESENTATION('material name',(#226),#376);
#225=REPRESENTATION('density',(#221),#376);
#226=DESCRIPTIVE_REPRESENTATION_ITEM('Acier','Acier');
#227=PROPERTY_DEFINITION('material property','material name',#386);
#228=PROPERTY_DEFINITION('material property','density of part',#386);
#229=AXIS2_PLACEMENT_3D('',#316,#252,#253);
#230=AXIS2_PLACEMENT_3D('',#317,#254,#255);
#231=AXIS2_PLACEMENT_3D('',#319,#256,#257);
#232=AXIS2_PLACEMENT_3D('',#321,#258,#259);
#233=AXIS2_PLACEMENT_3D('',#322,#260,#261);
#234=AXIS2_PLACEMENT_3D('',#324,#262,#263);
#235=AXIS2_PLACEMENT_3D('',#327,#265,#266);
#236=AXIS2_PLACEMENT_3D('',#328,#267,#268);
#237=AXIS2_PLACEMENT_3D('',#330,#269,#270);
#238=AXIS2_PLACEMENT_3D('',#332,#272,#273);
#239=AXIS2_PLACEMENT_3D('',#333,#274,#275);
#240=AXIS2_PLACEMENT_3D('',#337,#277,#278);
#241=AXIS2_PLACEMENT_3D('',#339,#279,#280);
#242=AXIS2_PLACEMENT_3D('',#341,#281,#282);
#243=AXIS2_PLACEMENT_3D('',#342,#283,#284);
#244=AXIS2_PLACEMENT_3D('',#343,#285,#286);
#245=AXIS2_PLACEMENT_3D('',#347,#289,#290);
#246=AXIS2_PLACEMENT_3D('',#353,#294,#295);
#247=AXIS2_PLACEMENT_3D('',#361,#300,#301);
#248=AXIS2_PLACEMENT_3D('',#366,#305,#306);
#249=AXIS2_PLACEMENT_3D('',#370,#309,#310);
#250=AXIS2_PLACEMENT_3D('',#372,#312,#313);
#251=AXIS2_PLACEMENT_3D('',#373,#314,#315);
#252=DIRECTION('axis',(0.,0.,1.));
#253=DIRECTION('refdir',(1.,0.,0.));
#254=DIRECTION('center_axis',(0.,0.,1.));
#255=DIRECTION('ref_axis',(1.,0.,0.));
#256=DIRECTION('center_axis',(0.,0.,1.));
#257=DIRECTION('ref_axis',(1.,0.,0.));
#258=DIRECTION('center_axis',(0.,0.,1.));
#259=DIRECTION('ref_axis',(-1.,0.,0.));
#260=DIRECTION('center_axis',(1.,0.,0.));
#261=DIRECTION('ref_axis',(0.,-1.,0.));
#262=DIRECTION('center_axis',(1.,0.,0.));
#263=DIRECTION('ref_axis',(0.,-1.,0.));
#264=DIRECTION('',(1.,0.,0.));
#265=DIRECTION('center_axis',(-1.,0.,0.));
#266=DIRECTION('ref_axis',(0.,-1.,0.));
#267=DIRECTION('center_axis',(0.,0.,1.));
#268=DIRECTION('ref_axis',(-1.,0.,0.));
#269=DIRECTION('center_axis',(0.,0.,1.));
#270=DIRECTION('ref_axis',(-1.,0.,0.));
#271=DIRECTION('',(0.,0.,-1.));
#272=DIRECTION('center_axis',(0.,0.,1.));
#273=DIRECTION('ref_axis',(-1.,0.,0.));
#274=DIRECTION('center_axis',(0.,0.,1.));
#275=DIRECTION('ref_axis',(1.,0.,0.));
#276=DIRECTION('',(0.,0.,-1.));
#277=DIRECTION('center_axis',(0.,0.,1.));
#278=DIRECTION('ref_axis',(1.,0.,0.));
#279=DIRECTION('center_axis',(0.,0.,-1.));
#280=DIRECTION('ref_axis',(1.,0.,0.));
#281=DIRECTION('center_axis',(0.,0.,-1.));
#282=DIRECTION('ref_axis',(1.,0.,0.));
#283=DIRECTION('center_axis',(0.,0.,1.));
#284=DIRECTION('ref_axis',(1.,0.,0.));
#285=DIRECTION('center_axis',(0.,0.,1.));
#286=DIRECTION('ref_axis',(1.,0.,0.));
#287=DIRECTION('',(1.,0.,0.));
#288=DIRECTION('',(0.,-1.,0.));
#289=DIRECTION('center_axis',(0.,0.,1.));
#290=DIRECTION('ref_axis',(1.,0.,0.));
#291=DIRECTION('',(0.,1.,0.));
#292=DIRECTION('',(-1.,0.,0.));
#293=DIRECTION('',(0.,-1.,0.));
#294=DIRECTION('center_axis',(0.,-1.,0.));
#295=DIRECTION('ref_axis',(-1.,0.,0.));
#296=DIRECTION('',(0.,0.,-1.));
#297=DIRECTION('',(-1.,0.,0.));
#298=DIRECTION('',(0.,0.,-1.));
#299=DIRECTION('',(1.,0.,0.));
#300=DIRECTION('center_axis',(1.,0.,0.));
#301=DIRECTION('ref_axis',(0.,-1.,0.));
#302=DIRECTION('',(0.,1.,0.));
#303=DIRECTION('',(0.,-1.,0.));
#304=DIRECTION('',(0.,0.,-1.));
#305=DIRECTION('center_axis',(0.,1.,0.));
#306=DIRECTION('ref_axis',(1.,0.,0.));
#307=DIRECTION('',(1.,0.,0.));
#308=DIRECTION('',(0.,0.,-1.));
#309=DIRECTION('center_axis',(-1.,0.,0.));
#310=DIRECTION('ref_axis',(0.,1.,0.));
#311=DIRECTION('',(0.,1.,0.));
#312=DIRECTION('center_axis',(0.,0.,1.));
#313=DIRECTION('ref_axis',(1.,0.,0.));
#314=DIRECTION('center_axis',(0.,0.,-1.));
#315=DIRECTION('ref_axis',(-1.,0.,0.));
#316=CARTESIAN_POINT('',(0.,0.,0.));
#317=CARTESIAN_POINT('Origin',(1.24999997206032,0.749999983236194,3.));
#318=CARTESIAN_POINT('',(-2.25000002793968,0.749999983236193,3.));
#319=CARTESIAN_POINT('Origin',(1.24999997206032,0.749999983236194,3.));
#320=CARTESIAN_POINT('',(3.74999997206032,0.749999983236194,3.));
#321=CARTESIAN_POINT('Origin',(1.24999997206032,0.749999983236194,3.));
#322=CARTESIAN_POINT('Origin',(0.,3.00000004470348,-7.00000010430813));
#323=CARTESIAN_POINT('',(0.,4.55000004470348,-7.00000010430813));
#324=CARTESIAN_POINT('Origin',(0.,3.00000004470348,-7.00000010430813));
#325=CARTESIAN_POINT('',(4.75,4.55000004470348,-7.00000010430813));
#326=CARTESIAN_POINT('',(0.,4.55000004470348,-7.00000010430813));
#327=CARTESIAN_POINT('Origin',(4.75,3.00000004470348,-7.00000010430813));
#328=CARTESIAN_POINT('Origin',(1.24999997206032,0.749999983236194,7.));
#329=CARTESIAN_POINT('',(3.74999997206032,0.749999983236194,15.));
#330=CARTESIAN_POINT('Origin',(1.24999997206032,0.749999983236194,15.));
#331=CARTESIAN_POINT('',(3.74999997206032,0.749999983236194,7.));
#332=CARTESIAN_POINT('Origin',(1.24999997206032,0.749999983236194,15.));
#333=CARTESIAN_POINT('Origin',(1.24999997206032,0.749999983236194,0.));
#334=CARTESIAN_POINT('',(-2.25000002793968,0.749999983236193,0.));
#335=CARTESIAN_POINT('',(-2.25000002793968,0.749999983236193,0.));
#336=CARTESIAN_POINT('',(4.66869855853233,0.,0.));
#337=CARTESIAN_POINT('Origin',(1.24999997206032,0.749999983236194,0.));
#338=CARTESIAN_POINT('',(4.75,0.749999983236194,0.));
#339=CARTESIAN_POINT('Origin',(1.24999997206032,0.749999983236194,0.));
#340=CARTESIAN_POINT('',(0.,4.0191742015747,0.));
#341=CARTESIAN_POINT('Origin',(1.24999997206032,0.749999983236194,0.));
#342=CARTESIAN_POINT('Origin',(1.24999997206032,0.749999983236194,0.));
#343=CARTESIAN_POINT('Origin',(1.24999997206032,0.749999983236194,0.));
#344=CARTESIAN_POINT('',(0.,0.,0.));
#345=CARTESIAN_POINT('',(0.,0.,0.));
#346=CARTESIAN_POINT('',(0.,6.00000008940697,0.));
#347=CARTESIAN_POINT('Origin',(2.375,3.00000004470348,0.));
#348=CARTESIAN_POINT('',(4.75,6.00000008940697,0.));
#349=CARTESIAN_POINT('',(4.75,0.,0.));
#350=CARTESIAN_POINT('',(0.,6.00000008940697,0.));
#351=CARTESIAN_POINT('',(4.75,6.00000008940697,0.));
#352=CARTESIAN_POINT('',(0.,6.00000008940697,0.));
#353=CARTESIAN_POINT('Origin',(4.75,0.,0.));
#354=CARTESIAN_POINT('',(0.,0.,-13.));
#355=CARTESIAN_POINT('',(0.,0.,0.));
#356=CARTESIAN_POINT('',(4.75,0.,-13.));
#357=CARTESIAN_POINT('',(0.,0.,-13.));
#358=CARTESIAN_POINT('',(4.75,0.,0.));
#359=CARTESIAN_POINT('',(4.75,0.,0.));
#360=CARTESIAN_POINT('',(0.,0.,0.));
#361=CARTESIAN_POINT('Origin',(4.75,6.00000008940697,0.));
#362=CARTESIAN_POINT('',(4.75,0.,0.));
#363=CARTESIAN_POINT('',(4.75,6.00000008940697,-13.));
#364=CARTESIAN_POINT('',(4.75,0.,-13.));
#365=CARTESIAN_POINT('',(4.75,6.00000008940697,0.));
#366=CARTESIAN_POINT('Origin',(0.,6.00000008940697,0.));
#367=CARTESIAN_POINT('',(0.,6.00000008940697,-13.));
#368=CARTESIAN_POINT('',(4.75,6.00000008940697,-13.));
#369=CARTESIAN_POINT('',(0.,6.00000008940697,0.));
#370=CARTESIAN_POINT('Origin',(0.,0.,0.));
#371=CARTESIAN_POINT('',(0.,6.00000008940697,-13.));
#372=CARTESIAN_POINT('Origin',(2.375,3.00000004470348,0.));
#373=CARTESIAN_POINT('Origin',(2.375,3.00000004470348,-13.));
#374=UNCERTAINTY_MEASURE_WITH_UNIT(LENGTH_MEASURE(0.01),#378,
'DISTANCE_ACCURACY_VALUE',
'Maximum model space distance between geometric entities at asserted c
onnectivities');
#375=UNCERTAINTY_MEASURE_WITH_UNIT(LENGTH_MEASURE(0.01),#378,
'DISTANCE_ACCURACY_VALUE',
'Maximum model space distance between geometric entities at asserted c
onnectivities');
#376=(
GEOMETRIC_REPRESENTATION_CONTEXT(3)
GLOBAL_UNCERTAINTY_ASSIGNED_CONTEXT((#374))
GLOBAL_UNIT_ASSIGNED_CONTEXT((#378,#380,#381))
REPRESENTATION_CONTEXT('','3D')
);
#377=(
GEOMETRIC_REPRESENTATION_CONTEXT(3)
GLOBAL_UNCERTAINTY_ASSIGNED_CONTEXT((#375))
GLOBAL_UNIT_ASSIGNED_CONTEXT((#378,#380,#381))
REPRESENTATION_CONTEXT('','3D')
);
#378=(
LENGTH_UNIT()
NAMED_UNIT(*)
SI_UNIT(.MILLI.,.METRE.)
);
#379=(
LENGTH_UNIT()
NAMED_UNIT(*)
SI_UNIT($,.METRE.)
);
#380=(
NAMED_UNIT(*)
PLANE_ANGLE_UNIT()
SI_UNIT($,.RADIAN.)
);
#381=(
NAMED_UNIT(*)
SI_UNIT($,.STERADIAN.)
SOLID_ANGLE_UNIT()
);
#382=SHAPE_DEFINITION_REPRESENTATION(#383,#384);
#383=PRODUCT_DEFINITION_SHAPE('',$,#386);
#384=SHAPE_REPRESENTATION('',(#229),#376);
#385=PRODUCT_DEFINITION_CONTEXT('part definition',#390,'design');
#386=PRODUCT_DEFINITION('Pi\X\E8ve1VD','Pi\X\E8ve1VD v1',#387,#385);
#387=PRODUCT_DEFINITION_FORMATION('',$,#392);
#388=PRODUCT_RELATED_PRODUCT_CATEGORY('Pi\X\E8ve1VD v1','Pi\X\E8ve1VD 
v1',(#392));
#389=APPLICATION_PROTOCOL_DEFINITION('international standard',
'automotive_design',2009,#390);
#390=APPLICATION_CONTEXT(
'Core Data for Automotive Mechanical Design Process');
#391=PRODUCT_CONTEXT('part definition',#390,'mechanical');
#392=PRODUCT('Pi\X\E8ve1VD','Pi\X\E8ve1VD v1',$,(#391));
#393=PRESENTATION_STYLE_ASSIGNMENT((#394));
#394=SURFACE_STYLE_USAGE(.BOTH.,#395);
#395=SURFACE_SIDE_STYLE('',(#396));
#396=SURFACE_STYLE_FILL_AREA(#397);
#397=FILL_AREA_STYLE('Acier - Satin\X\E9',(#398));
#398=FILL_AREA_STYLE_COLOUR('Acier - Satin\X\E9',#399);
#399=COLOUR_RGB('Acier - Satin\X\E9',0.627450980392157,0.627450980392157,
0.627450980392157);
ENDSEC;
END-ISO-10303-21;
