ISO-10303-21;
HEADER;

/* File generated by Shapr3D Version 3.0 */

FILE_DESCRIPTION(('HOOPS Exchange Step'),'2;1');

FILE_NAME('/var/folders/83/0gpntqd57k5gprxsgst6kn580000gn/T/com.shapr3d.shapr/export/temp_export',
'2023-05-26T16:31:37+02:00',
('loopandco'),
('Shapr3D Limited'),
'HOOPS Exchange 2022.2',
'Shapr3D',
'Authorized');

FILE_SCHEMA( ('AUTOMOTIVE_DESIGN { 1 0 10303 214 1 1 1 1 }') );

ENDSEC;

DATA;
#3=(NAMED_UNIT(*)PLANE_ANGLE_UNIT()SI_UNIT($,.RADIAN.));
#4=PLANE_ANGLE_MEASURE_WITH_UNIT(PLANE_ANGLE_MEASURE(0.0174532925),#3);
#5=(CONVERSION_BASED_UNIT('DEGREE',#4)NAMED_UNIT(#6)PLANE_ANGLE_UNIT());
#6=DIMENSIONAL_EXPONENTS(0.,0.,0.,0.,0.,0.,0.);
#7=(NAMED_UNIT(*)SI_UNIT($,.STERADIAN.)SOLID_ANGLE_UNIT());
#8=(LENGTH_UNIT()NAMED_UNIT(*)SI_UNIT(.MILLI.,.METRE.));
#9=UNCERTAINTY_MEASURE_WITH_UNIT(LENGTH_MEASURE(1.000000E-05),#8,'DISTANCE_ACCURACY_VALUE','Maximum Tolerance applied to model');
#10=(GEOMETRIC_REPRESENTATION_CONTEXT(3)GLOBAL_UNCERTAINTY_ASSIGNED_CONTEXT((#9))GLOBAL_UNIT_ASSIGNED_CONTEXT((#8,#5,#7))REPRESENTATION_CONTEXT('','root'));
#12=CARTESIAN_POINT('',(0.,0.,0.));
#13=DIRECTION('',(0.,0.,1.));
#14=DIRECTION('',(1.,0.,0.));
#15=AXIS2_PLACEMENT_3D('TS3D_PRODUCT_CSYS',#12,#13,#14);
#27=CARTESIAN_POINT('',(152.,0.,3.));
#28=DIRECTION('',(0.,-1.,0.));
#29=DIRECTION('',(0.,0.,-1.));
#30=AXIS2_PLACEMENT_3D('',#27,#28,#29);
#31=PLANE('',#30);
#32=CARTESIAN_POINT('',(232.,0.,2.));
#33=VERTEX_POINT('',#32);
#34=CARTESIAN_POINT('',(152.,0.,2.));
#35=VERTEX_POINT('',#34);
#36=CARTESIAN_POINT('',(232.,0.,2.));
#37=DIRECTION('',(-1.,0.,0.));
#38=VECTOR('',#37,80.);
#39=LINE('',#36,#38);
#40=EDGE_CURVE('',#33,#35,#39,.T.);
#41=ORIENTED_EDGE('',*,*,#40,.F.);
#42=CARTESIAN_POINT('',(232.,0.,5.));
#43=VERTEX_POINT('',#42);
#44=CARTESIAN_POINT('',(232.,0.,5.));
#45=DIRECTION('',(0.,0.,-1.));
#46=VECTOR('',#45,3.);
#47=LINE('',#44,#46);
#48=EDGE_CURVE('',#43,#33,#47,.T.);
#49=ORIENTED_EDGE('',*,*,#48,.F.);
#50=CARTESIAN_POINT('',(152.,0.,5.));
#51=VERTEX_POINT('',#50);
#52=CARTESIAN_POINT('',(232.,0.,5.));
#53=DIRECTION('',(-1.,0.,0.));
#54=VECTOR('',#53,80.);
#55=LINE('',#52,#54);
#56=EDGE_CURVE('',#43,#51,#55,.T.);
#57=ORIENTED_EDGE('',*,*,#56,.T.);
#58=CARTESIAN_POINT('',(152.,0.,5.));
#59=DIRECTION('',(0.,0.,-1.));
#60=VECTOR('',#59,3.);
#61=LINE('',#58,#60);
#62=EDGE_CURVE('',#51,#35,#61,.T.);
#63=ORIENTED_EDGE('',*,*,#62,.T.);
#64=EDGE_LOOP('',(#41,#49,#57,#63));
#65=FACE_BOUND('',#64,.T.);
#66=ADVANCED_FACE('',(#65),#31,.T.);
#67=CARTESIAN_POINT('',(232.,27.5,3.));
#68=DIRECTION('',(-1.,0.,0.));
#69=DIRECTION('',(0.,0.,1.));
#70=AXIS2_PLACEMENT_3D('',#67,#68,#69);
#71=PLANE('',#70);
#72=ORIENTED_EDGE('',*,*,#48,.T.);
#73=CARTESIAN_POINT('',(232.,120.,2.));
#74=VERTEX_POINT('',#73);
#75=CARTESIAN_POINT('',(232.,0.,2.));
#76=DIRECTION('',(0.,1.,0.));
#77=VECTOR('',#76,120.);
#78=LINE('',#75,#77);
#79=EDGE_CURVE('',#33,#74,#78,.T.);
#80=ORIENTED_EDGE('',*,*,#79,.T.);
#81=CARTESIAN_POINT('',(232.,120.,5.));
#82=VERTEX_POINT('',#81);
#83=CARTESIAN_POINT('',(232.,120.,5.));
#84=DIRECTION('',(0.,0.,-1.));
#85=VECTOR('',#84,3.);
#86=LINE('',#83,#85);
#87=EDGE_CURVE('',#82,#74,#86,.T.);
#88=ORIENTED_EDGE('',*,*,#87,.F.);
#89=CARTESIAN_POINT('',(232.,0.,5.));
#90=DIRECTION('',(0.,1.,0.));
#91=VECTOR('',#90,120.);
#92=LINE('',#89,#91);
#93=EDGE_CURVE('',#43,#82,#92,.T.);
#94=ORIENTED_EDGE('',*,*,#93,.F.);
#95=EDGE_LOOP('',(#72,#80,#88,#94));
#96=FACE_BOUND('',#95,.T.);
#97=ADVANCED_FACE('',(#96),#71,.F.);
#98=CARTESIAN_POINT('',(222.,10.,3.));
#99=DIRECTION('',(0.,0.,-1.));
#100=DIRECTION('',(-1.,0.,0.));
#101=AXIS2_PLACEMENT_3D('',#98,#99,#100);
#102=CYLINDRICAL_SURFACE('',#101,5.);
#103=CARTESIAN_POINT('',(217.,10.,3.));
#104=VERTEX_POINT('',#103);
#105=CARTESIAN_POINT('',(217.,10.,5.));
#106=VERTEX_POINT('',#105);
#107=CARTESIAN_POINT('',(217.,10.,3.));
#108=DIRECTION('',(-0.,-0.,1.));
#109=VECTOR('',#108,2.);
#110=LINE('',#107,#109);
#111=EDGE_CURVE('',#104,#106,#110,.T.);
#112=ORIENTED_EDGE('',*,*,#111,.F.);
#113=CARTESIAN_POINT('',(227.,10.,3.));
#114=VERTEX_POINT('',#113);
#115=CARTESIAN_POINT('',(222.,10.,3.));
#116=DIRECTION('',(0.,0.,1.));
#117=DIRECTION('',(1.,0.,-0.));
#118=AXIS2_PLACEMENT_3D('',#115,#116,#117);
#119=CIRCLE('',#118,5.);
#120=EDGE_CURVE('',#114,#104,#119,.T.);
#121=ORIENTED_EDGE('',*,*,#120,.F.);
#122=CARTESIAN_POINT('',(222.,10.,3.));
#123=DIRECTION('',(0.,0.,1.));
#124=DIRECTION('',(1.,0.,-0.));
#125=AXIS2_PLACEMENT_3D('',#122,#123,#124);
#126=CIRCLE('',#125,5.);
#127=EDGE_CURVE('',#104,#114,#126,.T.);
#128=ORIENTED_EDGE('',*,*,#127,.F.);
#129=ORIENTED_EDGE('',*,*,#111,.T.);
#130=CARTESIAN_POINT('',(227.,10.,5.));
#131=VERTEX_POINT('',#130);
#132=CARTESIAN_POINT('',(222.,10.,5.));
#133=DIRECTION('',(0.,0.,1.));
#134=DIRECTION('',(1.,0.,-0.));
#135=AXIS2_PLACEMENT_3D('',#132,#133,#134);
#136=CIRCLE('',#135,5.);
#137=EDGE_CURVE('',#106,#131,#136,.T.);
#138=ORIENTED_EDGE('',*,*,#137,.T.);
#139=CARTESIAN_POINT('',(222.,10.,5.));
#140=DIRECTION('',(0.,0.,1.));
#141=DIRECTION('',(1.,0.,-0.));
#142=AXIS2_PLACEMENT_3D('',#139,#140,#141);
#143=CIRCLE('',#142,5.);
#144=EDGE_CURVE('',#131,#106,#143,.T.);
#145=ORIENTED_EDGE('',*,*,#144,.T.);
#146=EDGE_LOOP('',(#112,#121,#128,#129,#138,#145));
#147=FACE_BOUND('',#146,.T.);
#148=ADVANCED_FACE('',(#147),#102,.F.);
#149=CARTESIAN_POINT('',(202.,10.,3.));
#150=DIRECTION('',(0.,0.,-1.));
#151=DIRECTION('',(-1.,0.,0.));
#152=AXIS2_PLACEMENT_3D('',#149,#150,#151);
#153=CYLINDRICAL_SURFACE('',#152,5.);
#154=CARTESIAN_POINT('',(197.,10.,3.));
#155=VERTEX_POINT('',#154);
#156=CARTESIAN_POINT('',(197.,10.,5.));
#157=VERTEX_POINT('',#156);
#158=CARTESIAN_POINT('',(197.,10.,3.));
#159=DIRECTION('',(-0.,-0.,1.));
#160=VECTOR('',#159,2.);
#161=LINE('',#158,#160);
#162=EDGE_CURVE('',#155,#157,#161,.T.);
#163=ORIENTED_EDGE('',*,*,#162,.F.);
#164=CARTESIAN_POINT('',(207.,10.,3.));
#165=VERTEX_POINT('',#164);
#166=CARTESIAN_POINT('',(202.,10.,3.));
#167=DIRECTION('',(0.,0.,1.));
#168=DIRECTION('',(1.,0.,-0.));
#169=AXIS2_PLACEMENT_3D('',#166,#167,#168);
#170=CIRCLE('',#169,5.);
#171=EDGE_CURVE('',#165,#155,#170,.T.);
#172=ORIENTED_EDGE('',*,*,#171,.F.);
#173=CARTESIAN_POINT('',(202.,10.,3.));
#174=DIRECTION('',(0.,0.,1.));
#175=DIRECTION('',(1.,0.,-0.));
#176=AXIS2_PLACEMENT_3D('',#173,#174,#175);
#177=CIRCLE('',#176,5.);
#178=EDGE_CURVE('',#155,#165,#177,.T.);
#179=ORIENTED_EDGE('',*,*,#178,.F.);
#180=ORIENTED_EDGE('',*,*,#162,.T.);
#181=CARTESIAN_POINT('',(207.,10.,5.));
#182=VERTEX_POINT('',#181);
#183=CARTESIAN_POINT('',(202.,10.,5.));
#184=DIRECTION('',(0.,0.,1.));
#185=DIRECTION('',(1.,0.,-0.));
#186=AXIS2_PLACEMENT_3D('',#183,#184,#185);
#187=CIRCLE('',#186,5.);
#188=EDGE_CURVE('',#157,#182,#187,.T.);
#189=ORIENTED_EDGE('',*,*,#188,.T.);
#190=CARTESIAN_POINT('',(202.,10.,5.));
#191=DIRECTION('',(0.,0.,1.));
#192=DIRECTION('',(1.,0.,-0.));
#193=AXIS2_PLACEMENT_3D('',#190,#191,#192);
#194=CIRCLE('',#193,5.);
#195=EDGE_CURVE('',#182,#157,#194,.T.);
#196=ORIENTED_EDGE('',*,*,#195,.T.);
#197=EDGE_LOOP('',(#163,#172,#179,#180,#189,#196));
#198=FACE_BOUND('',#197,.T.);
#199=ADVANCED_FACE('',(#198),#153,.F.);
#200=CARTESIAN_POINT('',(182.,10.,3.));
#201=DIRECTION('',(0.,0.,-1.));
#202=DIRECTION('',(-1.,0.,0.));
#203=AXIS2_PLACEMENT_3D('',#200,#201,#202);
#204=CYLINDRICAL_SURFACE('',#203,5.);
#205=CARTESIAN_POINT('',(177.,10.,3.));
#206=VERTEX_POINT('',#205);
#207=CARTESIAN_POINT('',(177.,10.,5.));
#208=VERTEX_POINT('',#207);
#209=CARTESIAN_POINT('',(177.,10.,3.));
#210=DIRECTION('',(-0.,-0.,1.));
#211=VECTOR('',#210,2.);
#212=LINE('',#209,#211);
#213=EDGE_CURVE('',#206,#208,#212,.T.);
#214=ORIENTED_EDGE('',*,*,#213,.F.);
#215=CARTESIAN_POINT('',(187.,10.,3.));
#216=VERTEX_POINT('',#215);
#217=CARTESIAN_POINT('',(182.,10.,3.));
#218=DIRECTION('',(0.,0.,1.));
#219=DIRECTION('',(1.,0.,-0.));
#220=AXIS2_PLACEMENT_3D('',#217,#218,#219);
#221=CIRCLE('',#220,5.);
#222=EDGE_CURVE('',#216,#206,#221,.T.);
#223=ORIENTED_EDGE('',*,*,#222,.F.);
#224=CARTESIAN_POINT('',(182.,10.,3.));
#225=DIRECTION('',(0.,0.,1.));
#226=DIRECTION('',(1.,0.,-0.));
#227=AXIS2_PLACEMENT_3D('',#224,#225,#226);
#228=CIRCLE('',#227,5.);
#229=EDGE_CURVE('',#206,#216,#228,.T.);
#230=ORIENTED_EDGE('',*,*,#229,.F.);
#231=ORIENTED_EDGE('',*,*,#213,.T.);
#232=CARTESIAN_POINT('',(187.,10.,5.));
#233=VERTEX_POINT('',#232);
#234=CARTESIAN_POINT('',(182.,10.,5.));
#235=DIRECTION('',(0.,0.,1.));
#236=DIRECTION('',(1.,0.,-0.));
#237=AXIS2_PLACEMENT_3D('',#234,#235,#236);
#238=CIRCLE('',#237,5.);
#239=EDGE_CURVE('',#208,#233,#238,.T.);
#240=ORIENTED_EDGE('',*,*,#239,.T.);
#241=CARTESIAN_POINT('',(182.,10.,5.));
#242=DIRECTION('',(0.,0.,1.));
#243=DIRECTION('',(1.,0.,-0.));
#244=AXIS2_PLACEMENT_3D('',#241,#242,#243);
#245=CIRCLE('',#244,5.);
#246=EDGE_CURVE('',#233,#208,#245,.T.);
#247=ORIENTED_EDGE('',*,*,#246,.T.);
#248=EDGE_LOOP('',(#214,#223,#230,#231,#240,#247));
#249=FACE_BOUND('',#248,.T.);
#250=ADVANCED_FACE('',(#249),#204,.F.);
#251=CARTESIAN_POINT('',(162.,10.,3.));
#252=DIRECTION('',(0.,0.,-1.));
#253=DIRECTION('',(-1.,0.,0.));
#254=AXIS2_PLACEMENT_3D('',#251,#252,#253);
#255=CYLINDRICAL_SURFACE('',#254,5.);
#256=CARTESIAN_POINT('',(157.,10.,3.));
#257=VERTEX_POINT('',#256);
#258=CARTESIAN_POINT('',(157.,10.,5.));
#259=VERTEX_POINT('',#258);
#260=CARTESIAN_POINT('',(157.,10.,3.));
#261=DIRECTION('',(-0.,-0.,1.));
#262=VECTOR('',#261,2.);
#263=LINE('',#260,#262);
#264=EDGE_CURVE('',#257,#259,#263,.T.);
#265=ORIENTED_EDGE('',*,*,#264,.F.);
#266=CARTESIAN_POINT('',(167.,10.,3.));
#267=VERTEX_POINT('',#266);
#268=CARTESIAN_POINT('',(162.,10.,3.));
#269=DIRECTION('',(0.,0.,1.));
#270=DIRECTION('',(1.,0.,-0.));
#271=AXIS2_PLACEMENT_3D('',#268,#269,#270);
#272=CIRCLE('',#271,5.);
#273=EDGE_CURVE('',#267,#257,#272,.T.);
#274=ORIENTED_EDGE('',*,*,#273,.F.);
#275=CARTESIAN_POINT('',(162.,10.,3.));
#276=DIRECTION('',(0.,0.,1.));
#277=DIRECTION('',(1.,0.,-0.));
#278=AXIS2_PLACEMENT_3D('',#275,#276,#277);
#279=CIRCLE('',#278,5.);
#280=EDGE_CURVE('',#257,#267,#279,.T.);
#281=ORIENTED_EDGE('',*,*,#280,.F.);
#282=ORIENTED_EDGE('',*,*,#264,.T.);
#283=CARTESIAN_POINT('',(167.,10.,5.));
#284=VERTEX_POINT('',#283);
#285=CARTESIAN_POINT('',(162.,10.,5.));
#286=DIRECTION('',(0.,0.,1.));
#287=DIRECTION('',(1.,0.,-0.));
#288=AXIS2_PLACEMENT_3D('',#285,#286,#287);
#289=CIRCLE('',#288,5.);
#290=EDGE_CURVE('',#259,#284,#289,.T.);
#291=ORIENTED_EDGE('',*,*,#290,.T.);
#292=CARTESIAN_POINT('',(162.,10.,5.));
#293=DIRECTION('',(0.,0.,1.));
#294=DIRECTION('',(1.,0.,-0.));
#295=AXIS2_PLACEMENT_3D('',#292,#293,#294);
#296=CIRCLE('',#295,5.);
#297=EDGE_CURVE('',#284,#259,#296,.T.);
#298=ORIENTED_EDGE('',*,*,#297,.T.);
#299=EDGE_LOOP('',(#265,#274,#281,#282,#291,#298));
#300=FACE_BOUND('',#299,.T.);
#301=ADVANCED_FACE('',(#300),#255,.F.);
#302=CARTESIAN_POINT('',(152.,0.,3.));
#303=DIRECTION('',(-1.,0.,0.));
#304=DIRECTION('',(0.,0.,1.));
#305=AXIS2_PLACEMENT_3D('',#302,#303,#304);
#306=PLANE('',#305);
#307=CARTESIAN_POINT('',(152.,120.,2.));
#308=VERTEX_POINT('',#307);
#309=CARTESIAN_POINT('',(152.,0.,2.));
#310=DIRECTION('',(0.,1.,0.));
#311=VECTOR('',#310,120.);
#312=LINE('',#309,#311);
#313=EDGE_CURVE('',#35,#308,#312,.T.);
#314=ORIENTED_EDGE('',*,*,#313,.F.);
#315=ORIENTED_EDGE('',*,*,#62,.F.);
#316=CARTESIAN_POINT('',(152.,120.,5.));
#317=VERTEX_POINT('',#316);
#318=CARTESIAN_POINT('',(152.,0.,5.));
#319=DIRECTION('',(0.,1.,0.));
#320=VECTOR('',#319,120.);
#321=LINE('',#318,#320);
#322=EDGE_CURVE('',#51,#317,#321,.T.);
#323=ORIENTED_EDGE('',*,*,#322,.T.);
#324=CARTESIAN_POINT('',(152.,120.,5.));
#325=DIRECTION('',(0.,0.,-1.));
#326=VECTOR('',#325,3.);
#327=LINE('',#324,#326);
#328=EDGE_CURVE('',#317,#308,#327,.T.);
#329=ORIENTED_EDGE('',*,*,#328,.T.);
#330=EDGE_LOOP('',(#314,#315,#323,#329));
#331=FACE_BOUND('',#330,.T.);
#332=ADVANCED_FACE('',(#331),#306,.T.);
#333=CARTESIAN_POINT('',(152.,0.,5.));
#334=DIRECTION('',(0.,0.,1.));
#335=DIRECTION('',(1.,0.,0.));
#336=AXIS2_PLACEMENT_3D('',#333,#334,#335);
#337=PLANE('',#336);
#338=ORIENTED_EDGE('',*,*,#290,.F.);
#339=ORIENTED_EDGE('',*,*,#297,.F.);
#340=EDGE_LOOP('',(#338,#339));
#341=FACE_BOUND('',#340,.T.);
#342=ORIENTED_EDGE('',*,*,#239,.F.);
#343=ORIENTED_EDGE('',*,*,#246,.F.);
#344=EDGE_LOOP('',(#342,#343));
#345=FACE_BOUND('',#344,.T.);
#346=ORIENTED_EDGE('',*,*,#188,.F.);
#347=ORIENTED_EDGE('',*,*,#195,.F.);
#348=EDGE_LOOP('',(#346,#347));
#349=FACE_BOUND('',#348,.T.);
#350=ORIENTED_EDGE('',*,*,#137,.F.);
#351=ORIENTED_EDGE('',*,*,#144,.F.);
#352=EDGE_LOOP('',(#350,#351));
#353=FACE_BOUND('',#352,.T.);
#354=ORIENTED_EDGE('',*,*,#56,.F.);
#355=ORIENTED_EDGE('',*,*,#93,.T.);
#356=CARTESIAN_POINT('',(152.,120.,5.));
#357=DIRECTION('',(1.,0.,-0.));
#358=VECTOR('',#357,80.);
#359=LINE('',#356,#358);
#360=EDGE_CURVE('',#317,#82,#359,.T.);
#361=ORIENTED_EDGE('',*,*,#360,.F.);
#362=ORIENTED_EDGE('',*,*,#322,.F.);
#363=EDGE_LOOP('',(#354,#355,#361,#362));
#364=FACE_BOUND('',#363,.T.);
#365=CARTESIAN_POINT('',(186.984805512,99.996035373,5.));
#366=VERTEX_POINT('',#365);
#367=CARTESIAN_POINT('',(196.984805512,99.996035373,5.));
#368=VERTEX_POINT('',#367);
#369=CARTESIAN_POINT('',(191.984805512,99.996035373,5.));
#370=DIRECTION('',(0.,0.,1.));
#371=DIRECTION('',(1.,0.,-0.));
#372=AXIS2_PLACEMENT_3D('',#369,#370,#371);
#373=CIRCLE('',#372,5.);
#374=EDGE_CURVE('',#366,#368,#373,.T.);
#375=ORIENTED_EDGE('',*,*,#374,.F.);
#376=CARTESIAN_POINT('',(191.984805512,99.996035373,5.));
#377=DIRECTION('',(0.,0.,1.));
#378=DIRECTION('',(1.,0.,-0.));
#379=AXIS2_PLACEMENT_3D('',#376,#377,#378);
#380=CIRCLE('',#379,5.);
#381=EDGE_CURVE('',#368,#366,#380,.T.);
#382=ORIENTED_EDGE('',*,*,#381,.F.);
#383=EDGE_LOOP('',(#375,#382));
#384=FACE_BOUND('',#383,.T.);
#385=ADVANCED_FACE('',(#341,#345,#349,#353,#364,#384),#337,.T.);
#386=CARTESIAN_POINT('',(152.,0.,2.));
#387=DIRECTION('',(0.,0.,1.));
#388=DIRECTION('',(1.,0.,0.));
#389=AXIS2_PLACEMENT_3D('',#386,#387,#388);
#390=PLANE('',#389);
#391=ORIENTED_EDGE('',*,*,#40,.T.);
#392=ORIENTED_EDGE('',*,*,#313,.T.);
#393=CARTESIAN_POINT('',(152.,120.,2.));
#394=DIRECTION('',(1.,0.,-0.));
#395=VECTOR('',#394,80.);
#396=LINE('',#393,#395);
#397=EDGE_CURVE('',#308,#74,#396,.T.);
#398=ORIENTED_EDGE('',*,*,#397,.T.);
#399=ORIENTED_EDGE('',*,*,#79,.F.);
#400=EDGE_LOOP('',(#391,#392,#398,#399));
#401=FACE_BOUND('',#400,.T.);
#402=CARTESIAN_POINT('',(225.1,10.,2.));
#403=VERTEX_POINT('',#402);
#404=CARTESIAN_POINT('',(218.9,10.,2.));
#405=VERTEX_POINT('',#404);
#406=CARTESIAN_POINT('',(222.,10.,2.));
#407=DIRECTION('',(0.,0.,1.));
#408=DIRECTION('',(1.,0.,-0.));
#409=AXIS2_PLACEMENT_3D('',#406,#407,#408);
#410=CIRCLE('',#409,3.1);
#411=EDGE_CURVE('',#403,#405,#410,.T.);
#412=ORIENTED_EDGE('',*,*,#411,.T.);
#413=CARTESIAN_POINT('',(222.,10.,2.));
#414=DIRECTION('',(0.,0.,1.));
#415=DIRECTION('',(1.,0.,-0.));
#416=AXIS2_PLACEMENT_3D('',#413,#414,#415);
#417=CIRCLE('',#416,3.1);
#418=EDGE_CURVE('',#405,#403,#417,.T.);
#419=ORIENTED_EDGE('',*,*,#418,.T.);
#420=EDGE_LOOP('',(#412,#419));
#421=FACE_BOUND('',#420,.T.);
#422=CARTESIAN_POINT('',(185.1,10.,2.));
#423=VERTEX_POINT('',#422);
#424=CARTESIAN_POINT('',(178.9,10.,2.));
#425=VERTEX_POINT('',#424);
#426=CARTESIAN_POINT('',(182.,10.,2.));
#427=DIRECTION('',(0.,0.,1.));
#428=DIRECTION('',(1.,0.,-0.));
#429=AXIS2_PLACEMENT_3D('',#426,#427,#428);
#430=CIRCLE('',#429,3.1);
#431=EDGE_CURVE('',#423,#425,#430,.T.);
#432=ORIENTED_EDGE('',*,*,#431,.T.);
#433=CARTESIAN_POINT('',(182.,10.,2.));
#434=DIRECTION('',(0.,0.,1.));
#435=DIRECTION('',(1.,0.,-0.));
#436=AXIS2_PLACEMENT_3D('',#433,#434,#435);
#437=CIRCLE('',#436,3.1);
#438=EDGE_CURVE('',#425,#423,#437,.T.);
#439=ORIENTED_EDGE('',*,*,#438,.T.);
#440=EDGE_LOOP('',(#432,#439));
#441=FACE_BOUND('',#440,.T.);
#442=CARTESIAN_POINT('',(165.1,10.,2.));
#443=VERTEX_POINT('',#442);
#444=CARTESIAN_POINT('',(158.9,10.,2.));
#445=VERTEX_POINT('',#444);
#446=CARTESIAN_POINT('',(162.,10.,2.));
#447=DIRECTION('',(0.,0.,1.));
#448=DIRECTION('',(1.,0.,-0.));
#449=AXIS2_PLACEMENT_3D('',#446,#447,#448);
#450=CIRCLE('',#449,3.1);
#451=EDGE_CURVE('',#443,#445,#450,.T.);
#452=ORIENTED_EDGE('',*,*,#451,.T.);
#453=CARTESIAN_POINT('',(162.,10.,2.));
#454=DIRECTION('',(0.,0.,1.));
#455=DIRECTION('',(1.,0.,-0.));
#456=AXIS2_PLACEMENT_3D('',#453,#454,#455);
#457=CIRCLE('',#456,3.1);
#458=EDGE_CURVE('',#445,#443,#457,.T.);
#459=ORIENTED_EDGE('',*,*,#458,.T.);
#460=EDGE_LOOP('',(#452,#459));
#461=FACE_BOUND('',#460,.T.);
#462=CARTESIAN_POINT('',(205.1,10.,2.));
#463=VERTEX_POINT('',#462);
#464=CARTESIAN_POINT('',(198.9,10.,2.));
#465=VERTEX_POINT('',#464);
#466=CARTESIAN_POINT('',(202.,10.,2.));
#467=DIRECTION('',(0.,0.,1.));
#468=DIRECTION('',(1.,0.,-0.));
#469=AXIS2_PLACEMENT_3D('',#466,#467,#468);
#470=CIRCLE('',#469,3.1);
#471=EDGE_CURVE('',#463,#465,#470,.T.);
#472=ORIENTED_EDGE('',*,*,#471,.T.);
#473=CARTESIAN_POINT('',(202.,10.,2.));
#474=DIRECTION('',(0.,0.,1.));
#475=DIRECTION('',(1.,0.,-0.));
#476=AXIS2_PLACEMENT_3D('',#473,#474,#475);
#477=CIRCLE('',#476,3.1);
#478=EDGE_CURVE('',#465,#463,#477,.T.);
#479=ORIENTED_EDGE('',*,*,#478,.T.);
#480=EDGE_LOOP('',(#472,#479));
#481=FACE_BOUND('',#480,.T.);
#482=CARTESIAN_POINT('',(196.1,100.,2.));
#483=VERTEX_POINT('',#482);
#484=CARTESIAN_POINT('',(187.9,100.,2.));
#485=VERTEX_POINT('',#484);
#486=CARTESIAN_POINT('',(192.,100.,2.));
#487=DIRECTION('',(0.,0.,1.));
#488=DIRECTION('',(1.,0.,-0.));
#489=AXIS2_PLACEMENT_3D('',#486,#487,#488);
#490=CIRCLE('',#489,4.1);
#491=EDGE_CURVE('',#483,#485,#490,.T.);
#492=ORIENTED_EDGE('',*,*,#491,.T.);
#493=CARTESIAN_POINT('',(192.,100.,2.));
#494=DIRECTION('',(0.,0.,1.));
#495=DIRECTION('',(1.,0.,-0.));
#496=AXIS2_PLACEMENT_3D('',#493,#494,#495);
#497=CIRCLE('',#496,4.1);
#498=EDGE_CURVE('',#485,#483,#497,.T.);
#499=ORIENTED_EDGE('',*,*,#498,.T.);
#500=EDGE_LOOP('',(#492,#499));
#501=FACE_BOUND('',#500,.T.);
#502=ADVANCED_FACE('',(#401,#421,#441,#461,#481,#501),#390,.F.);
#503=CARTESIAN_POINT('',(222.,10.,4.5));
#504=DIRECTION('',(0.,0.,-1.));
#505=DIRECTION('',(-1.,0.,0.));
#506=AXIS2_PLACEMENT_3D('',#503,#504,#505);
#507=CYLINDRICAL_SURFACE('',#506,3.1);
#508=CARTESIAN_POINT('',(218.9,10.,3.));
#509=VERTEX_POINT('',#508);
#510=CARTESIAN_POINT('',(218.9,10.,2.));
#511=DIRECTION('',(-0.,-0.,1.));
#512=VECTOR('',#511,1.);
#513=LINE('',#510,#512);
#514=EDGE_CURVE('',#405,#509,#513,.T.);
#515=ORIENTED_EDGE('',*,*,#514,.F.);
#516=ORIENTED_EDGE('',*,*,#411,.F.);
#517=ORIENTED_EDGE('',*,*,#418,.F.);
#518=ORIENTED_EDGE('',*,*,#514,.T.);
#519=CARTESIAN_POINT('',(225.1,10.,3.));
#520=VERTEX_POINT('',#519);
#521=CARTESIAN_POINT('',(222.,10.,3.));
#522=DIRECTION('',(0.,0.,1.));
#523=DIRECTION('',(1.,0.,-0.));
#524=AXIS2_PLACEMENT_3D('',#521,#522,#523);
#525=CIRCLE('',#524,3.1);
#526=EDGE_CURVE('',#509,#520,#525,.T.);
#527=ORIENTED_EDGE('',*,*,#526,.T.);
#528=CARTESIAN_POINT('',(222.,10.,3.));
#529=DIRECTION('',(0.,0.,1.));
#530=DIRECTION('',(1.,0.,-0.));
#531=AXIS2_PLACEMENT_3D('',#528,#529,#530);
#532=CIRCLE('',#531,3.1);
#533=EDGE_CURVE('',#520,#509,#532,.T.);
#534=ORIENTED_EDGE('',*,*,#533,.T.);
#535=EDGE_LOOP('',(#515,#516,#517,#518,#527,#534));
#536=FACE_BOUND('',#535,.T.);
#537=ADVANCED_FACE('',(#536),#507,.F.);
#538=CARTESIAN_POINT('',(152.,0.,3.));
#539=DIRECTION('',(0.,0.,1.));
#540=DIRECTION('',(1.,0.,0.));
#541=AXIS2_PLACEMENT_3D('',#538,#539,#540);
#542=PLANE('',#541);
#543=ORIENTED_EDGE('',*,*,#120,.T.);
#544=ORIENTED_EDGE('',*,*,#127,.T.);
#545=EDGE_LOOP('',(#543,#544));
#546=FACE_BOUND('',#545,.T.);
#547=ORIENTED_EDGE('',*,*,#526,.F.);
#548=ORIENTED_EDGE('',*,*,#533,.F.);
#549=EDGE_LOOP('',(#547,#548));
#550=FACE_BOUND('',#549,.T.);
#551=ADVANCED_FACE('',(#546,#550),#542,.T.);
#552=CARTESIAN_POINT('',(182.,10.,4.5));
#553=DIRECTION('',(0.,0.,-1.));
#554=DIRECTION('',(-1.,0.,0.));
#555=AXIS2_PLACEMENT_3D('',#552,#553,#554);
#556=CYLINDRICAL_SURFACE('',#555,3.1);
#557=CARTESIAN_POINT('',(178.9,10.,3.));
#558=VERTEX_POINT('',#557);
#559=CARTESIAN_POINT('',(178.9,10.,2.));
#560=DIRECTION('',(-0.,-0.,1.));
#561=VECTOR('',#560,1.);
#562=LINE('',#559,#561);
#563=EDGE_CURVE('',#425,#558,#562,.T.);
#564=ORIENTED_EDGE('',*,*,#563,.F.);
#565=ORIENTED_EDGE('',*,*,#431,.F.);
#566=ORIENTED_EDGE('',*,*,#438,.F.);
#567=ORIENTED_EDGE('',*,*,#563,.T.);
#568=CARTESIAN_POINT('',(185.1,10.,3.));
#569=VERTEX_POINT('',#568);
#570=CARTESIAN_POINT('',(182.,10.,3.));
#571=DIRECTION('',(0.,0.,1.));
#572=DIRECTION('',(1.,0.,-0.));
#573=AXIS2_PLACEMENT_3D('',#570,#571,#572);
#574=CIRCLE('',#573,3.1);
#575=EDGE_CURVE('',#558,#569,#574,.T.);
#576=ORIENTED_EDGE('',*,*,#575,.T.);
#577=CARTESIAN_POINT('',(182.,10.,3.));
#578=DIRECTION('',(0.,0.,1.));
#579=DIRECTION('',(1.,0.,-0.));
#580=AXIS2_PLACEMENT_3D('',#577,#578,#579);
#581=CIRCLE('',#580,3.1);
#582=EDGE_CURVE('',#569,#558,#581,.T.);
#583=ORIENTED_EDGE('',*,*,#582,.T.);
#584=EDGE_LOOP('',(#564,#565,#566,#567,#576,#583));
#585=FACE_BOUND('',#584,.T.);
#586=ADVANCED_FACE('',(#585),#556,.F.);
#587=CARTESIAN_POINT('',(152.,0.,3.));
#588=DIRECTION('',(0.,0.,1.));
#589=DIRECTION('',(1.,0.,0.));
#590=AXIS2_PLACEMENT_3D('',#587,#588,#589);
#591=PLANE('',#590);
#592=ORIENTED_EDGE('',*,*,#222,.T.);
#593=ORIENTED_EDGE('',*,*,#229,.T.);
#594=EDGE_LOOP('',(#592,#593));
#595=FACE_BOUND('',#594,.T.);
#596=ORIENTED_EDGE('',*,*,#575,.F.);
#597=ORIENTED_EDGE('',*,*,#582,.F.);
#598=EDGE_LOOP('',(#596,#597));
#599=FACE_BOUND('',#598,.T.);
#600=ADVANCED_FACE('',(#595,#599),#591,.T.);
#601=CARTESIAN_POINT('',(162.,10.,4.5));
#602=DIRECTION('',(0.,0.,-1.));
#603=DIRECTION('',(-1.,0.,0.));
#604=AXIS2_PLACEMENT_3D('',#601,#602,#603);
#605=CYLINDRICAL_SURFACE('',#604,3.1);
#606=CARTESIAN_POINT('',(158.9,10.,3.));
#607=VERTEX_POINT('',#606);
#608=CARTESIAN_POINT('',(158.9,10.,2.));
#609=DIRECTION('',(-0.,-0.,1.));
#610=VECTOR('',#609,1.);
#611=LINE('',#608,#610);
#612=EDGE_CURVE('',#445,#607,#611,.T.);
#613=ORIENTED_EDGE('',*,*,#612,.F.);
#614=ORIENTED_EDGE('',*,*,#451,.F.);
#615=ORIENTED_EDGE('',*,*,#458,.F.);
#616=ORIENTED_EDGE('',*,*,#612,.T.);
#617=CARTESIAN_POINT('',(165.1,10.,3.));
#618=VERTEX_POINT('',#617);
#619=CARTESIAN_POINT('',(162.,10.,3.));
#620=DIRECTION('',(0.,0.,1.));
#621=DIRECTION('',(1.,0.,-0.));
#622=AXIS2_PLACEMENT_3D('',#619,#620,#621);
#623=CIRCLE('',#622,3.1);
#624=EDGE_CURVE('',#607,#618,#623,.T.);
#625=ORIENTED_EDGE('',*,*,#624,.T.);
#626=CARTESIAN_POINT('',(162.,10.,3.));
#627=DIRECTION('',(0.,0.,1.));
#628=DIRECTION('',(1.,0.,-0.));
#629=AXIS2_PLACEMENT_3D('',#626,#627,#628);
#630=CIRCLE('',#629,3.1);
#631=EDGE_CURVE('',#618,#607,#630,.T.);
#632=ORIENTED_EDGE('',*,*,#631,.T.);
#633=EDGE_LOOP('',(#613,#614,#615,#616,#625,#632));
#634=FACE_BOUND('',#633,.T.);
#635=ADVANCED_FACE('',(#634),#605,.F.);
#636=CARTESIAN_POINT('',(152.,0.,3.));
#637=DIRECTION('',(0.,0.,1.));
#638=DIRECTION('',(1.,0.,0.));
#639=AXIS2_PLACEMENT_3D('',#636,#637,#638);
#640=PLANE('',#639);
#641=ORIENTED_EDGE('',*,*,#273,.T.);
#642=ORIENTED_EDGE('',*,*,#280,.T.);
#643=EDGE_LOOP('',(#641,#642));
#644=FACE_BOUND('',#643,.T.);
#645=ORIENTED_EDGE('',*,*,#624,.F.);
#646=ORIENTED_EDGE('',*,*,#631,.F.);
#647=EDGE_LOOP('',(#645,#646));
#648=FACE_BOUND('',#647,.T.);
#649=ADVANCED_FACE('',(#644,#648),#640,.T.);
#650=CARTESIAN_POINT('',(202.,10.,4.6));
#651=DIRECTION('',(0.,0.,-1.));
#652=DIRECTION('',(-1.,0.,0.));
#653=AXIS2_PLACEMENT_3D('',#650,#651,#652);
#654=CYLINDRICAL_SURFACE('',#653,3.1);
#655=CARTESIAN_POINT('',(198.9,10.,3.));
#656=VERTEX_POINT('',#655);
#657=CARTESIAN_POINT('',(198.9,10.,2.));
#658=DIRECTION('',(-0.,-0.,1.));
#659=VECTOR('',#658,1.);
#660=LINE('',#657,#659);
#661=EDGE_CURVE('',#465,#656,#660,.T.);
#662=ORIENTED_EDGE('',*,*,#661,.F.);
#663=ORIENTED_EDGE('',*,*,#471,.F.);
#664=ORIENTED_EDGE('',*,*,#478,.F.);
#665=ORIENTED_EDGE('',*,*,#661,.T.);
#666=CARTESIAN_POINT('',(205.1,10.,3.));
#667=VERTEX_POINT('',#666);
#668=CARTESIAN_POINT('',(202.,10.,3.));
#669=DIRECTION('',(0.,0.,1.));
#670=DIRECTION('',(1.,0.,-0.));
#671=AXIS2_PLACEMENT_3D('',#668,#669,#670);
#672=CIRCLE('',#671,3.1);
#673=EDGE_CURVE('',#656,#667,#672,.T.);
#674=ORIENTED_EDGE('',*,*,#673,.T.);
#675=CARTESIAN_POINT('',(202.,10.,3.));
#676=DIRECTION('',(0.,0.,1.));
#677=DIRECTION('',(1.,0.,-0.));
#678=AXIS2_PLACEMENT_3D('',#675,#676,#677);
#679=CIRCLE('',#678,3.1);
#680=EDGE_CURVE('',#667,#656,#679,.T.);
#681=ORIENTED_EDGE('',*,*,#680,.T.);
#682=EDGE_LOOP('',(#662,#663,#664,#665,#674,#681));
#683=FACE_BOUND('',#682,.T.);
#684=ADVANCED_FACE('',(#683),#654,.F.);
#685=CARTESIAN_POINT('',(152.,0.,3.));
#686=DIRECTION('',(0.,0.,1.));
#687=DIRECTION('',(1.,0.,0.));
#688=AXIS2_PLACEMENT_3D('',#685,#686,#687);
#689=PLANE('',#688);
#690=ORIENTED_EDGE('',*,*,#171,.T.);
#691=ORIENTED_EDGE('',*,*,#178,.T.);
#692=EDGE_LOOP('',(#690,#691));
#693=FACE_BOUND('',#692,.T.);
#694=ORIENTED_EDGE('',*,*,#673,.F.);
#695=ORIENTED_EDGE('',*,*,#680,.F.);
#696=EDGE_LOOP('',(#694,#695));
#697=FACE_BOUND('',#696,.T.);
#698=ADVANCED_FACE('',(#693,#697),#689,.T.);
#699=CARTESIAN_POINT('',(192.,120.,6.));
#700=DIRECTION('',(0.,1.,0.));
#701=DIRECTION('',(0.,0.,1.));
#702=AXIS2_PLACEMENT_3D('',#699,#700,#701);
#703=PLANE('',#702);
#704=ORIENTED_EDGE('',*,*,#397,.F.);
#705=ORIENTED_EDGE('',*,*,#328,.F.);
#706=ORIENTED_EDGE('',*,*,#360,.T.);
#707=ORIENTED_EDGE('',*,*,#87,.T.);
#708=EDGE_LOOP('',(#704,#705,#706,#707));
#709=FACE_BOUND('',#708,.T.);
#710=ADVANCED_FACE('',(#709),#703,.T.);
#711=CARTESIAN_POINT('',(192.,100.,32.));
#712=DIRECTION('',(0.,0.,-1.));
#713=DIRECTION('',(-1.,0.,0.));
#714=AXIS2_PLACEMENT_3D('',#711,#712,#713);
#715=CYLINDRICAL_SURFACE('',#714,4.1);
#716=CARTESIAN_POINT('',(187.9,100.,9.5));
#717=VERTEX_POINT('',#716);
#718=CARTESIAN_POINT('',(187.9,100.,2.));
#719=DIRECTION('',(-0.,-0.,1.));
#720=VECTOR('',#719,7.5);
#721=LINE('',#718,#720);
#722=EDGE_CURVE('',#485,#717,#721,.T.);
#723=ORIENTED_EDGE('',*,*,#722,.F.);
#724=ORIENTED_EDGE('',*,*,#491,.F.);
#725=ORIENTED_EDGE('',*,*,#498,.F.);
#726=ORIENTED_EDGE('',*,*,#722,.T.);
#727=CARTESIAN_POINT('',(196.1,100.,9.5));
#728=VERTEX_POINT('',#727);
#729=CARTESIAN_POINT('',(192.,100.,9.5));
#730=DIRECTION('',(0.,0.,-1.));
#731=DIRECTION('',(1.,0.,0.));
#732=AXIS2_PLACEMENT_3D('',#729,#730,#731);
#733=CIRCLE('',#732,4.1);
#734=EDGE_CURVE('',#728,#717,#733,.T.);
#735=ORIENTED_EDGE('',*,*,#734,.F.);
#736=CARTESIAN_POINT('',(192.,100.,9.5));
#737=DIRECTION('',(0.,0.,-1.));
#738=DIRECTION('',(1.,0.,0.));
#739=AXIS2_PLACEMENT_3D('',#736,#737,#738);
#740=CIRCLE('',#739,4.1);
#741=EDGE_CURVE('',#717,#728,#740,.T.);
#742=ORIENTED_EDGE('',*,*,#741,.F.);
#743=EDGE_LOOP('',(#723,#724,#725,#726,#735,#742));
#744=FACE_BOUND('',#743,.T.);
#745=ADVANCED_FACE('',(#744),#715,.F.);
#746=CARTESIAN_POINT('',(191.984805512,99.996035373,9.5));
#747=DIRECTION('',(0.,0.,-1.));
#748=DIRECTION('',(-1.,0.,0.));
#749=AXIS2_PLACEMENT_3D('',#746,#747,#748);
#750=CYLINDRICAL_SURFACE('',#749,5.);
#751=CARTESIAN_POINT('',(186.984805512,99.996035373,9.5));
#752=VERTEX_POINT('',#751);
#753=CARTESIAN_POINT('',(186.984805512,99.996035373,5.));
#754=DIRECTION('',(-0.,-0.,1.));
#755=VECTOR('',#754,4.5);
#756=LINE('',#753,#755);
#757=EDGE_CURVE('',#366,#752,#756,.T.);
#758=ORIENTED_EDGE('',*,*,#757,.T.);
#759=CARTESIAN_POINT('',(196.984805512,99.996035373,9.5));
#760=VERTEX_POINT('',#759);
#761=CARTESIAN_POINT('',(191.984805512,99.996035373,9.5));
#762=DIRECTION('',(0.,0.,1.));
#763=DIRECTION('',(1.,0.,-0.));
#764=AXIS2_PLACEMENT_3D('',#761,#762,#763);
#765=CIRCLE('',#764,5.);
#766=EDGE_CURVE('',#760,#752,#765,.T.);
#767=ORIENTED_EDGE('',*,*,#766,.F.);
#768=CARTESIAN_POINT('',(191.984805512,99.996035373,9.5));
#769=DIRECTION('',(0.,0.,1.));
#770=DIRECTION('',(1.,0.,-0.));
#771=AXIS2_PLACEMENT_3D('',#768,#769,#770);
#772=CIRCLE('',#771,5.);
#773=EDGE_CURVE('',#752,#760,#772,.T.);
#774=ORIENTED_EDGE('',*,*,#773,.F.);
#775=ORIENTED_EDGE('',*,*,#757,.F.);
#776=ORIENTED_EDGE('',*,*,#374,.T.);
#777=ORIENTED_EDGE('',*,*,#381,.T.);
#778=EDGE_LOOP('',(#758,#767,#774,#775,#776,#777));
#779=FACE_BOUND('',#778,.T.);
#780=ADVANCED_FACE('',(#779),#750,.T.);
#781=CARTESIAN_POINT('',(0.,0.,9.5));
#782=DIRECTION('',(0.,0.,1.));
#783=DIRECTION('',(1.,0.,0.));
#784=AXIS2_PLACEMENT_3D('',#781,#782,#783);
#785=PLANE('',#784);
#786=ORIENTED_EDGE('',*,*,#734,.T.);
#787=ORIENTED_EDGE('',*,*,#741,.T.);
#788=EDGE_LOOP('',(#786,#787));
#789=FACE_BOUND('',#788,.T.);
#790=ORIENTED_EDGE('',*,*,#766,.T.);
#791=ORIENTED_EDGE('',*,*,#773,.T.);
#792=EDGE_LOOP('',(#790,#791));
#793=FACE_BOUND('',#792,.T.);
#794=ADVANCED_FACE('',(#789,#793),#785,.T.);
#795=CLOSED_SHELL('',(#66,#97,#148,#199,#250,#301,#332,#385,#502,#537,#551,#586,#600,#635,#649,#684,#698,#710,#745,#780,#794));
#796=MANIFOLD_SOLID_BREP('Corps 01 (1)',#795);
#797=COLOUR_RGB('',0.925490201,0.925490201,0.925490201);
#798=FILL_AREA_STYLE_COLOUR('',#797);
#799=FILL_AREA_STYLE('',(#798));
#800=SURFACE_STYLE_FILL_AREA(#799);
#801=SURFACE_SIDE_STYLE('',(#800));
#802=SURFACE_STYLE_USAGE(.BOTH.,#801);
#803=PRESENTATION_STYLE_ASSIGNMENT((#802));
#26=STYLED_ITEM('',(#803),#796);
#16=SHAPE_REPRESENTATION('root',(#15),#10);
#17=ADVANCED_BREP_SHAPE_REPRESENTATION('root',(#796),#10);
#811=SHAPE_REPRESENTATION_RELATIONSHIP('','',#16,#17);
#812=APPLICATION_CONTEXT('data for automotive mechanical design processes');
#813=APPLICATION_PROTOCOL_DEFINITION('international standard','automotive_design',1994,#812);
#814=PRODUCT_CONTEXT('',#812,'mechanical');
#815=PRODUCT_DEFINITION_CONTEXT('part definition',#812,'design');
#24=PRODUCT('root','root','',(#814));
#816=PRODUCT_RELATED_PRODUCT_CATEGORY('part','',(#24));
#817=PRODUCT_DEFINITION_FORMATION_WITH_SPECIFIED_SOURCE('','',#24,.NOT_KNOWN.);
#25=PRODUCT_DEFINITION('design','',#817,#815);
#23=PRODUCT_DEFINITION_SHAPE('','',#25);
#818=SHAPE_DEFINITION_REPRESENTATION(#23,#16);
#11=DRAUGHTING_MODEL('',(),#10);
#1=MECHANICAL_DESIGN_GEOMETRIC_PRESENTATION_REPRESENTATION('',(#26),#10);
ENDSEC;
END-ISO-10303-21;
