ISO-10303-21;
HEADER;
FILE_DESCRIPTION (( 'STEP AP214' ),
    '1' );
FILE_NAME ('Bague 1 rlt.STEP',
    '2023-05-22T06:18:37',
    ( '' ),
    ( '' ),
    'SwSTEP 2.0',
    'SolidWorks 2020',
    '' );
FILE_SCHEMA (( 'AUTOMOTIVE_DESIGN' ));
ENDSEC;

DATA;
#1 = PRODUCT_DEFINITION ( 'UNKNOWN', '', #111, #15 ) ;
#2 = CARTESIAN_POINT ( 'NONE',  ( 0.000000000000000000, 0.000000000000000000, 0.000000000000000000 ) ) ;
#3 = FACE_OUTER_BOUND ( 'NONE', #44, .T. ) ;
#4 = FACE_BOUND ( 'NONE', #63, .T. ) ;
#5 = CYLINDRICAL_SURFACE ( 'NONE', #84, 13.50000000000000000 ) ;
#6 = CARTESIAN_POINT ( 'NONE',  ( 11.24999999999999822, 1.377727649040771994E-15, 11.50000000000000000 ) ) ;
#7 = FILL_AREA_STYLE ('',( #40 ) ) ;
#8 = EDGE_CURVE ( 'NONE', #115, #133, #186, .T. ) ;
#9 = AXIS2_PLACEMENT_3D ( 'NONE', #2, #146, #64 ) ;
#10 = VERTEX_POINT ( 'NONE', #174 ) ;
#11 = ORIENTED_EDGE ( 'NONE', *, *, #125, .T. ) ;
#12 = LINE ( 'NONE', #81, #73 ) ;
#13 = ORIENTED_EDGE ( 'NONE', *, *, #193, .T. ) ;
#14 = ADVANCED_BREP_SHAPE_REPRESENTATION ( 'Bague 1 rlt', ( #181, #43 ), #147 ) ;
#15 = PRODUCT_DEFINITION_CONTEXT ( 'detailed design', #143, 'design' ) ;
#16 = CARTESIAN_POINT ( 'NONE',  ( 0.000000000000000000, 0.000000000000000000, 11.50000000000000000 ) ) ;
#17 = DIRECTION ( 'NONE',  ( -0.000000000000000000, -0.000000000000000000, -1.000000000000000000 ) ) ;
#18 = CARTESIAN_POINT ( 'NONE',  ( 0.000000000000000000, 0.000000000000000000, 11.50000000000000000 ) ) ;
#19 = DIRECTION ( 'NONE',  ( 0.000000000000000000, 0.000000000000000000, 1.000000000000000000 ) ) ;
#20 = CARTESIAN_POINT ( 'NONE',  ( -13.50000000000000000, 0.000000000000000000, 11.50000000000000000 ) ) ;
#21 = DIRECTION ( 'NONE',  ( -0.000000000000000000, -0.000000000000000000, -1.000000000000000000 ) ) ;
#22 =( LENGTH_UNIT ( ) NAMED_UNIT ( * ) SI_UNIT ( .MILLI., .METRE. ) );
#23 = PRODUCT_RELATED_PRODUCT_CATEGORY ( 'part', '', ( #25 ) ) ;
#24 = CIRCLE ( 'NONE', #61, 13.50000000000000000 ) ;
#25 = PRODUCT ( 'Bague 1 rlt', 'Bague 1 rlt', '', ( #207 ) ) ;
#26 = FACE_OUTER_BOUND ( 'NONE', #183, .T. ) ;
#27 = EDGE_LOOP ( 'NONE', ( #145, #130, #47, #127 ) ) ;
#28 = SURFACE_STYLE_USAGE ( .BOTH. , #89 ) ;
#29 = AXIS2_PLACEMENT_3D ( 'NONE', #135, #153, #116 ) ;
#30 = CIRCLE ( 'NONE', #94, 11.24999999999999822 ) ;
#31 = PLANE ( 'NONE',  #170 ) ;
#32 = ADVANCED_FACE ( 'NONE', ( #102 ), #136, .T. ) ;
#33 = DIRECTION ( 'NONE',  ( 1.000000000000000000, 0.000000000000000000, 0.000000000000000000 ) ) ;
#34 =( NAMED_UNIT ( * ) PLANE_ANGLE_UNIT ( ) SI_UNIT ( $, .RADIAN. ) );
#35 = CARTESIAN_POINT ( 'NONE',  ( 0.000000000000000000, 0.000000000000000000, 11.50000000000000000 ) ) ;
#36 = DIRECTION ( 'NONE',  ( 0.000000000000000000, 0.000000000000000000, 1.000000000000000000 ) ) ;
#37 = DIRECTION ( 'NONE',  ( -1.000000000000000000, 0.000000000000000000, 0.000000000000000000 ) ) ;
#38 = ADVANCED_FACE ( 'NONE', ( #188 ), #53, .F. ) ;
#39 = CARTESIAN_POINT ( 'NONE',  ( 0.000000000000000000, 0.000000000000000000, 11.50000000000000000 ) ) ;
#40 = FILL_AREA_STYLE_COLOUR ( '', #199 ) ;
#41 = ORIENTED_EDGE ( 'NONE', *, *, #77, .T. ) ;
#42 = EDGE_CURVE ( 'NONE', #79, #197, #30, .T. ) ;
#43 = AXIS2_PLACEMENT_3D ( 'NONE', #211, #36, #128 ) ;
#44 = EDGE_LOOP ( 'NONE', ( #41, #13 ) ) ;
#45 = DIRECTION ( 'NONE',  ( -1.000000000000000000, 0.000000000000000000, 0.000000000000000000 ) ) ;
#46 = AXIS2_PLACEMENT_3D ( 'NONE', #16, #132, #83 ) ;
#47 = ORIENTED_EDGE ( 'NONE', *, *, #88, .T. ) ;
#48 = DIRECTION ( 'NONE',  ( -0.000000000000000000, -0.000000000000000000, -1.000000000000000000 ) ) ;
#49 = CARTESIAN_POINT ( 'NONE',  ( 11.24999999999999822, 1.377727649040771994E-15, 11.50000000000000000 ) ) ;
#50 =( LENGTH_UNIT ( ) NAMED_UNIT ( * ) SI_UNIT ( .MILLI., .METRE. ) );
#51 = EDGE_CURVE ( 'NONE', #100, #197, #154, .T. ) ;
#52 = DIRECTION ( 'NONE',  ( 1.000000000000000000, 0.000000000000000000, 0.000000000000000000 ) ) ;
#53 = CYLINDRICAL_SURFACE ( 'NONE', #158, 11.24999999999999822 ) ;
#54 = CIRCLE ( 'NONE', #113, 11.24999999999999822 ) ;
#55 = PRESENTATION_STYLE_ASSIGNMENT (( #106 ) ) ;
#56 = ADVANCED_FACE ( 'NONE', ( #3, #4 ), #206, .T. ) ;
#57 = CARTESIAN_POINT ( 'NONE',  ( -13.50000000000000000, 0.000000000000000000, 11.50000000000000000 ) ) ;
#58 = SHAPE_DEFINITION_REPRESENTATION ( #205, #14 ) ;
#59 = ORIENTED_EDGE ( 'NONE', *, *, #51, .T. ) ;
#60 = PRESENTATION_LAYER_ASSIGNMENT (  '', '', ( #195 ) ) ;
#61 = AXIS2_PLACEMENT_3D ( 'NONE', #71, #107, #33 ) ;
#62 = ORIENTED_EDGE ( 'NONE', *, *, #8, .T. ) ;
#63 = EDGE_LOOP ( 'NONE', ( #168, #96 ) ) ;
#64 = DIRECTION ( 'NONE',  ( 1.000000000000000000, 0.000000000000000000, 0.000000000000000000 ) ) ;
#65 = ORIENTED_EDGE ( 'NONE', *, *, #42, .F. ) ;
#66 = CARTESIAN_POINT ( 'NONE',  ( 0.000000000000000000, 0.000000000000000000, 11.50000000000000000 ) ) ;
#67 = ORIENTED_EDGE ( 'NONE', *, *, #74, .T. ) ;
#68 = CARTESIAN_POINT ( 'NONE',  ( 0.000000000000000000, 0.000000000000000000, 0.000000000000000000 ) ) ;
#69 =( NAMED_UNIT ( * ) PLANE_ANGLE_UNIT ( ) SI_UNIT ( $, .RADIAN. ) );
#70 = AXIS2_PLACEMENT_3D ( 'NONE', #190, #105, #121 ) ;
#71 = CARTESIAN_POINT ( 'NONE',  ( 0.000000000000000000, 0.000000000000000000, 11.50000000000000000 ) ) ;
#72 = LINE ( 'NONE', #201, #112 ) ;
#73 = VECTOR ( 'NONE', #122, 1000.000000000000000 ) ;
#74 = EDGE_CURVE ( 'NONE', #197, #79, #180, .T. ) ;
#75 = ORIENTED_EDGE ( 'NONE', *, *, #129, .F. ) ;
#76 = ORIENTED_EDGE ( 'NONE', *, *, #95, .F. ) ;
#77 = EDGE_CURVE ( 'NONE', #151, #10, #24, .T. ) ;
#78 =( GEOMETRIC_REPRESENTATION_CONTEXT ( 3 ) GLOBAL_UNCERTAINTY_ASSIGNED_CONTEXT ( ( #123 ) ) GLOBAL_UNIT_ASSIGNED_CONTEXT ( ( #22, #179, #159 ) ) REPRESENTATION_CONTEXT ( 'NONE', 'WORKASPACE' ) );
#79 = VERTEX_POINT ( 'NONE', #177 ) ;
#80 = UNCERTAINTY_MEASURE_WITH_UNIT (LENGTH_MEASURE( 1.000000000000000082E-05 ), #50, 'distance_accuracy_value', 'NONE');
#81 = CARTESIAN_POINT ( 'NONE',  ( 13.50000000000000000, 1.653273178848926867E-15, 11.50000000000000000 ) ) ;
#82 = ORIENTED_EDGE ( 'NONE', *, *, #8, .F. ) ;
#83 = DIRECTION ( 'NONE',  ( -1.000000000000000000, 0.000000000000000000, 0.000000000000000000 ) ) ;
#84 = AXIS2_PLACEMENT_3D ( 'NONE', #66, #48, #45 ) ;
#85 = DIRECTION ( 'NONE',  ( 1.000000000000000000, 0.000000000000000000, -0.000000000000000000 ) ) ;
#86 = FACE_OUTER_BOUND ( 'NONE', #214, .T. ) ;
#87 = DIRECTION ( 'NONE',  ( 1.000000000000000000, 0.000000000000000000, 0.000000000000000000 ) ) ;
#88 = EDGE_CURVE ( 'NONE', #149, #79, #72, .T. ) ;
#89 = SURFACE_SIDE_STYLE ('',( #173 ) ) ;
#90 = DIRECTION ( 'NONE',  ( 0.000000000000000000, 0.000000000000000000, 1.000000000000000000 ) ) ;
#91 = CIRCLE ( 'NONE', #213, 13.50000000000000000 ) ;
#92 = DIRECTION ( 'NONE',  ( 0.000000000000000000, 0.000000000000000000, 1.000000000000000000 ) ) ;
#93 = EDGE_LOOP ( 'NONE', ( #131, #67 ) ) ;
#94 = AXIS2_PLACEMENT_3D ( 'NONE', #203, #19, #87 ) ;
#95 = EDGE_CURVE ( 'NONE', #133, #115, #91, .T. ) ;
#96 = ORIENTED_EDGE ( 'NONE', *, *, #160, .F. ) ;
#97 = ORIENTED_EDGE ( 'NONE', *, *, #193, .F. ) ;
#98 = MECHANICAL_DESIGN_GEOMETRIC_PRESENTATION_REPRESENTATION (  '', ( #195 ), #144 ) ;
#99 = FACE_OUTER_BOUND ( 'NONE', #27, .T. ) ;
#100 = VERTEX_POINT ( 'NONE', #49 ) ;
#101 = FILL_AREA_STYLE_COLOUR ( '', #209 ) ;
#102 = FACE_OUTER_BOUND ( 'NONE', #198, .T. ) ;
#103 = DIRECTION ( 'NONE',  ( 0.000000000000000000, 0.000000000000000000, 1.000000000000000000 ) ) ;
#104 = FILL_AREA_STYLE ('',( #101 ) ) ;
#105 = DIRECTION ( 'NONE',  ( 0.000000000000000000, 0.000000000000000000, 1.000000000000000000 ) ) ;
#106 = SURFACE_STYLE_USAGE ( .BOTH. , #178 ) ;
#107 = DIRECTION ( 'NONE',  ( 0.000000000000000000, 0.000000000000000000, 1.000000000000000000 ) ) ;
#108 = MECHANICAL_DESIGN_GEOMETRIC_PRESENTATION_REPRESENTATION (  '', ( #140 ), #78 ) ;
#109 = ORIENTED_EDGE ( 'NONE', *, *, #77, .F. ) ;
#110 = ORIENTED_EDGE ( 'NONE', *, *, #95, .T. ) ;
#111 = PRODUCT_DEFINITION_FORMATION_WITH_SPECIFIED_SOURCE ( 'ANY', '', #25, .NOT_KNOWN. ) ;
#112 = VECTOR ( 'NONE', #21, 1000.000000000000000 ) ;
#113 = AXIS2_PLACEMENT_3D ( 'NONE', #39, #192, #141 ) ;
#114 = CARTESIAN_POINT ( 'NONE',  ( 0.000000000000000000, 0.000000000000000000, 0.000000000000000000 ) ) ;
#115 = VERTEX_POINT ( 'NONE', #124 ) ;
#116 = DIRECTION ( 'NONE',  ( 1.000000000000000000, 0.000000000000000000, 0.000000000000000000 ) ) ;
#117 = DIRECTION ( 'NONE',  ( -0.000000000000000000, -0.000000000000000000, -1.000000000000000000 ) ) ;
#118 =( LENGTH_UNIT ( ) NAMED_UNIT ( * ) SI_UNIT ( .MILLI., .METRE. ) );
#119 = VECTOR ( 'NONE', #189, 1000.000000000000000 ) ;
#120 = VECTOR ( 'NONE', #155, 1000.000000000000000 ) ;
#121 = DIRECTION ( 'NONE',  ( 1.000000000000000000, 0.000000000000000000, 0.000000000000000000 ) ) ;
#122 = DIRECTION ( 'NONE',  ( -0.000000000000000000, -0.000000000000000000, -1.000000000000000000 ) ) ;
#123 = UNCERTAINTY_MEASURE_WITH_UNIT (LENGTH_MEASURE( 1.000000000000000082E-05 ), #22, 'distance_accuracy_value', 'NONE');
#124 = CARTESIAN_POINT ( 'NONE',  ( -13.50000000000000000, 0.000000000000000000, 0.000000000000000000 ) ) ;
#125 = EDGE_CURVE ( 'NONE', #149, #100, #54, .T. ) ;
#126 = APPLICATION_CONTEXT ( 'automotive_design' ) ;
#127 = ORIENTED_EDGE ( 'NONE', *, *, #74, .F. ) ;
#128 = DIRECTION ( 'NONE',  ( 1.000000000000000000, 0.000000000000000000, 0.000000000000000000 ) ) ;
#129 = EDGE_CURVE ( 'NONE', #151, #115, #208, .T. ) ;
#130 = ORIENTED_EDGE ( 'NONE', *, *, #160, .T. ) ;
#131 = ORIENTED_EDGE ( 'NONE', *, *, #42, .T. ) ;
#132 = DIRECTION ( 'NONE',  ( -0.000000000000000000, -0.000000000000000000, -1.000000000000000000 ) ) ;
#133 = VERTEX_POINT ( 'NONE', #204 ) ;
#134 =( NAMED_UNIT ( * ) SI_UNIT ( $, .STERADIAN. ) SOLID_ANGLE_UNIT ( ) );
#135 = CARTESIAN_POINT ( 'NONE',  ( 0.000000000000000000, 0.000000000000000000, 11.50000000000000000 ) ) ;
#136 = CYLINDRICAL_SURFACE ( 'NONE', #164, 13.50000000000000000 ) ;
#137 =( NAMED_UNIT ( * ) SI_UNIT ( $, .STERADIAN. ) SOLID_ANGLE_UNIT ( ) );
#138 = CARTESIAN_POINT ( 'NONE',  ( 0.000000000000000000, 0.000000000000000000, 11.50000000000000000 ) ) ;
#139 = APPLICATION_PROTOCOL_DEFINITION ( 'draft international standard', 'automotive_design', 1998, #126 ) ;
#140 = STYLED_ITEM ( 'NONE', ( #55 ), #14 ) ;
#141 = DIRECTION ( 'NONE',  ( 1.000000000000000000, 0.000000000000000000, 0.000000000000000000 ) ) ;
#142 = PRESENTATION_LAYER_ASSIGNMENT (  '', '', ( #140 ) ) ;
#143 = APPLICATION_CONTEXT ( 'automotive_design' ) ;
#144 =( GEOMETRIC_REPRESENTATION_CONTEXT ( 3 ) GLOBAL_UNCERTAINTY_ASSIGNED_CONTEXT ( ( #166 ) ) GLOBAL_UNIT_ASSIGNED_CONTEXT ( ( #118, #34, #134 ) ) REPRESENTATION_CONTEXT ( 'NONE', 'WORKASPACE' ) );
#145 = ORIENTED_EDGE ( 'NONE', *, *, #51, .F. ) ;
#146 = DIRECTION ( 'NONE',  ( 0.000000000000000000, 0.000000000000000000, 1.000000000000000000 ) ) ;
#147 =( GEOMETRIC_REPRESENTATION_CONTEXT ( 3 ) GLOBAL_UNCERTAINTY_ASSIGNED_CONTEXT ( ( #80 ) ) GLOBAL_UNIT_ASSIGNED_CONTEXT ( ( #50, #69, #137 ) ) REPRESENTATION_CONTEXT ( 'NONE', 'WORKASPACE' ) );
#148 = AXIS2_PLACEMENT_3D ( 'NONE', #138, #90, #85 ) ;
#149 = VERTEX_POINT ( 'NONE', #200 ) ;
#150 = DIRECTION ( 'NONE',  ( 0.000000000000000000, 0.000000000000000000, 1.000000000000000000 ) ) ;
#151 = VERTEX_POINT ( 'NONE', #20 ) ;
#152 = DIRECTION ( 'NONE',  ( 1.000000000000000000, 0.000000000000000000, -0.000000000000000000 ) ) ;
#153 = DIRECTION ( 'NONE',  ( 0.000000000000000000, 0.000000000000000000, 1.000000000000000000 ) ) ;
#154 = LINE ( 'NONE', #6, #120 ) ;
#155 = DIRECTION ( 'NONE',  ( -0.000000000000000000, -0.000000000000000000, -1.000000000000000000 ) ) ;
#156 = APPLICATION_PROTOCOL_DEFINITION ( 'draft international standard', 'automotive_design', 1998, #143 ) ;
#157 = DIRECTION ( 'NONE',  ( 1.000000000000000000, 0.000000000000000000, 0.000000000000000000 ) ) ;
#158 = AXIS2_PLACEMENT_3D ( 'NONE', #35, #17, #37 ) ;
#159 =( NAMED_UNIT ( * ) SI_UNIT ( $, .STERADIAN. ) SOLID_ANGLE_UNIT ( ) );
#160 = EDGE_CURVE ( 'NONE', #100, #149, #184, .T. ) ;
#161 = ORIENTED_EDGE ( 'NONE', *, *, #212, .T. ) ;
#162 = EDGE_LOOP ( 'NONE', ( #11, #59, #65, #163 ) ) ;
#163 = ORIENTED_EDGE ( 'NONE', *, *, #88, .F. ) ;
#164 = AXIS2_PLACEMENT_3D ( 'NONE', #172, #117, #185 ) ;
#165 = ORIENTED_EDGE ( 'NONE', *, *, #212, .F. ) ;
#166 = UNCERTAINTY_MEASURE_WITH_UNIT (LENGTH_MEASURE( 1.000000000000000082E-05 ), #118, 'distance_accuracy_value', 'NONE');
#167 = FACE_BOUND ( 'NONE', #93, .T. ) ;
#168 = ORIENTED_EDGE ( 'NONE', *, *, #125, .F. ) ;
#169 = CYLINDRICAL_SURFACE ( 'NONE', #46, 11.24999999999999822 ) ;
#170 = AXIS2_PLACEMENT_3D ( 'NONE', #114, #103, #152 ) ;
#171 = CLOSED_SHELL ( 'NONE', ( #38, #32, #56, #210, #175, #182 ) ) ;
#172 = CARTESIAN_POINT ( 'NONE',  ( 0.000000000000000000, 0.000000000000000000, 11.50000000000000000 ) ) ;
#173 = SURFACE_STYLE_FILL_AREA ( #104 ) ;
#174 = CARTESIAN_POINT ( 'NONE',  ( 13.50000000000000000, 1.653273178848926867E-15, 11.50000000000000000 ) ) ;
#175 = ADVANCED_FACE ( 'NONE', ( #86 ), #5, .T. ) ;
#176 = CIRCLE ( 'NONE', #29, 13.50000000000000000 ) ;
#177 = CARTESIAN_POINT ( 'NONE',  ( -11.24999999999999822, 0.000000000000000000, 0.000000000000000000 ) ) ;
#178 = SURFACE_SIDE_STYLE ('',( #194 ) ) ;
#179 =( NAMED_UNIT ( * ) PLANE_ANGLE_UNIT ( ) SI_UNIT ( $, .RADIAN. ) );
#180 = CIRCLE ( 'NONE', #70, 11.24999999999999822 ) ;
#181 = MANIFOLD_SOLID_BREP ( 'Boss.-Extru.1', #171 ) ;
#182 = ADVANCED_FACE ( 'NONE', ( #99 ), #169, .F. ) ;
#183 = EDGE_LOOP ( 'NONE', ( #82, #76 ) ) ;
#184 = CIRCLE ( 'NONE', #191, 11.24999999999999822 ) ;
#185 = DIRECTION ( 'NONE',  ( -1.000000000000000000, 0.000000000000000000, 0.000000000000000000 ) ) ;
#186 = CIRCLE ( 'NONE', #9, 13.50000000000000000 ) ;
#187 = CARTESIAN_POINT ( 'NONE',  ( 11.24999999999999822, 1.377727649040771994E-15, 0.000000000000000000 ) ) ;
#188 = FACE_OUTER_BOUND ( 'NONE', #162, .T. ) ;
#189 = DIRECTION ( 'NONE',  ( -0.000000000000000000, -0.000000000000000000, -1.000000000000000000 ) ) ;
#190 = CARTESIAN_POINT ( 'NONE',  ( 0.000000000000000000, 0.000000000000000000, 0.000000000000000000 ) ) ;
#191 = AXIS2_PLACEMENT_3D ( 'NONE', #18, #150, #52 ) ;
#192 = DIRECTION ( 'NONE',  ( 0.000000000000000000, 0.000000000000000000, 1.000000000000000000 ) ) ;
#193 = EDGE_CURVE ( 'NONE', #10, #151, #176, .T. ) ;
#194 = SURFACE_STYLE_FILL_AREA ( #7 ) ;
#195 = STYLED_ITEM ( 'NONE', ( #202 ), #181 ) ;
#196 = ORIENTED_EDGE ( 'NONE', *, *, #129, .T. ) ;
#197 = VERTEX_POINT ( 'NONE', #187 ) ;
#198 = EDGE_LOOP ( 'NONE', ( #97, #161, #110, #75 ) ) ;
#199 = COLOUR_RGB ( '',0.7921568627450980005, 0.8196078431372548767, 0.9333333333333333481 ) ;
#200 = CARTESIAN_POINT ( 'NONE',  ( -11.24999999999999822, 0.000000000000000000, 11.50000000000000000 ) ) ;
#201 = CARTESIAN_POINT ( 'NONE',  ( -11.24999999999999822, 0.000000000000000000, 11.50000000000000000 ) ) ;
#202 = PRESENTATION_STYLE_ASSIGNMENT (( #28 ) ) ;
#203 = CARTESIAN_POINT ( 'NONE',  ( 0.000000000000000000, 0.000000000000000000, 0.000000000000000000 ) ) ;
#204 = CARTESIAN_POINT ( 'NONE',  ( 13.50000000000000000, 1.653273178848926867E-15, 0.000000000000000000 ) ) ;
#205 = PRODUCT_DEFINITION_SHAPE ( 'NONE', 'NONE',  #1 ) ;
#206 = PLANE ( 'NONE',  #148 ) ;
#207 = PRODUCT_CONTEXT ( 'NONE', #126, 'mechanical' ) ;
#208 = LINE ( 'NONE', #57, #119 ) ;
#209 = COLOUR_RGB ( '',0.7921568627450980005, 0.8196078431372548767, 0.9333333333333333481 ) ;
#210 = ADVANCED_FACE ( 'NONE', ( #26, #167 ), #31, .F. ) ;
#211 = CARTESIAN_POINT ( 'NONE',  ( 0.000000000000000000, 0.000000000000000000, 0.000000000000000000 ) ) ;
#212 = EDGE_CURVE ( 'NONE', #10, #133, #12, .T. ) ;
#213 = AXIS2_PLACEMENT_3D ( 'NONE', #68, #92, #157 ) ;
#214 = EDGE_LOOP ( 'NONE', ( #165, #109, #196, #62 ) ) ;
ENDSEC;
END-ISO-10303-21;
