ISO-10303-21;
HEADER;
FILE_DESCRIPTION (( 'STEP AP214' ),
    '1' );
FILE_NAME ('Bague rlt bas.STEP',
    '2023-05-22T06:17:18',
    ( '' ),
    ( '' ),
    'SwSTEP 2.0',
    'SolidWorks 2020',
    '' );
FILE_SCHEMA (( 'AUTOMOTIVE_DESIGN' ));
ENDSEC;

DATA;
#1 = FACE_OUTER_BOUND ( 'NONE', #95, .T. ) ;
#2 = AXIS2_PLACEMENT_3D ( 'NONE', #198, #48, #115 ) ;
#3 = PRESENTATION_STYLE_ASSIGNMENT (( #174 ) ) ;
#4 = VERTEX_POINT ( 'NONE', #210 ) ;
#5 = SURFACE_STYLE_FILL_AREA ( #40 ) ;
#6 = MECHANICAL_DESIGN_GEOMETRIC_PRESENTATION_REPRESENTATION (  '', ( #172 ), #67 ) ;
#7 = CARTESIAN_POINT ( 'NONE',  ( 0.000000000000000000, 0.000000000000000000, 0.000000000000000000 ) ) ;
#8 = EDGE_LOOP ( 'NONE', ( #206, #127, #175, #69 ) ) ;
#9 = PRODUCT_DEFINITION_CONTEXT ( 'detailed design', #88, 'design' ) ;
#10 = ORIENTED_EDGE ( 'NONE', *, *, #100, .T. ) ;
#11 = CARTESIAN_POINT ( 'NONE',  ( 0.000000000000000000, 0.000000000000000000, 3.500000000000000000 ) ) ;
#12 = VERTEX_POINT ( 'NONE', #140 ) ;
#13 = LINE ( 'NONE', #143, #120 ) ;
#14 = DIRECTION ( 'NONE',  ( -0.000000000000000000, -0.000000000000000000, -1.000000000000000000 ) ) ;
#15 = DIRECTION ( 'NONE',  ( -0.000000000000000000, -0.000000000000000000, -1.000000000000000000 ) ) ;
#16 = EDGE_CURVE ( 'NONE', #93, #12, #44, .T. ) ;
#17 = CIRCLE ( 'NONE', #159, 23.75000000000000355 ) ;
#18 = CARTESIAN_POINT ( 'NONE',  ( 27.74999999999999645, 3.398394867633905094E-15, 3.500000000000000000 ) ) ;
#19 = DIRECTION ( 'NONE',  ( 0.000000000000000000, 0.000000000000000000, 1.000000000000000000 ) ) ;
#20 = CARTESIAN_POINT ( 'NONE',  ( 0.000000000000000000, 0.000000000000000000, 3.500000000000000000 ) ) ;
#21 =( LENGTH_UNIT ( ) NAMED_UNIT ( * ) SI_UNIT ( .MILLI., .METRE. ) );
#22 = APPLICATION_CONTEXT ( 'automotive_design' ) ;
#23 = EDGE_LOOP ( 'NONE', ( #163, #60, #189, #181 ) ) ;
#24 = CARTESIAN_POINT ( 'NONE',  ( -27.74999999999999645, 0.000000000000000000, 3.500000000000000000 ) ) ;
#25 = ORIENTED_EDGE ( 'NONE', *, *, #72, .T. ) ;
#26 = VECTOR ( 'NONE', #161, 1000.000000000000000 ) ;
#27 = DIRECTION ( 'NONE',  ( 0.000000000000000000, 0.000000000000000000, 1.000000000000000000 ) ) ;
#28 = DIRECTION ( 'NONE',  ( 1.000000000000000000, 0.000000000000000000, 0.000000000000000000 ) ) ;
#29 = DIRECTION ( 'NONE',  ( -0.000000000000000000, -0.000000000000000000, -1.000000000000000000 ) ) ;
#30 = APPLICATION_PROTOCOL_DEFINITION ( 'draft international standard', 'automotive_design', 1998, #22 ) ;
#31 = CARTESIAN_POINT ( 'NONE',  ( 27.74999999999999645, 3.398394867633905094E-15, 0.000000000000000000 ) ) ;
#32 = AXIS2_PLACEMENT_3D ( 'NONE', #116, #82, #145 ) ;
#33 = DIRECTION ( 'NONE',  ( 1.000000000000000000, 0.000000000000000000, -0.000000000000000000 ) ) ;
#34 = CARTESIAN_POINT ( 'NONE',  ( 0.000000000000000000, 0.000000000000000000, 3.500000000000000000 ) ) ;
#35 = EDGE_CURVE ( 'NONE', #93, #173, #149, .T. ) ;
#36 = CYLINDRICAL_SURFACE ( 'NONE', #83, 27.74999999999999645 ) ;
#37 = CIRCLE ( 'NONE', #110, 27.74999999999999645 ) ;
#38 = VERTEX_POINT ( 'NONE', #179 ) ;
#39 = PRODUCT_RELATED_PRODUCT_CATEGORY ( 'part', '', ( #148 ) ) ;
#40 = FILL_AREA_STYLE ('',( #155 ) ) ;
#41 = DIRECTION ( 'NONE',  ( 0.000000000000000000, 0.000000000000000000, 1.000000000000000000 ) ) ;
#42 = EDGE_CURVE ( 'NONE', #38, #85, #133, .T. ) ;
#43 = ORIENTED_EDGE ( 'NONE', *, *, #42, .F. ) ;
#44 = LINE ( 'NONE', #78, #26 ) ;
#45 = CIRCLE ( 'NONE', #2, 23.75000000000000355 ) ;
#46 = CARTESIAN_POINT ( 'NONE',  ( 27.74999999999999645, 3.398394867633905094E-15, 3.500000000000000000 ) ) ;
#47 = DIRECTION ( 'NONE',  ( 1.000000000000000000, 0.000000000000000000, 0.000000000000000000 ) ) ;
#48 = DIRECTION ( 'NONE',  ( 0.000000000000000000, 0.000000000000000000, 1.000000000000000000 ) ) ;
#49 = AXIS2_PLACEMENT_3D ( 'NONE', #114, #211, #99 ) ;
#50 = MANIFOLD_SOLID_BREP ( 'Boss.-Extru.1', #197 ) ;
#51 = DIRECTION ( 'NONE',  ( -1.000000000000000000, 0.000000000000000000, 0.000000000000000000 ) ) ;
#52 = CIRCLE ( 'NONE', #49, 27.74999999999999645 ) ;
#53 = AXIS2_PLACEMENT_3D ( 'NONE', #76, #27, #207 ) ;
#54 = EDGE_LOOP ( 'NONE', ( #66, #92 ) ) ;
#55 = CARTESIAN_POINT ( 'NONE',  ( 0.000000000000000000, 0.000000000000000000, 0.000000000000000000 ) ) ;
#56 = ORIENTED_EDGE ( 'NONE', *, *, #42, .T. ) ;
#57 = FILL_AREA_STYLE ('',( #193 ) ) ;
#58 = AXIS2_PLACEMENT_3D ( 'NONE', #55, #160, #104 ) ;
#59 = MECHANICAL_DESIGN_GEOMETRIC_PRESENTATION_REPRESENTATION (  '', ( #111 ), #90 ) ;
#60 = ORIENTED_EDGE ( 'NONE', *, *, #68, .T. ) ;
#61 = CYLINDRICAL_SURFACE ( 'NONE', #195, 23.75000000000000355 ) ;
#62 = COLOUR_RGB ( '',0.7921568627450980005, 0.8196078431372548767, 0.9333333333333333481 ) ;
#63 = DIRECTION ( 'NONE',  ( -0.000000000000000000, -0.000000000000000000, -1.000000000000000000 ) ) ;
#64 = DIRECTION ( 'NONE',  ( -0.000000000000000000, -0.000000000000000000, -1.000000000000000000 ) ) ;
#65 = FACE_OUTER_BOUND ( 'NONE', #171, .T. ) ;
#66 = ORIENTED_EDGE ( 'NONE', *, *, #205, .F. ) ;
#67 =( GEOMETRIC_REPRESENTATION_CONTEXT ( 3 ) GLOBAL_UNCERTAINTY_ASSIGNED_CONTEXT ( ( #203 ) ) GLOBAL_UNIT_ASSIGNED_CONTEXT ( ( #21, #84, #157 ) ) REPRESENTATION_CONTEXT ( 'NONE', 'WORKASPACE' ) );
#68 = EDGE_CURVE ( 'NONE', #38, #4, #13, .T. ) ;
#69 = ORIENTED_EDGE ( 'NONE', *, *, #205, .T. ) ;
#70 = ORIENTED_EDGE ( 'NONE', *, *, #134, .F. ) ;
#71 = CARTESIAN_POINT ( 'NONE',  ( -23.75000000000000355, 0.000000000000000000, 3.500000000000000000 ) ) ;
#72 = EDGE_CURVE ( 'NONE', #85, #87, #109, .T. ) ;
#73 = DIRECTION ( 'NONE',  ( 0.000000000000000000, 0.000000000000000000, 1.000000000000000000 ) ) ;
#74 = ORIENTED_EDGE ( 'NONE', *, *, #190, .T. ) ;
#75 = CIRCLE ( 'NONE', #146, 23.75000000000000355 ) ;
#76 = CARTESIAN_POINT ( 'NONE',  ( 0.000000000000000000, 0.000000000000000000, 3.500000000000000000 ) ) ;
#77 = EDGE_CURVE ( 'NONE', #194, #12, #177, .T. ) ;
#78 = CARTESIAN_POINT ( 'NONE',  ( -27.74999999999999645, 0.000000000000000000, 3.500000000000000000 ) ) ;
#79 = DIRECTION ( 'NONE',  ( 1.000000000000000000, 0.000000000000000000, 0.000000000000000000 ) ) ;
#80 = PLANE ( 'NONE',  #106 ) ;
#81 = FACE_OUTER_BOUND ( 'NONE', #8, .T. ) ;
#82 = DIRECTION ( 'NONE',  ( 0.000000000000000000, 0.000000000000000000, 1.000000000000000000 ) ) ;
#83 = AXIS2_PLACEMENT_3D ( 'NONE', #130, #212, #51 ) ;
#84 =( NAMED_UNIT ( * ) PLANE_ANGLE_UNIT ( ) SI_UNIT ( $, .RADIAN. ) );
#85 = VERTEX_POINT ( 'NONE', #139 ) ;
#86 = PRODUCT_DEFINITION ( 'UNKNOWN', '', #119, #9 ) ;
#87 = VERTEX_POINT ( 'NONE', #176 ) ;
#88 = APPLICATION_CONTEXT ( 'automotive_design' ) ;
#89 =( NAMED_UNIT ( * ) SI_UNIT ( $, .STERADIAN. ) SOLID_ANGLE_UNIT ( ) );
#90 =( GEOMETRIC_REPRESENTATION_CONTEXT ( 3 ) GLOBAL_UNCERTAINTY_ASSIGNED_CONTEXT ( ( #96 ) ) GLOBAL_UNIT_ASSIGNED_CONTEXT ( ( #209, #164, #89 ) ) REPRESENTATION_CONTEXT ( 'NONE', 'WORKASPACE' ) );
#91 = EDGE_LOOP ( 'NONE', ( #70, #43 ) ) ;
#92 = ORIENTED_EDGE ( 'NONE', *, *, #77, .F. ) ;
#93 = VERTEX_POINT ( 'NONE', #24 ) ;
#94 = AXIS2_PLACEMENT_3D ( 'NONE', #20, #63, #169 ) ;
#95 = EDGE_LOOP ( 'NONE', ( #123, #102, #186, #135 ) ) ;
#96 = UNCERTAINTY_MEASURE_WITH_UNIT (LENGTH_MEASURE( 1.000000000000000082E-05 ), #209, 'distance_accuracy_value', 'NONE');
#97 = CARTESIAN_POINT ( 'NONE',  ( 0.000000000000000000, 0.000000000000000000, 3.500000000000000000 ) ) ;
#98 = DIRECTION ( 'NONE',  ( 0.000000000000000000, 0.000000000000000000, 1.000000000000000000 ) ) ;
#99 = DIRECTION ( 'NONE',  ( 1.000000000000000000, 0.000000000000000000, 0.000000000000000000 ) ) ;
#100 = EDGE_CURVE ( 'NONE', #173, #93, #37, .T. ) ;
#101 = ORIENTED_EDGE ( 'NONE', *, *, #68, .F. ) ;
#102 = ORIENTED_EDGE ( 'NONE', *, *, #204, .T. ) ;
#103 = AXIS2_PLACEMENT_3D ( 'NONE', #7, #137, #122 ) ;
#104 = DIRECTION ( 'NONE',  ( 1.000000000000000000, 0.000000000000000000, 0.000000000000000000 ) ) ;
#105 = ORIENTED_EDGE ( 'NONE', *, *, #154, .T. ) ;
#106 = AXIS2_PLACEMENT_3D ( 'NONE', #132, #182, #33 ) ;
#107 = SURFACE_STYLE_USAGE ( .BOTH. , #108 ) ;
#108 = SURFACE_SIDE_STYLE ('',( #124 ) ) ;
#109 = LINE ( 'NONE', #71, #147 ) ;
#110 = AXIS2_PLACEMENT_3D ( 'NONE', #191, #41, #178 ) ;
#111 = STYLED_ITEM ( 'NONE', ( #141 ), #50 ) ;
#112 = ADVANCED_FACE ( 'NONE', ( #1 ), #165, .T. ) ;
#113 = DIRECTION ( 'NONE',  ( -1.000000000000000000, 0.000000000000000000, 0.000000000000000000 ) ) ;
#114 = CARTESIAN_POINT ( 'NONE',  ( 0.000000000000000000, 0.000000000000000000, 0.000000000000000000 ) ) ;
#115 = DIRECTION ( 'NONE',  ( 1.000000000000000000, 0.000000000000000000, 0.000000000000000000 ) ) ;
#116 = CARTESIAN_POINT ( 'NONE',  ( 0.000000000000000000, 0.000000000000000000, 3.500000000000000000 ) ) ;
#117 = PRODUCT_CONTEXT ( 'NONE', #22, 'mechanical' ) ;
#118 = EDGE_LOOP ( 'NONE', ( #105, #74 ) ) ;
#119 = PRODUCT_DEFINITION_FORMATION_WITH_SPECIFIED_SOURCE ( 'ANY', '', #148, .NOT_KNOWN. ) ;
#120 = VECTOR ( 'NONE', #29, 1000.000000000000000 ) ;
#121 = ADVANCED_FACE ( 'NONE', ( #144, #201 ), #80, .F. ) ;
#122 = DIRECTION ( 'NONE',  ( 1.000000000000000000, 0.000000000000000000, 0.000000000000000000 ) ) ;
#123 = ORIENTED_EDGE ( 'NONE', *, *, #100, .F. ) ;
#124 = SURFACE_STYLE_FILL_AREA ( #57 ) ;
#125 = AXIS2_PLACEMENT_3D ( 'NONE', #11, #73, #28 ) ;
#126 = ADVANCED_FACE ( 'NONE', ( #214 ), #61, .F. ) ;
#127 = ORIENTED_EDGE ( 'NONE', *, *, #35, .F. ) ;
#128 = CARTESIAN_POINT ( 'NONE',  ( 0.000000000000000000, 0.000000000000000000, 3.500000000000000000 ) ) ;
#129 = COLOUR_RGB ( '',0.7921568627450980005, 0.8196078431372548767, 0.9333333333333333481 ) ;
#130 = CARTESIAN_POINT ( 'NONE',  ( 0.000000000000000000, 0.000000000000000000, 3.500000000000000000 ) ) ;
#131 = PLANE ( 'NONE',  #32 ) ;
#132 = CARTESIAN_POINT ( 'NONE',  ( 0.000000000000000000, 0.000000000000000000, 0.000000000000000000 ) ) ;
#133 = CIRCLE ( 'NONE', #125, 23.75000000000000355 ) ;
#134 = EDGE_CURVE ( 'NONE', #85, #38, #17, .T. ) ;
#135 = ORIENTED_EDGE ( 'NONE', *, *, #16, .F. ) ;
#136 = VECTOR ( 'NONE', #184, 1000.000000000000000 ) ;
#137 = DIRECTION ( 'NONE',  ( 0.000000000000000000, 0.000000000000000000, 1.000000000000000000 ) ) ;
#138 = EDGE_LOOP ( 'NONE', ( #101, #56, #25, #180 ) ) ;
#139 = CARTESIAN_POINT ( 'NONE',  ( -23.75000000000000355, 0.000000000000000000, 3.500000000000000000 ) ) ;
#140 = CARTESIAN_POINT ( 'NONE',  ( -27.74999999999999645, 0.000000000000000000, 0.000000000000000000 ) ) ;
#141 = PRESENTATION_STYLE_ASSIGNMENT (( #107 ) ) ;
#142 =( GEOMETRIC_REPRESENTATION_CONTEXT ( 3 ) GLOBAL_UNCERTAINTY_ASSIGNED_CONTEXT ( ( #208 ) ) GLOBAL_UNIT_ASSIGNED_CONTEXT ( ( #185, #200, #168 ) ) REPRESENTATION_CONTEXT ( 'NONE', 'WORKASPACE' ) );
#143 = CARTESIAN_POINT ( 'NONE',  ( 23.75000000000000355, 2.908536147974964502E-15, 3.500000000000000000 ) ) ;
#144 = FACE_OUTER_BOUND ( 'NONE', #54, .T. ) ;
#145 = DIRECTION ( 'NONE',  ( 1.000000000000000000, 0.000000000000000000, -0.000000000000000000 ) ) ;
#146 = AXIS2_PLACEMENT_3D ( 'NONE', #199, #98, #47 ) ;
#147 = VECTOR ( 'NONE', #14, 1000.000000000000000 ) ;
#148 = PRODUCT ( 'Bague rlt bas', 'Bague rlt bas', '', ( #117 ) ) ;
#149 = CIRCLE ( 'NONE', #53, 27.74999999999999645 ) ;
#150 = CYLINDRICAL_SURFACE ( 'NONE', #152, 23.75000000000000355 ) ;
#151 = ADVANCED_FACE ( 'NONE', ( #81 ), #36, .T. ) ;
#152 = AXIS2_PLACEMENT_3D ( 'NONE', #34, #15, #213 ) ;
#153 = SHAPE_DEFINITION_REPRESENTATION ( #162, #192 ) ;
#154 = EDGE_CURVE ( 'NONE', #87, #4, #45, .T. ) ;
#155 = FILL_AREA_STYLE_COLOUR ( '', #62 ) ;
#156 = PRESENTATION_LAYER_ASSIGNMENT (  '', '', ( #111 ) ) ;
#157 =( NAMED_UNIT ( * ) SI_UNIT ( $, .STERADIAN. ) SOLID_ANGLE_UNIT ( ) );
#158 = ORIENTED_EDGE ( 'NONE', *, *, #35, .T. ) ;
#159 = AXIS2_PLACEMENT_3D ( 'NONE', #128, #19, #79 ) ;
#160 = DIRECTION ( 'NONE',  ( 0.000000000000000000, 0.000000000000000000, 1.000000000000000000 ) ) ;
#161 = DIRECTION ( 'NONE',  ( -0.000000000000000000, -0.000000000000000000, -1.000000000000000000 ) ) ;
#162 = PRODUCT_DEFINITION_SHAPE ( 'NONE', 'NONE',  #86 ) ;
#163 = ORIENTED_EDGE ( 'NONE', *, *, #134, .T. ) ;
#164 =( NAMED_UNIT ( * ) PLANE_ANGLE_UNIT ( ) SI_UNIT ( $, .RADIAN. ) );
#165 = CYLINDRICAL_SURFACE ( 'NONE', #94, 27.74999999999999645 ) ;
#166 = LINE ( 'NONE', #18, #136 ) ;
#167 = ADVANCED_FACE ( 'NONE', ( #183 ), #150, .F. ) ;
#168 =( NAMED_UNIT ( * ) SI_UNIT ( $, .STERADIAN. ) SOLID_ANGLE_UNIT ( ) );
#169 = DIRECTION ( 'NONE',  ( -1.000000000000000000, 0.000000000000000000, 0.000000000000000000 ) ) ;
#170 = ADVANCED_FACE ( 'NONE', ( #65, #196 ), #131, .T. ) ;
#171 = EDGE_LOOP ( 'NONE', ( #158, #10 ) ) ;
#172 = STYLED_ITEM ( 'NONE', ( #3 ), #192 ) ;
#173 = VERTEX_POINT ( 'NONE', #46 ) ;
#174 = SURFACE_STYLE_USAGE ( .BOTH. , #188 ) ;
#175 = ORIENTED_EDGE ( 'NONE', *, *, #16, .T. ) ;
#176 = CARTESIAN_POINT ( 'NONE',  ( -23.75000000000000355, 0.000000000000000000, 0.000000000000000000 ) ) ;
#177 = CIRCLE ( 'NONE', #58, 27.74999999999999645 ) ;
#178 = DIRECTION ( 'NONE',  ( 1.000000000000000000, 0.000000000000000000, 0.000000000000000000 ) ) ;
#179 = CARTESIAN_POINT ( 'NONE',  ( 23.75000000000000355, 2.908536147974964502E-15, 3.500000000000000000 ) ) ;
#180 = ORIENTED_EDGE ( 'NONE', *, *, #190, .F. ) ;
#181 = ORIENTED_EDGE ( 'NONE', *, *, #72, .F. ) ;
#182 = DIRECTION ( 'NONE',  ( 0.000000000000000000, 0.000000000000000000, 1.000000000000000000 ) ) ;
#183 = FACE_OUTER_BOUND ( 'NONE', #23, .T. ) ;
#184 = DIRECTION ( 'NONE',  ( -0.000000000000000000, -0.000000000000000000, -1.000000000000000000 ) ) ;
#185 =( LENGTH_UNIT ( ) NAMED_UNIT ( * ) SI_UNIT ( .MILLI., .METRE. ) );
#186 = ORIENTED_EDGE ( 'NONE', *, *, #77, .T. ) ;
#187 = PRESENTATION_LAYER_ASSIGNMENT (  '', '', ( #172 ) ) ;
#188 = SURFACE_SIDE_STYLE ('',( #5 ) ) ;
#189 = ORIENTED_EDGE ( 'NONE', *, *, #154, .F. ) ;
#190 = EDGE_CURVE ( 'NONE', #4, #87, #75, .T. ) ;
#191 = CARTESIAN_POINT ( 'NONE',  ( 0.000000000000000000, 0.000000000000000000, 3.500000000000000000 ) ) ;
#192 = ADVANCED_BREP_SHAPE_REPRESENTATION ( 'Bague rlt bas', ( #50, #103 ), #142 ) ;
#193 = FILL_AREA_STYLE_COLOUR ( '', #129 ) ;
#194 = VERTEX_POINT ( 'NONE', #31 ) ;
#195 = AXIS2_PLACEMENT_3D ( 'NONE', #97, #64, #113 ) ;
#196 = FACE_BOUND ( 'NONE', #91, .T. ) ;
#197 = CLOSED_SHELL ( 'NONE', ( #167, #112, #170, #121, #151, #126 ) ) ;
#198 = CARTESIAN_POINT ( 'NONE',  ( 0.000000000000000000, 0.000000000000000000, 0.000000000000000000 ) ) ;
#199 = CARTESIAN_POINT ( 'NONE',  ( 0.000000000000000000, 0.000000000000000000, 0.000000000000000000 ) ) ;
#200 =( NAMED_UNIT ( * ) PLANE_ANGLE_UNIT ( ) SI_UNIT ( $, .RADIAN. ) );
#201 = FACE_BOUND ( 'NONE', #118, .T. ) ;
#202 = APPLICATION_PROTOCOL_DEFINITION ( 'draft international standard', 'automotive_design', 1998, #88 ) ;
#203 = UNCERTAINTY_MEASURE_WITH_UNIT (LENGTH_MEASURE( 1.000000000000000082E-05 ), #21, 'distance_accuracy_value', 'NONE');
#204 = EDGE_CURVE ( 'NONE', #173, #194, #166, .T. ) ;
#205 = EDGE_CURVE ( 'NONE', #12, #194, #52, .T. ) ;
#206 = ORIENTED_EDGE ( 'NONE', *, *, #204, .F. ) ;
#207 = DIRECTION ( 'NONE',  ( 1.000000000000000000, 0.000000000000000000, 0.000000000000000000 ) ) ;
#208 = UNCERTAINTY_MEASURE_WITH_UNIT (LENGTH_MEASURE( 1.000000000000000082E-05 ), #185, 'distance_accuracy_value', 'NONE');
#209 =( LENGTH_UNIT ( ) NAMED_UNIT ( * ) SI_UNIT ( .MILLI., .METRE. ) );
#210 = CARTESIAN_POINT ( 'NONE',  ( 23.75000000000000355, 2.908536147974964502E-15, 0.000000000000000000 ) ) ;
#211 = DIRECTION ( 'NONE',  ( 0.000000000000000000, 0.000000000000000000, 1.000000000000000000 ) ) ;
#212 = DIRECTION ( 'NONE',  ( -0.000000000000000000, -0.000000000000000000, -1.000000000000000000 ) ) ;
#213 = DIRECTION ( 'NONE',  ( -1.000000000000000000, 0.000000000000000000, 0.000000000000000000 ) ) ;
#214 = FACE_OUTER_BOUND ( 'NONE', #138, .T. ) ;
ENDSEC;
END-ISO-10303-21;
