ISO-10303-21;
HEADER;
FILE_DESCRIPTION (( 'STEP AP214' ),
    '1' );
FILE_NAME ('ART_Butee_20.STEP',
    '2023-04-12T09:12:45',
    ( '' ),
    ( '' ),
    'SwSTEP 2.0',
    'SolidWorks 2023',
    '' );
FILE_SCHEMA (( 'AUTOMOTIVE_DESIGN' ));
ENDSEC;

DATA;
#1 = ADVANCED_FACE ( 'NONE', ( #352 ), #40, .F. ) ;
#2 = VECTOR ( 'NONE', #290, 1000.000000000000000 ) ;
#3 = ORIENTED_EDGE ( 'NONE', *, *, #64, .F. ) ;
#4 = EDGE_LOOP ( 'NONE', ( #212, #345, #156, #158 ) ) ;
#5 = PRESENTATION_LAYER_ASSIGNMENT (  '', '', ( #378 ) ) ;
#6 = ORIENTED_EDGE ( 'NONE', *, *, #285, .F. ) ;
#7 = VERTEX_POINT ( 'NONE', #251 ) ;
#8 = CARTESIAN_POINT ( 'NONE',  ( 0.000000000000000000, 6.000000000000000000, -7.500000000000000000 ) ) ;
#9 = VERTEX_POINT ( 'NONE', #287 ) ;
#10 = FACE_OUTER_BOUND ( 'NONE', #248, .T. ) ;
#11 = CARTESIAN_POINT ( 'NONE',  ( -2.000000000000000000, 6.000000000000000000, -7.500000000000000000 ) ) ;
#12 = LINE ( 'NONE', #16, #198 ) ;
#13 = ADVANCED_FACE ( 'NONE', ( #101 ), #374, .F. ) ;
#14 = EDGE_LOOP ( 'NONE', ( #333, #154, #364, #245 ) ) ;
#15 = DIRECTION ( 'NONE',  ( 1.000000000000000000, -0.000000000000000000, -0.000000000000000000 ) ) ;
#16 = CARTESIAN_POINT ( 'NONE',  ( 0.000000000000000000, 3.000000000000000000, -2.450000000000006839 ) ) ;
#17 = FACE_BOUND ( 'NONE', #381, .T. ) ;
#18 = EDGE_CURVE ( 'NONE', #67, #213, #347, .T. ) ;
#19 = APPLICATION_PROTOCOL_DEFINITION ( 'draft international standard', 'automotive_design', 1998, #369 ) ;
#20 = CIRCLE ( 'NONE', #400, 1.549999999999987166 ) ;
#21 = DIRECTION ( 'NONE',  ( 1.000000000000000000, -0.000000000000000000, -0.000000000000000000 ) ) ;
#22 = EDGE_CURVE ( 'NONE', #135, #278, #282, .T. ) ;
#23 = DIRECTION ( 'NONE',  ( -1.734723475976806700E-15, 1.000000000000000000, 0.000000000000000000 ) ) ;
#24 = DIRECTION ( 'NONE',  ( 0.000000000000000000, 0.000000000000000000, -1.000000000000000000 ) ) ;
#25 = ORIENTED_EDGE ( 'NONE', *, *, #385, .T. ) ;
#26 = DIRECTION ( 'NONE',  ( 1.000000000000000000, -0.000000000000000000, -0.000000000000000000 ) ) ;
#27 = ORIENTED_EDGE ( 'NONE', *, *, #328, .T. ) ;
#28 = VECTOR ( 'NONE', #295, 1000.000000000000000 ) ;
#29 = LINE ( 'NONE', #217, #134 ) ;
#30 = ORIENTED_EDGE ( 'NONE', *, *, #215, .T. ) ;
#31 = DIRECTION ( 'NONE',  ( -1.000000000000000000, 0.000000000000000000, 0.000000000000000000 ) ) ;
#32 = AXIS2_PLACEMENT_3D ( 'NONE', #226, #259, #348 ) ;
#33 = ORIENTED_EDGE ( 'NONE', *, *, #186, .T. ) ;
#34 = DIRECTION ( 'NONE',  ( 1.000000000000000000, -0.000000000000000000, -0.000000000000000000 ) ) ;
#35 = VECTOR ( 'NONE', #195, 1000.000000000000000 ) ;
#36 = ORIENTED_EDGE ( 'NONE', *, *, #149, .T. ) ;
#37 = LINE ( 'NONE', #323, #311 ) ;
#38 = ORIENTED_EDGE ( 'NONE', *, *, #113, .T. ) ;
#39 = DIRECTION ( 'NONE',  ( -1.000000000000000000, 0.000000000000000000, 0.000000000000000000 ) ) ;
#40 = CYLINDRICAL_SURFACE ( 'NONE', #205, 1.549999999999993161 ) ;
#41 = PRODUCT_RELATED_PRODUCT_CATEGORY ( 'part', '', ( #153 ) ) ;
#42 = CARTESIAN_POINT ( 'NONE',  ( 4.616116152115344207, -0.9999999999999991118, -7.500000000000000000 ) ) ;
#43 = VERTEX_POINT ( 'NONE', #71 ) ;
#44 = FACE_OUTER_BOUND ( 'NONE', #96, .T. ) ;
#45 = LINE ( 'NONE', #84, #108 ) ;
#46 = AXIS2_PLACEMENT_3D ( 'NONE', #210, #204, #87 ) ;
#47 = CARTESIAN_POINT ( 'NONE',  ( 0.000000000000000000, 6.000000000000000000, 7.500000000000000000 ) ) ;
#48 = EDGE_CURVE ( 'NONE', #255, #310, #196, .T. ) ;
#49 = CARTESIAN_POINT ( 'NONE',  ( -1.999999999999999112, -2.166599785118961119, 7.500000000000000000 ) ) ;
#50 = LINE ( 'NONE', #269, #76 ) ;
#51 =( NAMED_UNIT ( * ) PLANE_ANGLE_UNIT ( ) SI_UNIT ( $, .RADIAN. ) );
#52 = DIRECTION ( 'NONE',  ( -0.000000000000000000, -0.000000000000000000, -1.000000000000000000 ) ) ;
#53 = CARTESIAN_POINT ( 'NONE',  ( 1.365481181049296074E-15, 3.000000000000000000, 4.000000000000000000 ) ) ;
#54 = EDGE_CURVE ( 'NONE', #7, #66, #376, .T. ) ;
#55 = VECTOR ( 'NONE', #284, 1000.000000000000000 ) ;
#56 = DIRECTION ( 'NONE',  ( 1.000000000000000000, -0.000000000000000000, -0.000000000000000000 ) ) ;
#57 = EDGE_LOOP ( 'NONE', ( #90, #30, #164, #168 ) ) ;
#58 = DIRECTION ( 'NONE',  ( -1.062084295558226508E-16, 1.000000000000000000, 0.000000000000000000 ) ) ;
#59 = PRODUCT_DEFINITION_FORMATION_WITH_SPECIFIED_SOURCE ( 'ANY', '', #153, .NOT_KNOWN. ) ;
#60 = ADVANCED_FACE ( 'NONE', ( #363 ), #235, .F. ) ;
#61 = ORIENTED_EDGE ( 'NONE', *, *, #373, .F. ) ;
#62 = ORIENTED_EDGE ( 'NONE', *, *, #215, .F. ) ;
#63 = ORIENTED_EDGE ( 'NONE', *, *, #395, .F. ) ;
#64 = EDGE_CURVE ( 'NONE', #213, #43, #45, .T. ) ;
#65 = DIRECTION ( 'NONE',  ( 0.000000000000000000, 0.000000000000000000, -1.000000000000000000 ) ) ;
#66 = VERTEX_POINT ( 'NONE', #293 ) ;
#67 = VERTEX_POINT ( 'NONE', #297 ) ;
#68 = COLOUR_RGB ( '',0.7921568627450980005, 0.8196078431372548767, 0.9333333333333333481 ) ;
#69 = DIRECTION ( 'NONE',  ( 0.000000000000000000, 0.000000000000000000, -1.000000000000000000 ) ) ;
#70 = LINE ( 'NONE', #8, #177 ) ;
#71 = CARTESIAN_POINT ( 'NONE',  ( 4.616116152115344207, -0.9999999999999991118, -7.500000000000000000 ) ) ;
#72 = EDGE_CURVE ( 'NONE', #9, #281, #50, .T. ) ;
#73 = CARTESIAN_POINT ( 'NONE',  ( 1.365481181049296074E-15, 3.000000000000000000, -5.549999999999987388 ) ) ;
#74 = EDGE_LOOP ( 'NONE', ( #159, #317, #36, #187 ) ) ;
#75 = CYLINDRICAL_SURFACE ( 'NONE', #341, 1.549999999999993161 ) ;
#76 = VECTOR ( 'NONE', #391, 1000.000000000000000 ) ;
#77 = EDGE_LOOP ( 'NONE', ( #191, #379, #216, #27 ) ) ;
#78 = CARTESIAN_POINT ( 'NONE',  ( -1.999999999999999112, -2.166599785118961119, 7.500000000000000000 ) ) ;
#79 = FILL_AREA_STYLE ('',( #355 ) ) ;
#80 = AXIS2_PLACEMENT_3D ( 'NONE', #331, #173, #274 ) ;
#81 = CARTESIAN_POINT ( 'NONE',  ( -2.000000000000000000, 3.000000000000000000, 2.450000000000000622 ) ) ;
#82 = DIRECTION ( 'NONE',  ( 1.000000000000000000, 1.062084295558226508E-16, -0.000000000000000000 ) ) ;
#83 = DIRECTION ( 'NONE',  ( 0.000000000000000000, 0.000000000000000000, 1.000000000000000000 ) ) ;
#84 = CARTESIAN_POINT ( 'NONE',  ( -1.999999999999999112, -2.166599785118961119, -7.500000000000000000 ) ) ;
#85 =( GEOMETRIC_REPRESENTATION_CONTEXT ( 3 ) GLOBAL_UNCERTAINTY_ASSIGNED_CONTEXT ( ( #324 ) ) GLOBAL_UNIT_ASSIGNED_CONTEXT ( ( #176, #206, #148 ) ) REPRESENTATION_CONTEXT ( 'NONE', 'WORKASPACE' ) );
#86 = EDGE_CURVE ( 'NONE', #279, #242, #241, .T. ) ;
#87 = DIRECTION ( 'NONE',  ( 0.000000000000000000, 0.000000000000000000, -1.000000000000000000 ) ) ;
#88 = DIRECTION ( 'NONE',  ( 1.000000000000000000, -0.000000000000000000, -0.000000000000000000 ) ) ;
#89 = CARTESIAN_POINT ( 'NONE',  ( 0.000000000000000000, 6.000000000000000000, 7.500000000000000000 ) ) ;
#90 = ORIENTED_EDGE ( 'NONE', *, *, #137, .F. ) ;
#91 = AXIS2_PLACEMENT_3D ( 'NONE', #263, #286, #313 ) ;
#92 = EDGE_CURVE ( 'NONE', #243, #399, #20, .T. ) ;
#93 = ORIENTED_EDGE ( 'NONE', *, *, #203, .T. ) ;
#94 = DIRECTION ( 'NONE',  ( 1.000000000000000000, -0.000000000000000000, -0.000000000000000000 ) ) ;
#95 = CIRCLE ( 'NONE', #320, 1.549999999999999378 ) ;
#96 = EDGE_LOOP ( 'NONE', ( #338, #258, #3, #222, #6, #276 ) ) ;
#97 = DIRECTION ( 'NONE',  ( 1.734723475976806897E-15, -1.000000000000000000, 0.000000000000000000 ) ) ;
#98 = CARTESIAN_POINT ( 'NONE',  ( 4.616116152115342430, 1.059586502402661235E-15, 7.500000000000000000 ) ) ;
#99 = CARTESIAN_POINT ( 'NONE',  ( 0.000000000000000000, 0.000000000000000000, 7.500000000000000000 ) ) ;
#100 = AXIS2_PLACEMENT_3D ( 'NONE', #298, #387, #146 ) ;
#101 = FACE_OUTER_BOUND ( 'NONE', #314, .T. ) ;
#102 = PLANE ( 'NONE',  #151 ) ;
#103 = ORIENTED_EDGE ( 'NONE', *, *, #72, .F. ) ;
#104 = CARTESIAN_POINT ( 'NONE',  ( 1.365481181049296074E-15, 3.000000000000000000, -4.000000000000000000 ) ) ;
#105 = EDGE_LOOP ( 'NONE', ( #194, #200 ) ) ;
#106 = EDGE_CURVE ( 'NONE', #242, #399, #170, .T. ) ;
#107 = DIRECTION ( 'NONE',  ( 0.000000000000000000, 0.000000000000000000, -1.000000000000000000 ) ) ;
#108 = VECTOR ( 'NONE', #143, 1000.000000000000227 ) ;
#109 = CARTESIAN_POINT ( 'NONE',  ( 0.000000000000000000, 6.000000000000000000, 7.500000000000000000 ) ) ;
#110 = CARTESIAN_POINT ( 'NONE',  ( -1.999999999999999112, -2.166599785118961119, -7.500000000000000000 ) ) ;
#111 = CARTESIAN_POINT ( 'NONE',  ( -2.000000000000000000, 6.000000000000000000, 7.500000000000000000 ) ) ;
#112 = APPLICATION_PROTOCOL_DEFINITION ( 'draft international standard', 'automotive_design', 1998, #247 ) ;
#113 = EDGE_CURVE ( 'NONE', #368, #123, #207, .T. ) ;
#114 = CARTESIAN_POINT ( 'NONE',  ( 1.365481181049296074E-15, 3.000000000000000000, 4.000000000000000000 ) ) ;
#115 = DIRECTION ( 'NONE',  ( 0.000000000000000000, 0.000000000000000000, -1.000000000000000000 ) ) ;
#116 = FACE_BOUND ( 'NONE', #105, .T. ) ;
#117 = CYLINDRICAL_SURFACE ( 'NONE', #357, 1.549999999999993161 ) ;
#118 = CARTESIAN_POINT ( 'NONE',  ( 0.000000000000000000, 3.000000000000000000, 4.000000000000000000 ) ) ;
#119 = ORIENTED_EDGE ( 'NONE', *, *, #339, .T. ) ;
#120 = VERTEX_POINT ( 'NONE', #202 ) ;
#121 = EDGE_LOOP ( 'NONE', ( #150, #312 ) ) ;
#122 = EDGE_CURVE ( 'NONE', #66, #368, #394, .T. ) ;
#123 = VERTEX_POINT ( 'NONE', #142 ) ;
#124 = MANIFOLD_SOLID_BREP ( 'Dégagement M2.51', #262 ) ;
#125 = ORIENTED_EDGE ( 'NONE', *, *, #395, .T. ) ;
#126 = ADVANCED_FACE ( 'NONE', ( #116, #17, #390 ), #237, .F. ) ;
#127 = CARTESIAN_POINT ( 'NONE',  ( 1.365481181049296074E-15, 3.000000000000000000, -4.000000000000000000 ) ) ;
#128 = CIRCLE ( 'NONE', #382, 1.549999999999987166 ) ;
#129 = CARTESIAN_POINT ( 'NONE',  ( 0.000000000000000000, 3.000000000000000000, 4.000000000000000000 ) ) ;
#130 = ADVANCED_FACE ( 'NONE', ( #183 ), #301, .F. ) ;
#131 = PLANE ( 'NONE',  #91 ) ;
#132 = CARTESIAN_POINT ( 'NONE',  ( 4.616116152115342430, 1.059586502402661235E-15, -7.500000000000000000 ) ) ;
#133 = CARTESIAN_POINT ( 'NONE',  ( -2.000000000000000000, 3.000000000000000000, -4.000000000000000000 ) ) ;
#134 = VECTOR ( 'NONE', #94, 1000.000000000000000 ) ;
#135 = VERTEX_POINT ( 'NONE', #152 ) ;
#136 = DIRECTION ( 'NONE',  ( 0.000000000000000000, 0.000000000000000000, -1.000000000000000000 ) ) ;
#137 = EDGE_CURVE ( 'NONE', #120, #255, #344, .T. ) ;
#138 = VERTEX_POINT ( 'NONE', #305 ) ;
#139 = CIRCLE ( 'NONE', #193, 1.549999999999987166 ) ;
#140 = CARTESIAN_POINT ( 'NONE',  ( 4.616116152115342430, 1.059586502402661235E-15, 7.500000000000000000 ) ) ;
#141 = CARTESIAN_POINT ( 'NONE',  ( -2.000000000000000000, 3.000000000000000000, -5.549999999999998934 ) ) ;
#142 = CARTESIAN_POINT ( 'NONE',  ( 0.000000000000000000, 6.000000000000000000, -7.500000000000000000 ) ) ;
#143 = DIRECTION ( 'NONE',  ( 0.9848077530122091305, 0.1736481776669240029, 0.000000000000000000 ) ) ;
#144 = CARTESIAN_POINT ( 'NONE',  ( 1.365481181049296074E-15, 3.000000000000000000, 5.549999999999987388 ) ) ;
#145 = EDGE_CURVE ( 'NONE', #138, #310, #277, .T. ) ;
#146 = DIRECTION ( 'NONE',  ( 1.000000000000000000, 2.295406934067514857E-16, 0.000000000000000000 ) ) ;
#147 = VECTOR ( 'NONE', #250, 1000.000000000000000 ) ;
#148 =( NAMED_UNIT ( * ) SI_UNIT ( $, .STERADIAN. ) SOLID_ANGLE_UNIT ( ) );
#149 = EDGE_CURVE ( 'NONE', #279, #243, #29, .T. ) ;
#150 = ORIENTED_EDGE ( 'NONE', *, *, #339, .F. ) ;
#151 = AXIS2_PLACEMENT_3D ( 'NONE', #47, #253, #380 ) ;
#152 = CARTESIAN_POINT ( 'NONE',  ( 4.616116152115342430, 1.059586502402661235E-15, -7.500000000000000000 ) ) ;
#153 = PRODUCT ( 'ART_Butee_20', 'ART_Butee_20', '', ( #358 ) ) ;
#154 = ORIENTED_EDGE ( 'NONE', *, *, #113, .F. ) ;
#155 = VECTOR ( 'NONE', #221, 1000.000000000000000 ) ;
#156 = ORIENTED_EDGE ( 'NONE', *, *, #373, .T. ) ;
#157 = PRODUCT_DEFINITION_SHAPE ( 'NONE', 'NONE',  #197 ) ;
#158 = ORIENTED_EDGE ( 'NONE', *, *, #149, .F. ) ;
#159 = ORIENTED_EDGE ( 'NONE', *, *, #106, .F. ) ;
#160 = VECTOR ( 'NONE', #260, 1000.000000000000000 ) ;
#161 = DIRECTION ( 'NONE',  ( -1.000000000000000000, -1.734723475976806897E-15, 0.000000000000000000 ) ) ;
#162 = DIRECTION ( 'NONE',  ( -1.734723475976806700E-15, 1.000000000000000000, 0.000000000000000000 ) ) ;
#163 = VECTOR ( 'NONE', #162, 1000.000000000000000 ) ;
#164 = ORIENTED_EDGE ( 'NONE', *, *, #145, .T. ) ;
#165 = DIRECTION ( 'NONE',  ( -1.000000000000000000, 0.000000000000000000, 0.000000000000000000 ) ) ;
#166 = ORIENTED_EDGE ( 'NONE', *, *, #190, .T. ) ;
#167 = CARTESIAN_POINT ( 'NONE',  ( 0.000000000000000000, 3.000000000000000000, -4.000000000000000000 ) ) ;
#168 = ORIENTED_EDGE ( 'NONE', *, *, #48, .F. ) ;
#169 = DIRECTION ( 'NONE',  ( 1.000000000000000000, -0.000000000000000000, -0.000000000000000000 ) ) ;
#170 = LINE ( 'NONE', #174, #160 ) ;
#171 = LINE ( 'NONE', #231, #180 ) ;
#172 = DIRECTION ( 'NONE',  ( 0.000000000000000000, 0.000000000000000000, -1.000000000000000000 ) ) ;
#173 = DIRECTION ( 'NONE',  ( -1.000000000000000000, 0.000000000000000000, 0.000000000000000000 ) ) ;
#174 = CARTESIAN_POINT ( 'NONE',  ( 0.000000000000000000, 3.000000000000000000, 5.549999999999993605 ) ) ;
#175 = CARTESIAN_POINT ( 'NONE',  ( 4.616116152115344207, -0.9999999999999991118, 7.500000000000000000 ) ) ;
#176 =( LENGTH_UNIT ( ) NAMED_UNIT ( * ) SI_UNIT ( .MILLI., .METRE. ) );
#177 = VECTOR ( 'NONE', #165, 1000.000000000000000 ) ;
#178 =( NAMED_UNIT ( * ) SI_UNIT ( $, .STERADIAN. ) SOLID_ANGLE_UNIT ( ) );
#179 = DIRECTION ( 'NONE',  ( 1.000000000000000000, -0.000000000000000000, -0.000000000000000000 ) ) ;
#180 = VECTOR ( 'NONE', #346, 1000.000000000000000 ) ;
#181 = FACE_OUTER_BOUND ( 'NONE', #57, .T. ) ;
#182 = VERTEX_POINT ( 'NONE', #214 ) ;
#183 = FACE_OUTER_BOUND ( 'NONE', #74, .T. ) ;
#184 = ORIENTED_EDGE ( 'NONE', *, *, #385, .F. ) ;
#185 = ORIENTED_EDGE ( 'NONE', *, *, #190, .F. ) ;
#186 = EDGE_CURVE ( 'NONE', #368, #9, #337, .T. ) ;
#187 = ORIENTED_EDGE ( 'NONE', *, *, #92, .T. ) ;
#188 = VECTOR ( 'NONE', #23, 1000.000000000000000 ) ;
#189 = ORIENTED_EDGE ( 'NONE', *, *, #203, .F. ) ;
#190 = EDGE_CURVE ( 'NONE', #9, #67, #171, .T. ) ;
#191 = ORIENTED_EDGE ( 'NONE', *, *, #22, .T. ) ;
#192 = CARTESIAN_POINT ( 'NONE',  ( 4.616116152115344207, -0.9999999999999991118, 7.500000000000000000 ) ) ;
#193 = AXIS2_PLACEMENT_3D ( 'NONE', #53, #21, #266 ) ;
#194 = ORIENTED_EDGE ( 'NONE', *, *, #86, .T. ) ;
#195 = DIRECTION ( 'NONE',  ( -0.000000000000000000, -0.000000000000000000, -1.000000000000000000 ) ) ;
#196 = LINE ( 'NONE', #342, #360 ) ;
#197 = PRODUCT_DEFINITION ( 'UNKNOWN', '', #59, #264 ) ;
#198 = VECTOR ( 'NONE', #292, 1000.000000000000000 ) ;
#199 = LINE ( 'NONE', #42, #163 ) ;
#200 = ORIENTED_EDGE ( 'NONE', *, *, #350, .T. ) ;
#201 = FACE_OUTER_BOUND ( 'NONE', #219, .T. ) ;
#202 = CARTESIAN_POINT ( 'NONE',  ( -2.000000000000000000, 3.000000000000000000, -2.450000000000000622 ) ) ;
#203 = EDGE_CURVE ( 'NONE', #255, #120, #95, .T. ) ;
#204 = DIRECTION ( 'NONE',  ( 1.000000000000000000, -0.000000000000000000, -0.000000000000000000 ) ) ;
#205 = AXIS2_PLACEMENT_3D ( 'NONE', #129, #34, #69 ) ;
#206 =( NAMED_UNIT ( * ) PLANE_ANGLE_UNIT ( ) SI_UNIT ( $, .RADIAN. ) );
#207 = LINE ( 'NONE', #109, #28 ) ;
#208 = EDGE_CURVE ( 'NONE', #278, #123, #354, .T. ) ;
#209 = PLANE ( 'NONE',  #80 ) ;
#210 = CARTESIAN_POINT ( 'NONE',  ( -2.000000000000000000, 3.000000000000000000, 4.000000000000000000 ) ) ;
#211 = AXIS2_PLACEMENT_3D ( 'NONE', #234, #107, #39 ) ;
#212 = ORIENTED_EDGE ( 'NONE', *, *, #350, .F. ) ;
#213 = VERTEX_POINT ( 'NONE', #110 ) ;
#214 = CARTESIAN_POINT ( 'NONE',  ( 4.616116152115344207, -0.9999999999999991118, 7.500000000000000000 ) ) ;
#215 = EDGE_CURVE ( 'NONE', #120, #138, #12, .T. ) ;
#216 = ORIENTED_EDGE ( 'NONE', *, *, #54, .F. ) ;
#217 = CARTESIAN_POINT ( 'NONE',  ( 0.000000000000000000, 3.000000000000000000, 2.450000000000006839 ) ) ;
#218 = ORIENTED_EDGE ( 'NONE', *, *, #48, .T. ) ;
#219 = EDGE_LOOP ( 'NONE', ( #334, #184, #336, #289 ) ) ;
#220 = AXIS2_PLACEMENT_3D ( 'NONE', #236, #83, #296 ) ;
#221 = DIRECTION ( 'NONE',  ( -1.000000000000000000, -2.295406934067514857E-16, 0.000000000000000000 ) ) ;
#222 = ORIENTED_EDGE ( 'NONE', *, *, #18, .F. ) ;
#223 = AXIS2_PLACEMENT_3D ( 'NONE', #275, #240, #367 ) ;
#224 = CARTESIAN_POINT ( 'NONE',  ( 0.000000000000000000, 0.000000000000000000, -7.500000000000000000 ) ) ;
#225 = EDGE_LOOP ( 'NONE', ( #308, #61 ) ) ;
#226 = CARTESIAN_POINT ( 'NONE',  ( 0.000000000000000000, 0.000000000000000000, -7.500000000000000000 ) ) ;
#227 = ORIENTED_EDGE ( 'NONE', *, *, #18, .T. ) ;
#228 = CARTESIAN_POINT ( 'NONE',  ( 1.365481181049296074E-15, 3.000000000000000000, 2.450000000000013056 ) ) ;
#229 = ORIENTED_EDGE ( 'NONE', *, *, #137, .T. ) ;
#230 = AXIS2_PLACEMENT_3D ( 'NONE', #118, #26, #24 ) ;
#231 = CARTESIAN_POINT ( 'NONE',  ( -2.000000000000000000, 6.000000000000000000, 7.500000000000000000 ) ) ;
#232 = UNCERTAINTY_MEASURE_WITH_UNIT (LENGTH_MEASURE( 1.000000000000000082E-05 ), #398, 'distance_accuracy_value', 'NONE');
#233 = DIRECTION ( 'NONE',  ( 0.000000000000000000, 1.000000000000000000, 0.000000000000000000 ) ) ;
#234 = CARTESIAN_POINT ( 'NONE',  ( 0.000000000000000000, 0.000000000000000000, 7.500000000000000000 ) ) ;
#235 = PLANE ( 'NONE',  #100 ) ;
#236 = CARTESIAN_POINT ( 'NONE',  ( 0.000000000000000000, 0.000000000000000000, 0.000000000000000000 ) ) ;
#237 = PLANE ( 'NONE',  #332 ) ;
#238 = CARTESIAN_POINT ( 'NONE',  ( 0.000000000000000000, 0.000000000000000000, 7.500000000000000000 ) ) ;
#239 = ORIENTED_EDGE ( 'NONE', *, *, #285, .T. ) ;
#240 = DIRECTION ( 'NONE',  ( 1.000000000000000000, -0.000000000000000000, -0.000000000000000000 ) ) ;
#241 = CIRCLE ( 'NONE', #299, 1.549999999999999378 ) ;
#242 = VERTEX_POINT ( 'NONE', #377 ) ;
#243 = VERTEX_POINT ( 'NONE', #228 ) ;
#244 = VECTOR ( 'NONE', #362, 1000.000000000000000 ) ;
#245 = ORIENTED_EDGE ( 'NONE', *, *, #254, .T. ) ;
#246 = ADVANCED_FACE ( 'NONE', ( #356 ), #283, .F. ) ;
#247 = APPLICATION_CONTEXT ( 'automotive_design' ) ;
#248 = EDGE_LOOP ( 'NONE', ( #239, #185, #272, #38 ) ) ;
#249 = DIRECTION ( 'NONE',  ( 1.000000000000000000, -0.000000000000000000, -0.000000000000000000 ) ) ;
#250 = DIRECTION ( 'NONE',  ( 0.000000000000000000, 1.000000000000000000, 0.000000000000000000 ) ) ;
#251 = CARTESIAN_POINT ( 'NONE',  ( 4.616116152115342430, 1.059586502402661235E-15, 7.500000000000000000 ) ) ;
#252 = MECHANICAL_DESIGN_GEOMETRIC_PRESENTATION_REPRESENTATION (  '', ( #378 ), #85 ) ;
#253 = DIRECTION ( 'NONE',  ( 0.000000000000000000, -1.000000000000000000, 0.000000000000000000 ) ) ;
#254 = EDGE_CURVE ( 'NONE', #66, #278, #318, .T. ) ;
#255 = VERTEX_POINT ( 'NONE', #141 ) ;
#256 = LINE ( 'NONE', #140, #2 ) ;
#257 = CIRCLE ( 'NONE', #46, 1.549999999999999378 ) ;
#258 = ORIENTED_EDGE ( 'NONE', *, *, #280, .F. ) ;
#259 = DIRECTION ( 'NONE',  ( 0.000000000000000000, 0.000000000000000000, -1.000000000000000000 ) ) ;
#260 = DIRECTION ( 'NONE',  ( 1.000000000000000000, -0.000000000000000000, -0.000000000000000000 ) ) ;
#261 = ADVANCED_FACE ( 'NONE', ( #201 ), #131, .F. ) ;
#262 = CLOSED_SHELL ( 'NONE', ( #1, #375, #359, #60, #302, #126, #261, #13, #246, #309, #315, #130 ) ) ;
#263 = CARTESIAN_POINT ( 'NONE',  ( -1.999999999999999112, -2.166599785118961119, 7.500000000000000000 ) ) ;
#264 = PRODUCT_DEFINITION_CONTEXT ( 'detailed design', #369, 'design' ) ;
#265 = PRESENTATION_STYLE_ASSIGNMENT (( #291 ) ) ;
#266 = DIRECTION ( 'NONE',  ( 0.000000000000000000, 0.000000000000000000, -1.000000000000000000 ) ) ;
#267 = CARTESIAN_POINT ( 'NONE',  ( -2.000000000000000000, 3.000000000000000000, 4.000000000000000000 ) ) ;
#268 = SHAPE_DEFINITION_REPRESENTATION ( #157, #392 ) ;
#269 = CARTESIAN_POINT ( 'NONE',  ( -2.000000000000000000, 6.000000000000000000, 7.500000000000000000 ) ) ;
#270 = FACE_BOUND ( 'NONE', #225, .T. ) ;
#271 = EDGE_CURVE ( 'NONE', #281, #182, #37, .T. ) ;
#272 = ORIENTED_EDGE ( 'NONE', *, *, #186, .F. ) ;
#273 = VECTOR ( 'NONE', #52, 1000.000000000000000 ) ;
#274 = DIRECTION ( 'NONE',  ( 0.000000000000000000, 0.000000000000000000, 1.000000000000000000 ) ) ;
#275 = CARTESIAN_POINT ( 'NONE',  ( -2.000000000000000000, 3.000000000000000000, -4.000000000000000000 ) ) ;
#276 = ORIENTED_EDGE ( 'NONE', *, *, #208, .F. ) ;
#277 = CIRCLE ( 'NONE', #306, 1.549999999999987166 ) ;
#278 = VERTEX_POINT ( 'NONE', #224 ) ;
#279 = VERTEX_POINT ( 'NONE', #81 ) ;
#280 = EDGE_CURVE ( 'NONE', #43, #135, #199, .T. ) ;
#281 = VERTEX_POINT ( 'NONE', #78 ) ;
#282 = LINE ( 'NONE', #132, #155 ) ;
#283 = PLANE ( 'NONE',  #211 ) ;
#284 = DIRECTION ( 'NONE',  ( -1.000000000000000000, -2.295406934067514857E-16, 0.000000000000000000 ) ) ;
#285 = EDGE_CURVE ( 'NONE', #123, #67, #70, .T. ) ;
#286 = DIRECTION ( 'NONE',  ( -0.1736481776669240307, 0.9848077530122092416, 0.000000000000000000 ) ) ;
#287 = CARTESIAN_POINT ( 'NONE',  ( -2.000000000000000000, 6.000000000000000000, 7.500000000000000000 ) ) ;
#288 = PLANE ( 'NONE',  #32 ) ;
#289 = ORIENTED_EDGE ( 'NONE', *, *, #343, .T. ) ;
#290 = DIRECTION ( 'NONE',  ( -0.000000000000000000, -0.000000000000000000, -1.000000000000000000 ) ) ;
#291 = SURFACE_STYLE_USAGE ( .BOTH. , #325 ) ;
#292 = DIRECTION ( 'NONE',  ( 1.000000000000000000, -0.000000000000000000, -0.000000000000000000 ) ) ;
#293 = CARTESIAN_POINT ( 'NONE',  ( 0.000000000000000000, 0.000000000000000000, 7.500000000000000000 ) ) ;
#294 = FACE_OUTER_BOUND ( 'NONE', #14, .T. ) ;
#295 = DIRECTION ( 'NONE',  ( -0.000000000000000000, -0.000000000000000000, -1.000000000000000000 ) ) ;
#296 = DIRECTION ( 'NONE',  ( 1.000000000000000000, 0.000000000000000000, 0.000000000000000000 ) ) ;
#297 = CARTESIAN_POINT ( 'NONE',  ( -2.000000000000000000, 6.000000000000000000, -7.500000000000000000 ) ) ;
#298 = CARTESIAN_POINT ( 'NONE',  ( 4.616116152115342430, 1.059586502402661235E-15, 7.500000000000000000 ) ) ;
#299 = AXIS2_PLACEMENT_3D ( 'NONE', #267, #88, #172 ) ;
#300 = LINE ( 'NONE', #175, #188 ) ;
#301 = CYLINDRICAL_SURFACE ( 'NONE', #230, 1.549999999999993161 ) ;
#302 = ADVANCED_FACE ( 'NONE', ( #10 ), #102, .F. ) ;
#303 = EDGE_LOOP ( 'NONE', ( #227, #372, #103, #166 ) ) ;
#304 = ORIENTED_EDGE ( 'NONE', *, *, #72, .T. ) ;
#305 = CARTESIAN_POINT ( 'NONE',  ( 1.365481181049296074E-15, 3.000000000000000000, -2.450000000000013056 ) ) ;
#306 = AXIS2_PLACEMENT_3D ( 'NONE', #127, #335, #65 ) ;
#307 = CARTESIAN_POINT ( 'NONE',  ( 0.000000000000000000, 6.000000000000000000, 7.500000000000000000 ) ) ;
#308 = ORIENTED_EDGE ( 'NONE', *, *, #92, .F. ) ;
#309 = ADVANCED_FACE ( 'NONE', ( #44 ), #288, .T. ) ;
#310 = VERTEX_POINT ( 'NONE', #73 ) ;
#311 = VECTOR ( 'NONE', #383, 1000.000000000000227 ) ;
#312 = ORIENTED_EDGE ( 'NONE', *, *, #145, .F. ) ;
#313 = DIRECTION ( 'NONE',  ( -0.9848077530122091305, -0.1736481776669240029, 0.000000000000000000 ) ) ;
#314 = EDGE_LOOP ( 'NONE', ( #319, #370, #63, #25 ) ) ;
#315 = ADVANCED_FACE ( 'NONE', ( #321 ), #75, .F. ) ;
#316 = DIRECTION ( 'NONE',  ( 0.000000000000000000, 0.000000000000000000, -1.000000000000000000 ) ) ;
#317 = ORIENTED_EDGE ( 'NONE', *, *, #86, .F. ) ;
#318 = LINE ( 'NONE', #99, #35 ) ;
#319 = ORIENTED_EDGE ( 'NONE', *, *, #280, .T. ) ;
#320 = AXIS2_PLACEMENT_3D ( 'NONE', #133, #15, #316 ) ;
#321 = FACE_OUTER_BOUND ( 'NONE', #371, .T. ) ;
#322 = DIRECTION ( 'NONE',  ( 0.000000000000000000, 0.000000000000000000, -1.000000000000000000 ) ) ;
#323 = CARTESIAN_POINT ( 'NONE',  ( -1.999999999999999112, -2.166599785118961119, 7.500000000000000000 ) ) ;
#324 = UNCERTAINTY_MEASURE_WITH_UNIT (LENGTH_MEASURE( 1.000000000000000082E-05 ), #176, 'distance_accuracy_value', 'NONE');
#325 = SURFACE_SIDE_STYLE ('',( #361 ) ) ;
#326 = CARTESIAN_POINT ( 'NONE',  ( 4.616116152115344207, -0.9999999999999991118, 7.500000000000000000 ) ) ;
#327 = VECTOR ( 'NONE', #349, 1000.000000000000000 ) ;
#328 = EDGE_CURVE ( 'NONE', #7, #135, #256, .T. ) ;
#329 = LINE ( 'NONE', #326, #273 ) ;
#330 = LINE ( 'NONE', #49, #244 ) ;
#331 = CARTESIAN_POINT ( 'NONE',  ( 0.000000000000000000, 0.000000000000000000, 7.500000000000000000 ) ) ;
#332 = AXIS2_PLACEMENT_3D ( 'NONE', #111, #82, #58 ) ;
#333 = ORIENTED_EDGE ( 'NONE', *, *, #208, .T. ) ;
#334 = ORIENTED_EDGE ( 'NONE', *, *, #64, .T. ) ;
#335 = DIRECTION ( 'NONE',  ( 1.000000000000000000, -0.000000000000000000, -0.000000000000000000 ) ) ;
#336 = ORIENTED_EDGE ( 'NONE', *, *, #271, .F. ) ;
#337 = LINE ( 'NONE', #307, #388 ) ;
#338 = ORIENTED_EDGE ( 'NONE', *, *, #22, .F. ) ;
#339 = EDGE_CURVE ( 'NONE', #310, #138, #128, .T. ) ;
#340 = ORIENTED_EDGE ( 'NONE', *, *, #271, .T. ) ;
#341 = AXIS2_PLACEMENT_3D ( 'NONE', #167, #169, #136 ) ;
#342 = CARTESIAN_POINT ( 'NONE',  ( 0.000000000000000000, 3.000000000000000000, -5.549999999999993605 ) ) ;
#343 = EDGE_CURVE ( 'NONE', #281, #213, #330, .T. ) ;
#344 = CIRCLE ( 'NONE', #223, 1.549999999999999378 ) ;
#345 = ORIENTED_EDGE ( 'NONE', *, *, #106, .T. ) ;
#346 = DIRECTION ( 'NONE',  ( -0.000000000000000000, -0.000000000000000000, -1.000000000000000000 ) ) ;
#347 = LINE ( 'NONE', #11, #327 ) ;
#348 = DIRECTION ( 'NONE',  ( -1.000000000000000000, 0.000000000000000000, 0.000000000000000000 ) ) ;
#349 = DIRECTION ( 'NONE',  ( 1.062084295558226508E-16, -1.000000000000000000, 0.000000000000000000 ) ) ;
#350 = EDGE_CURVE ( 'NONE', #242, #279, #257, .T. ) ;
#351 = DIRECTION ( 'NONE',  ( 1.000000000000000000, -0.000000000000000000, -0.000000000000000000 ) ) ;
#352 = FACE_OUTER_BOUND ( 'NONE', #4, .T. ) ;
#353 = VECTOR ( 'NONE', #233, 1000.000000000000000 ) ;
#354 = LINE ( 'NONE', #389, #147 ) ;
#355 = FILL_AREA_STYLE_COLOUR ( '', #68 ) ;
#356 = FACE_OUTER_BOUND ( 'NONE', #401, .T. ) ;
#357 = AXIS2_PLACEMENT_3D ( 'NONE', #365, #56, #115 ) ;
#358 = PRODUCT_CONTEXT ( 'NONE', #247, 'mechanical' ) ;
#359 = ADVANCED_FACE ( 'NONE', ( #270, #294, #393 ), #209, .F. ) ;
#360 = VECTOR ( 'NONE', #249, 1000.000000000000000 ) ;
#361 = SURFACE_STYLE_FILL_AREA ( #79 ) ;
#362 = DIRECTION ( 'NONE',  ( -0.000000000000000000, -0.000000000000000000, -1.000000000000000000 ) ) ;
#363 = FACE_OUTER_BOUND ( 'NONE', #77, .T. ) ;
#364 = ORIENTED_EDGE ( 'NONE', *, *, #122, .F. ) ;
#365 = CARTESIAN_POINT ( 'NONE',  ( 0.000000000000000000, 3.000000000000000000, -4.000000000000000000 ) ) ;
#366 = AXIS2_PLACEMENT_3D ( 'NONE', #192, #161, #97 ) ;
#367 = DIRECTION ( 'NONE',  ( 0.000000000000000000, 0.000000000000000000, -1.000000000000000000 ) ) ;
#368 = VERTEX_POINT ( 'NONE', #89 ) ;
#369 = APPLICATION_CONTEXT ( 'automotive_design' ) ;
#370 = ORIENTED_EDGE ( 'NONE', *, *, #328, .F. ) ;
#371 = EDGE_LOOP ( 'NONE', ( #62, #189, #218, #119 ) ) ;
#372 = ORIENTED_EDGE ( 'NONE', *, *, #343, .F. ) ;
#373 = EDGE_CURVE ( 'NONE', #399, #243, #139, .T. ) ;
#374 = PLANE ( 'NONE',  #366 ) ;
#375 = ADVANCED_FACE ( 'NONE', ( #181 ), #117, .F. ) ;
#376 = LINE ( 'NONE', #98, #55 ) ;
#377 = CARTESIAN_POINT ( 'NONE',  ( -2.000000000000000000, 3.000000000000000000, 5.549999999999998934 ) ) ;
#378 = STYLED_ITEM ( 'NONE', ( #265 ), #124 ) ;
#379 = ORIENTED_EDGE ( 'NONE', *, *, #254, .F. ) ;
#380 = DIRECTION ( 'NONE',  ( 0.000000000000000000, -0.000000000000000000, -1.000000000000000000 ) ) ;
#381 = EDGE_LOOP ( 'NONE', ( #93, #229 ) ) ;
#382 = AXIS2_PLACEMENT_3D ( 'NONE', #104, #351, #386 ) ;
#383 = DIRECTION ( 'NONE',  ( 0.9848077530122091305, 0.1736481776669240029, 0.000000000000000000 ) ) ;
#384 = ORIENTED_EDGE ( 'NONE', *, *, #54, .T. ) ;
#385 = EDGE_CURVE ( 'NONE', #182, #43, #329, .T. ) ;
#386 = DIRECTION ( 'NONE',  ( 0.000000000000000000, 0.000000000000000000, -1.000000000000000000 ) ) ;
#387 = DIRECTION ( 'NONE',  ( 2.295406934067514857E-16, -1.000000000000000000, 0.000000000000000000 ) ) ;
#388 = VECTOR ( 'NONE', #31, 1000.000000000000000 ) ;
#389 = CARTESIAN_POINT ( 'NONE',  ( 0.000000000000000000, 0.000000000000000000, -7.500000000000000000 ) ) ;
#390 = FACE_OUTER_BOUND ( 'NONE', #303, .T. ) ;
#391 = DIRECTION ( 'NONE',  ( 1.062084295558226508E-16, -1.000000000000000000, 0.000000000000000000 ) ) ;
#392 = ADVANCED_BREP_SHAPE_REPRESENTATION ( 'ART_Butee_20', ( #124, #220 ), #396 ) ;
#393 = FACE_BOUND ( 'NONE', #121, .T. ) ;
#394 = LINE ( 'NONE', #238, #353 ) ;
#395 = EDGE_CURVE ( 'NONE', #182, #7, #300, .T. ) ;
#396 =( GEOMETRIC_REPRESENTATION_CONTEXT ( 3 ) GLOBAL_UNCERTAINTY_ASSIGNED_CONTEXT ( ( #232 ) ) GLOBAL_UNIT_ASSIGNED_CONTEXT ( ( #398, #51, #178 ) ) REPRESENTATION_CONTEXT ( 'NONE', 'WORKASPACE' ) );
#397 = ORIENTED_EDGE ( 'NONE', *, *, #122, .T. ) ;
#398 =( LENGTH_UNIT ( ) NAMED_UNIT ( * ) SI_UNIT ( .MILLI., .METRE. ) );
#399 = VERTEX_POINT ( 'NONE', #144 ) ;
#400 = AXIS2_PLACEMENT_3D ( 'NONE', #114, #179, #322 ) ;
#401 = EDGE_LOOP ( 'NONE', ( #384, #397, #33, #304, #340, #125 ) ) ;
ENDSEC;
END-ISO-10303-21;
