ISO-10303-21;
HEADER;
FILE_DESCRIPTION( ( 'STEP AP203' ), '1' );
FILE_NAME( ' ', '  ', ( '  ' ), ( '  ' ), 'PSStep 10.1', '  ', '  ' );
FILE_SCHEMA( ( 'CONFIG_CONTROL_DESIGN' ) );
ENDSEC;
DATA;
#1 = DESIGN_CONTEXT( '', #27, 'design' );
#2 = APPLICATION_PROTOCOL_DEFINITION( 'INTERNATIONAL STANDARD', 'config_control_design', 1994, #27 );
#3 = PRODUCT_CATEGORY_RELATIONSHIP( 'NONE', 'NONE', #28, #29 );
#4 = DATE_AND_TIME( #30, #31 );
#5 = DATE_TIME_ROLE( 'creation_date' );
#6 = DATE_TIME_ROLE( 'classification_date' );
#7 = PERSON_AND_ORGANIZATION_ROLE( 'creator' );
#8 = PERSON_AND_ORGANIZATION_ROLE( 'design_supplier' );
#9 = PERSON_AND_ORGANIZATION_ROLE( 'classification_officer' );
#10 = PERSON_AND_ORGANIZATION_ROLE( 'design_owner' );
#11 = APPROVAL_PERSON_ORGANIZATION( #32, #33, #34 );
#12 = APPROVAL_DATE_TIME( #4, #33 );
#13 = CC_DESIGN_APPROVAL( #33, ( #35, #36, #37 ) );
#14 = CC_DESIGN_DATE_AND_TIME_ASSIGNMENT( #4, #5, ( #37 ) );
#15 = CC_DESIGN_DATE_AND_TIME_ASSIGNMENT( #4, #6, ( #35 ) );
#16 = CC_DESIGN_PERSON_AND_ORGANIZATION_ASSIGNMENT( #32, #10, ( #38 ) );
#17 = CC_DESIGN_PERSON_AND_ORGANIZATION_ASSIGNMENT( #32, #7, ( #37 ) );
#18 = CC_DESIGN_PERSON_AND_ORGANIZATION_ASSIGNMENT( #32, #7, ( #36 ) );
#19 = CC_DESIGN_PERSON_AND_ORGANIZATION_ASSIGNMENT( #32, #8, ( #36 ) );
#20 = CC_DESIGN_SECURITY_CLASSIFICATION( #35, ( #36 ) );
#21 = CC_DESIGN_PERSON_AND_ORGANIZATION_ASSIGNMENT( #32, #9, ( #35 ) );
#22 = SHAPE_DEFINITION_REPRESENTATION( #39, #40 );
#23 =  ( GEOMETRIC_REPRESENTATION_CONTEXT( 3 )GLOBAL_UNCERTAINTY_ASSIGNED_CONTEXT( ( #43 ) )GLOBAL_UNIT_ASSIGNED_CONTEXT( ( #45, #46, #47 ) )REPRESENTATION_CONTEXT( 'NONE', 'WORKSPACE' ) );
#27 = APPLICATION_CONTEXT( 'CONFIGURATION CONTROLLED 3D DESIGNS OF MECHANICAL PARTS AND ASSEMBLIES' );
#28 = PRODUCT_CATEGORY( 'part', 'NONE' );
#29 = PRODUCT_RELATED_PRODUCT_CATEGORY( 'detail', ' ', ( #38 ) );
#30 = CALENDAR_DATE( 2023, 22, 2 );
#31 = LOCAL_TIME( 19, 17, 42.0000000000000, #49 );
#32 = PERSON_AND_ORGANIZATION( #50, #51 );
#33 = APPROVAL( #52, 'SOLID MODEL' );
#34 = APPROVAL_ROLE( 'APPROVED' );
#35 = SECURITY_CLASSIFICATION( '', '', #53 );
#36 = PRODUCT_DEFINITION_FORMATION_WITH_SPECIFIED_SOURCE( ' ', 'NONE', #38, .NOT_KNOWN. );
#37 = PRODUCT_DEFINITION( 'NONE', 'NONE', #36, #1 );
#38 = PRODUCT( '1', '1', 'PART-1-DESC', ( #54 ) );
#39 = PRODUCT_DEFINITION_SHAPE( 'NONE', 'NONE', #37 );
#40 = ADVANCED_BREP_SHAPE_REPRESENTATION( '1', ( #55, #56 ), #23 );
#43 = UNCERTAINTY_MEASURE_WITH_UNIT( LENGTH_MEASURE( 0.00100000000000000 ), #45, '', '' );
#45 =  ( CONVERSION_BASED_UNIT( 'MILLIMETRE', #59 )LENGTH_UNIT(  )NAMED_UNIT( #62 ) );
#46 =  ( NAMED_UNIT( #64 )PLANE_ANGLE_UNIT(  )SI_UNIT( $, .RADIAN. ) );
#47 =  ( NAMED_UNIT( #64 )SI_UNIT( $, .STERADIAN. )SOLID_ANGLE_UNIT(  ) );
#49 = COORDINATED_UNIVERSAL_TIME_OFFSET( 1, 0, .AHEAD. );
#50 = PERSON( '', 'UNSPECIFIED', $, $, $, $ );
#51 = ORGANIZATION( 'UNSPECIFIED', 'UNSPECIFIED', 'UNSPECIFIED' );
#52 = APPROVAL_STATUS( 'approved' );
#53 = SECURITY_CLASSIFICATION_LEVEL( 'unclassified' );
#54 = MECHANICAL_CONTEXT( '', #27, 'mechanical' );
#55 = MANIFOLD_SOLID_BREP( '1', #70 );
#56 = AXIS2_PLACEMENT_3D( '', #71, #72, #73 );
#59 = LENGTH_MEASURE_WITH_UNIT( LENGTH_MEASURE( 1.00000000000000 ), #74 );
#62 = DIMENSIONAL_EXPONENTS( 1.00000000000000, 0.000000000000000, 0.000000000000000, 0.000000000000000, 0.000000000000000, 0.000000000000000, 0.000000000000000 );
#64 = DIMENSIONAL_EXPONENTS( 0.000000000000000, 0.000000000000000, 0.000000000000000, 0.000000000000000, 0.000000000000000, 0.000000000000000, 0.000000000000000 );
#70 = CLOSED_SHELL( '', ( #75, #76, #77, #78, #79, #80, #81, #82, #83, #84, #85, #86 ) );
#71 = CARTESIAN_POINT( '', ( 0.000000000000000, 0.000000000000000, 0.000000000000000 ) );
#72 = DIRECTION( '', ( 0.000000000000000, 0.000000000000000, 1.00000000000000 ) );
#73 = DIRECTION( '', ( 1.00000000000000, 0.000000000000000, 0.000000000000000 ) );
#74 =  ( LENGTH_UNIT(  )NAMED_UNIT( #62 )SI_UNIT( .MILLI., .METRE. ) );
#75 = ADVANCED_FACE( '', ( #88 ), #89, .T. );
#76 = ADVANCED_FACE( '', ( #90 ), #91, .T. );
#77 = ADVANCED_FACE( '', ( #92 ), #93, .T. );
#78 = ADVANCED_FACE( '', ( #94 ), #95, .T. );
#79 = ADVANCED_FACE( '', ( #96 ), #97, .T. );
#80 = ADVANCED_FACE( '', ( #98 ), #99, .T. );
#81 = ADVANCED_FACE( '', ( #100 ), #101, .T. );
#82 = ADVANCED_FACE( '', ( #102 ), #103, .T. );
#83 = ADVANCED_FACE( '', ( #104 ), #105, .F. );
#84 = ADVANCED_FACE( '', ( #106 ), #107, .F. );
#85 = ADVANCED_FACE( '', ( #108 ), #109, .T. );
#86 = ADVANCED_FACE( '', ( #110 ), #111, .F. );
#88 = FACE_OUTER_BOUND( '', #112, .T. );
#89 = CYLINDRICAL_SURFACE( '', #113, 24.7698829072000 );
#90 = FACE_OUTER_BOUND( '', #114, .T. );
#91 = CONICAL_SURFACE( '', #115, 18.0000000000000, 0.523598775598000 );
#92 = FACE_OUTER_BOUND( '', #116, .T. );
#93 = TOROIDAL_SURFACE( '', #117, 14.0000000000000, 4.00000000000000 );
#94 = FACE_OUTER_BOUND( '', #118, .T. );
#95 = TOROIDAL_SURFACE( '', #119, 14.0000000000000, 4.00000000000000 );
#96 = FACE_OUTER_BOUND( '', #120, .T. );
#97 = PLANE( '', #121 );
#98 = FACE_OUTER_BOUND( '', #122, .T. );
#99 = CYLINDRICAL_SURFACE( '', #123, 18.0000000000000 );
#100 = FACE_OUTER_BOUND( '', #124, .T. );
#101 = CYLINDRICAL_SURFACE( '', #125, 18.0000000000000 );
#102 = FACE_OUTER_BOUND( '', #126, .T. );
#103 = CONICAL_SURFACE( '', #127, 18.0000000000000, 0.523598775598000 );
#104 = FACE_OUTER_BOUND( '', #128, .T. );
#105 = TOROIDAL_SURFACE( '', #129, 24.8498829072000, 6.60000000000000 );
#106 = FACE_OUTER_BOUND( '', #130, .T. );
#107 = TOROIDAL_SURFACE( '', #131, 24.8498829072000, 6.60000000000000 );
#108 = FACE_OUTER_BOUND( '', #132, .T. );
#109 = CYLINDRICAL_SURFACE( '', #133, 24.7698829072000 );
#110 = FACE_OUTER_BOUND( '', #134, .T. );
#111 = PLANE( '', #135 );
#112 = EDGE_LOOP( '', ( #136, #137, #138, #139 ) );
#113 = AXIS2_PLACEMENT_3D( '', #140, #141, #142 );
#114 = EDGE_LOOP( '', ( #143, #144, #145, #146 ) );
#115 = AXIS2_PLACEMENT_3D( '', #147, #148, #149 );
#116 = EDGE_LOOP( '', ( #150, #151, #152, #153 ) );
#117 = AXIS2_PLACEMENT_3D( '', #154, #155, #156 );
#118 = EDGE_LOOP( '', ( #157, #158, #159, #160 ) );
#119 = AXIS2_PLACEMENT_3D( '', #161, #162, #163 );
#120 = EDGE_LOOP( '', ( #164, #165 ) );
#121 = AXIS2_PLACEMENT_3D( '', #166, #167, #168 );
#122 = EDGE_LOOP( '', ( #169, #170, #171, #172 ) );
#123 = AXIS2_PLACEMENT_3D( '', #173, #174, #175 );
#124 = EDGE_LOOP( '', ( #176, #177, #178, #179 ) );
#125 = AXIS2_PLACEMENT_3D( '', #180, #181, #182 );
#126 = EDGE_LOOP( '', ( #183, #184, #185, #186 ) );
#127 = AXIS2_PLACEMENT_3D( '', #187, #188, #189 );
#128 = EDGE_LOOP( '', ( #190, #191, #192, #193 ) );
#129 = AXIS2_PLACEMENT_3D( '', #194, #195, #196 );
#130 = EDGE_LOOP( '', ( #197, #198, #199, #200 ) );
#131 = AXIS2_PLACEMENT_3D( '', #201, #202, #203 );
#132 = EDGE_LOOP( '', ( #204, #205, #206, #207 ) );
#133 = AXIS2_PLACEMENT_3D( '', #208, #209, #210 );
#134 = EDGE_LOOP( '', ( #211, #212 ) );
#135 = AXIS2_PLACEMENT_3D( '', #213, #214, #215 );
#136 = ORIENTED_EDGE( '', *, *, #216, .T. );
#137 = ORIENTED_EDGE( '', *, *, #217, .F. );
#138 = ORIENTED_EDGE( '', *, *, #218, .F. );
#139 = ORIENTED_EDGE( '', *, *, #219, .T. );
#140 = CARTESIAN_POINT( '', ( -44.4223178731000, 97.5223178731000, -2.80000000000000 ) );
#141 = DIRECTION( '', ( 0.000000000000000, -0.000000000000000, 1.00000000000000 ) );
#142 = DIRECTION( '', ( -0.379694905753153, -0.925111765434374, 0.000000000000000 ) );
#143 = ORIENTED_EDGE( '', *, *, #220, .T. );
#144 = ORIENTED_EDGE( '', *, *, #221, .F. );
#145 = ORIENTED_EDGE( '', *, *, #222, .F. );
#146 = ORIENTED_EDGE( '', *, *, #223, .T. );
#147 = CARTESIAN_POINT( '', ( -44.4223178731000, 97.5223178731000, -5.26434522125000 ) );
#148 = DIRECTION( '', ( -0.000000000000000, 0.000000000000000, 1.00000000000000 ) );
#149 = DIRECTION( '', ( -0.379694905753153, -0.925111765434374, 0.000000000000000 ) );
#150 = ORIENTED_EDGE( '', *, *, #224, .T. );
#151 = ORIENTED_EDGE( '', *, *, #225, .F. );
#152 = ORIENTED_EDGE( '', *, *, #226, .F. );
#153 = ORIENTED_EDGE( '', *, *, #227, .T. );
#154 = CARTESIAN_POINT( '', ( -44.4223178731000, 97.5223178731000, -25.6000000000000 ) );
#155 = DIRECTION( '', ( -0.000000000000000, 0.000000000000000, -1.00000000000000 ) );
#156 = DIRECTION( '', ( -0.379694905753154, -0.925111765434374, 0.000000000000000 ) );
#157 = ORIENTED_EDGE( '', *, *, #226, .T. );
#158 = ORIENTED_EDGE( '', *, *, #228, .F. );
#159 = ORIENTED_EDGE( '', *, *, #224, .F. );
#160 = ORIENTED_EDGE( '', *, *, #229, .T. );
#161 = CARTESIAN_POINT( '', ( -44.4223178731000, 97.5223178731000, -25.6000000000000 ) );
#162 = DIRECTION( '', ( -0.000000000000000, 0.000000000000000, -1.00000000000000 ) );
#163 = DIRECTION( '', ( -0.379694905753154, -0.925111765434374, 0.000000000000000 ) );
#164 = ORIENTED_EDGE( '', *, *, #228, .T. );
#165 = ORIENTED_EDGE( '', *, *, #225, .T. );
#166 = CARTESIAN_POINT( '', ( -42.8779977771000, 83.6077544433000, -29.6000000000000 ) );
#167 = DIRECTION( '', ( 0.000000000000000, 0.000000000000000, -1.00000000000000 ) );
#168 = DIRECTION( '', ( 0.000000000000000, -1.00000000000000, 0.000000000000000 ) );
#169 = ORIENTED_EDGE( '', *, *, #230, .T. );
#170 = ORIENTED_EDGE( '', *, *, #227, .F. );
#171 = ORIENTED_EDGE( '', *, *, #231, .F. );
#172 = ORIENTED_EDGE( '', *, *, #221, .T. );
#173 = CARTESIAN_POINT( '', ( -44.4223178731000, 97.5223178731000, -2.80000000000000 ) );
#174 = DIRECTION( '', ( 0.000000000000000, -0.000000000000000, 1.00000000000000 ) );
#175 = DIRECTION( '', ( -0.379694905753153, -0.925111765434374, 0.000000000000000 ) );
#176 = ORIENTED_EDGE( '', *, *, #231, .T. );
#177 = ORIENTED_EDGE( '', *, *, #229, .F. );
#178 = ORIENTED_EDGE( '', *, *, #230, .F. );
#179 = ORIENTED_EDGE( '', *, *, #232, .T. );
#180 = CARTESIAN_POINT( '', ( -44.4223178731000, 97.5223178731000, -2.80000000000000 ) );
#181 = DIRECTION( '', ( 0.000000000000000, -0.000000000000000, 1.00000000000000 ) );
#182 = DIRECTION( '', ( -0.379694905753153, -0.925111765434374, 0.000000000000000 ) );
#183 = ORIENTED_EDGE( '', *, *, #222, .T. );
#184 = ORIENTED_EDGE( '', *, *, #232, .F. );
#185 = ORIENTED_EDGE( '', *, *, #220, .F. );
#186 = ORIENTED_EDGE( '', *, *, #233, .T. );
#187 = CARTESIAN_POINT( '', ( -44.4223178731000, 97.5223178731000, -5.26434522125000 ) );
#188 = DIRECTION( '', ( -0.000000000000000, 0.000000000000000, 1.00000000000000 ) );
#189 = DIRECTION( '', ( -0.379694905753153, -0.925111765434374, 0.000000000000000 ) );
#190 = ORIENTED_EDGE( '', *, *, #234, .T. );
#191 = ORIENTED_EDGE( '', *, *, #223, .F. );
#192 = ORIENTED_EDGE( '', *, *, #235, .F. );
#193 = ORIENTED_EDGE( '', *, *, #217, .T. );
#194 = CARTESIAN_POINT( '', ( -44.4223178731000, 97.5223178731000, -6.60000000000000 ) );
#195 = DIRECTION( '', ( -0.000000000000000, 0.000000000000000, -1.00000000000000 ) );
#196 = DIRECTION( '', ( -0.379694905753153, -0.925111765434374, 0.000000000000000 ) );
#197 = ORIENTED_EDGE( '', *, *, #235, .T. );
#198 = ORIENTED_EDGE( '', *, *, #233, .F. );
#199 = ORIENTED_EDGE( '', *, *, #234, .F. );
#200 = ORIENTED_EDGE( '', *, *, #236, .T. );
#201 = CARTESIAN_POINT( '', ( -44.4223178731000, 97.5223178731000, -6.60000000000000 ) );
#202 = DIRECTION( '', ( -0.000000000000000, 0.000000000000000, -1.00000000000000 ) );
#203 = DIRECTION( '', ( -0.379694905753153, -0.925111765434374, 0.000000000000000 ) );
#204 = ORIENTED_EDGE( '', *, *, #218, .T. );
#205 = ORIENTED_EDGE( '', *, *, #236, .F. );
#206 = ORIENTED_EDGE( '', *, *, #216, .F. );
#207 = ORIENTED_EDGE( '', *, *, #237, .T. );
#208 = CARTESIAN_POINT( '', ( -44.4223178731000, 97.5223178731000, -2.80000000000000 ) );
#209 = DIRECTION( '', ( 0.000000000000000, -0.000000000000000, 1.00000000000000 ) );
#210 = DIRECTION( '', ( -0.379694905753153, -0.925111765434374, 0.000000000000000 ) );
#211 = ORIENTED_EDGE( '', *, *, #237, .F. );
#212 = ORIENTED_EDGE( '', *, *, #219, .F. );
#213 = CARTESIAN_POINT( '', ( -44.4223178731000, 97.5223178731000, 24.0000000000000 ) );
#214 = DIRECTION( '', ( 0.000000000000000, 0.000000000000000, -1.00000000000000 ) );
#215 = DIRECTION( '', ( 0.000000000000000, -1.00000000000000, 0.000000000000000 ) );
#216 = EDGE_CURVE( '', #238, #239, #240, .T. );
#217 = EDGE_CURVE( '', #241, #239, #242, .T. );
#218 = EDGE_CURVE( '', #243, #241, #244, .T. );
#219 = EDGE_CURVE( '', #243, #238, #245, .T. );
#220 = EDGE_CURVE( '', #246, #247, #248, .T. );
#221 = EDGE_CURVE( '', #249, #247, #250, .T. );
#222 = EDGE_CURVE( '', #251, #249, #252, .T. );
#223 = EDGE_CURVE( '', #251, #246, #253, .T. );
#224 = EDGE_CURVE( '', #254, #255, #256, .T. );
#225 = EDGE_CURVE( '', #257, #255, #258, .T. );
#226 = EDGE_CURVE( '', #259, #257, #260, .T. );
#227 = EDGE_CURVE( '', #259, #254, #261, .T. );
#228 = EDGE_CURVE( '', #255, #257, #262, .T. );
#229 = EDGE_CURVE( '', #254, #259, #263, .T. );
#230 = EDGE_CURVE( '', #247, #254, #264, .T. );
#231 = EDGE_CURVE( '', #249, #259, #265, .T. );
#232 = EDGE_CURVE( '', #247, #249, #266, .T. );
#233 = EDGE_CURVE( '', #246, #251, #267, .T. );
#234 = EDGE_CURVE( '', #239, #246, #268, .T. );
#235 = EDGE_CURVE( '', #241, #251, #269, .T. );
#236 = EDGE_CURVE( '', #239, #241, #270, .T. );
#237 = EDGE_CURVE( '', #238, #243, #271, .T. );
#238 = VERTEX_POINT( '', #272 );
#239 = VERTEX_POINT( '', #273 );
#240 = LINE( '', #274, #275 );
#241 = VERTEX_POINT( '', #276 );
#242 = CIRCLE( '', #277, 24.7698829072000 );
#243 = VERTEX_POINT( '', #278 );
#244 = LINE( '', #279, #280 );
#245 = CIRCLE( '', #281, 24.7698829072000 );
#246 = VERTEX_POINT( '', #282 );
#247 = VERTEX_POINT( '', #283 );
#248 = LINE( '', #284, #285 );
#249 = VERTEX_POINT( '', #286 );
#250 = CIRCLE( '', #287, 18.0000000000000 );
#251 = VERTEX_POINT( '', #288 );
#252 = LINE( '', #289, #290 );
#253 = CIRCLE( '', #291, 19.1341152422000 );
#254 = VERTEX_POINT( '', #292 );
#255 = VERTEX_POINT( '', #293 );
#256 = CIRCLE( '', #294, 4.00000000000000 );
#257 = VERTEX_POINT( '', #295 );
#258 = CIRCLE( '', #296, 14.0000000000000 );
#259 = VERTEX_POINT( '', #297 );
#260 = CIRCLE( '', #298, 4.00000000000000 );
#261 = CIRCLE( '', #299, 18.0000000000000 );
#262 = CIRCLE( '', #300, 14.0000000000000 );
#263 = CIRCLE( '', #301, 18.0000000000000 );
#264 = LINE( '', #302, #303 );
#265 = LINE( '', #304, #305 );
#266 = CIRCLE( '', #306, 18.0000000000000 );
#267 = CIRCLE( '', #307, 19.1341152422000 );
#268 = CIRCLE( '', #308, 6.60000000000000 );
#269 = CIRCLE( '', #309, 6.60000000000000 );
#270 = CIRCLE( '', #310, 24.7698829072000 );
#271 = CIRCLE( '', #311, 24.7698829072000 );
#272 = CARTESIAN_POINT( '', ( -35.0173195171000, 120.437227979000, 24.0000000000000 ) );
#273 = CARTESIAN_POINT( '', ( -35.0173195171000, 120.437227979000, -0.000484866295102000 ) );
#274 = CARTESIAN_POINT( '', ( -35.0173195171000, 120.437227979000, 11.9997575669000 ) );
#275 = VECTOR( '', #312, 1000.00000000000 );
#276 = CARTESIAN_POINT( '', ( -53.8273162291000, 74.6074077672000, -0.000484866295102000 ) );
#277 = AXIS2_PLACEMENT_3D( '', #313, #314, #315 );
#278 = CARTESIAN_POINT( '', ( -53.8273162291000, 74.6074077672000, 24.0000000000000 ) );
#279 = CARTESIAN_POINT( '', ( -53.8273162291000, 74.6074077672000, 11.9997575669000 ) );
#280 = VECTOR( '', #316, 1000.00000000000 );
#281 = AXIS2_PLACEMENT_3D( '', #317, #318, #319 );
#282 = CARTESIAN_POINT( '', ( -37.1571917895000, 115.223513004850, -3.30000000000000 ) );
#283 = CARTESIAN_POINT( '', ( -37.5878095695000, 114.174329650920, -5.26434522125000 ) );
#284 = CARTESIAN_POINT( '', ( -37.3725006795000, 114.698921327900, -4.28217261064000 ) );
#285 = VECTOR( '', #320, 1000.00000000000 );
#286 = CARTESIAN_POINT( '', ( -51.2568261767000, 80.8703060953000, -5.26434522125000 ) );
#287 = AXIS2_PLACEMENT_3D( '', #321, #322, #323 );
#288 = CARTESIAN_POINT( '', ( -51.6874439567000, 79.8211227413000, -3.30000000000000 ) );
#289 = CARTESIAN_POINT( '', ( -51.4721350667000, 80.3457144183000, -4.28217261064000 ) );
#290 = VECTOR( '', #324, 1000.00000000000 );
#291 = AXIS2_PLACEMENT_3D( '', #325, #326, #327 );
#292 = CARTESIAN_POINT( '', ( -37.5878095695000, 114.174329650920, -25.6000000000000 ) );
#293 = CARTESIAN_POINT( '', ( -39.1065891926000, 110.473882589179, -29.6000000000000 ) );
#294 = AXIS2_PLACEMENT_3D( '', #328, #329, #330 );
#295 = CARTESIAN_POINT( '', ( -49.7380465536000, 84.5707531570000, -29.6000000000000 ) );
#296 = AXIS2_PLACEMENT_3D( '', #331, #332, #333 );
#297 = CARTESIAN_POINT( '', ( -51.2568261767000, 80.8703060953000, -25.6000000000000 ) );
#298 = AXIS2_PLACEMENT_3D( '', #334, #335, #336 );
#299 = AXIS2_PLACEMENT_3D( '', #337, #338, #339 );
#300 = AXIS2_PLACEMENT_3D( '', #340, #341, #342 );
#301 = AXIS2_PLACEMENT_3D( '', #343, #344, #345 );
#302 = CARTESIAN_POINT( '', ( -37.5878095695000, 114.174329650920, -15.4321726106000 ) );
#303 = VECTOR( '', #346, 1000.00000000000 );
#304 = CARTESIAN_POINT( '', ( -51.2568261767000, 80.8703060953000, -15.4321726106000 ) );
#305 = VECTOR( '', #347, 1000.00000000000 );
#306 = AXIS2_PLACEMENT_3D( '', #348, #349, #350 );
#307 = AXIS2_PLACEMENT_3D( '', #351, #352, #353 );
#308 = AXIS2_PLACEMENT_3D( '', #354, #355, #356 );
#309 = AXIS2_PLACEMENT_3D( '', #357, #358, #359 );
#310 = AXIS2_PLACEMENT_3D( '', #360, #361, #362 );
#311 = AXIS2_PLACEMENT_3D( '', #363, #364, #365 );
#312 = DIRECTION( '', ( 0.000000000000000, 0.000000000000000, -1.00000000000000 ) );
#313 = CARTESIAN_POINT( '', ( -44.4223178731000, 97.5223178731000, -0.000484866295100000 ) );
#314 = DIRECTION( '', ( 0.000000000000000, 0.000000000000000, -1.00000000000000 ) );
#315 = DIRECTION( '', ( 1.00000000000000, 0.000000000000000, 0.000000000000000 ) );
#316 = DIRECTION( '', ( 0.000000000000000, 0.000000000000000, -1.00000000000000 ) );
#317 = CARTESIAN_POINT( '', ( -44.4223178731000, 97.5223178731000, 24.0000000000000 ) );
#318 = DIRECTION( '', ( 0.000000000000000, 0.000000000000000, -1.00000000000000 ) );
#319 = DIRECTION( '', ( 1.00000000000000, 0.000000000000000, 0.000000000000000 ) );
#320 = DIRECTION( '', ( -0.189847452876909, -0.462555882716778, -0.866025403784584 ) );
#321 = CARTESIAN_POINT( '', ( -44.4223178731000, 97.5223178731000, -5.26434522125000 ) );
#322 = DIRECTION( '', ( 0.000000000000000, 0.000000000000000, -1.00000000000000 ) );
#323 = DIRECTION( '', ( 1.00000000000000, 0.000000000000000, 0.000000000000000 ) );
#324 = DIRECTION( '', ( 0.189847452876909, 0.462555882716778, -0.866025403784584 ) );
#325 = CARTESIAN_POINT( '', ( -44.4223178731000, 97.5223178731000, -3.30000000000000 ) );
#326 = DIRECTION( '', ( 0.000000000000000, 0.000000000000000, -1.00000000000000 ) );
#327 = DIRECTION( '', ( 1.00000000000000, 0.000000000000000, 0.000000000000000 ) );
#328 = CARTESIAN_POINT( '', ( -39.1065891926000, 110.473882589179, -25.6000000000000 ) );
#329 = DIRECTION( '', ( -0.925111765434374, 0.379694905753154, 0.000000000000000 ) );
#330 = DIRECTION( '', ( 0.379694905753154, 0.925111765434374, 0.000000000000000 ) );
#331 = CARTESIAN_POINT( '', ( -44.4223178731000, 97.5223178731000, -29.6000000000000 ) );
#332 = DIRECTION( '', ( 0.000000000000000, 0.000000000000000, -1.00000000000000 ) );
#333 = DIRECTION( '', ( 1.00000000000000, 0.000000000000000, 0.000000000000000 ) );
#334 = CARTESIAN_POINT( '', ( -49.7380465536000, 84.5707531570000, -25.6000000000000 ) );
#335 = DIRECTION( '', ( 0.925111765434374, -0.379694905753154, 0.000000000000000 ) );
#336 = DIRECTION( '', ( 0.379694905753154, 0.925111765434374, 0.000000000000000 ) );
#337 = CARTESIAN_POINT( '', ( -44.4223178731000, 97.5223178731000, -25.6000000000000 ) );
#338 = DIRECTION( '', ( 0.000000000000000, 0.000000000000000, -1.00000000000000 ) );
#339 = DIRECTION( '', ( 1.00000000000000, 0.000000000000000, 0.000000000000000 ) );
#340 = CARTESIAN_POINT( '', ( -44.4223178731000, 97.5223178731000, -29.6000000000000 ) );
#341 = DIRECTION( '', ( 0.000000000000000, 0.000000000000000, -1.00000000000000 ) );
#342 = DIRECTION( '', ( 1.00000000000000, 0.000000000000000, 0.000000000000000 ) );
#343 = CARTESIAN_POINT( '', ( -44.4223178731000, 97.5223178731000, -25.6000000000000 ) );
#344 = DIRECTION( '', ( 0.000000000000000, 0.000000000000000, -1.00000000000000 ) );
#345 = DIRECTION( '', ( 1.00000000000000, 0.000000000000000, 0.000000000000000 ) );
#346 = DIRECTION( '', ( 0.000000000000000, 0.000000000000000, -1.00000000000000 ) );
#347 = DIRECTION( '', ( 0.000000000000000, 0.000000000000000, -1.00000000000000 ) );
#348 = CARTESIAN_POINT( '', ( -44.4223178731000, 97.5223178731000, -5.26434522125000 ) );
#349 = DIRECTION( '', ( 0.000000000000000, 0.000000000000000, -1.00000000000000 ) );
#350 = DIRECTION( '', ( 1.00000000000000, 0.000000000000000, 0.000000000000000 ) );
#351 = CARTESIAN_POINT( '', ( -44.4223178731000, 97.5223178731000, -3.30000000000000 ) );
#352 = DIRECTION( '', ( 0.000000000000000, 0.000000000000000, -1.00000000000000 ) );
#353 = DIRECTION( '', ( 1.00000000000000, 0.000000000000000, 0.000000000000000 ) );
#354 = CARTESIAN_POINT( '', ( -34.9869439247000, 120.511236920200, -6.60000000000000 ) );
#355 = DIRECTION( '', ( 0.925111765434374, -0.379694905753154, 0.000000000000000 ) );
#356 = DIRECTION( '', ( 0.379694905753154, 0.925111765434374, 0.000000000000000 ) );
#357 = CARTESIAN_POINT( '', ( -53.8576918215000, 74.5333988260000, -6.60000000000000 ) );
#358 = DIRECTION( '', ( -0.925111765434374, 0.379694905753154, 0.000000000000000 ) );
#359 = DIRECTION( '', ( 0.379694905753154, 0.925111765434374, 0.000000000000000 ) );
#360 = CARTESIAN_POINT( '', ( -44.4223178731000, 97.5223178731000, -0.000484866295100000 ) );
#361 = DIRECTION( '', ( 0.000000000000000, 0.000000000000000, -1.00000000000000 ) );
#362 = DIRECTION( '', ( 1.00000000000000, 0.000000000000000, 0.000000000000000 ) );
#363 = CARTESIAN_POINT( '', ( -44.4223178731000, 97.5223178731000, 24.0000000000000 ) );
#364 = DIRECTION( '', ( 0.000000000000000, 0.000000000000000, -1.00000000000000 ) );
#365 = DIRECTION( '', ( 1.00000000000000, 0.000000000000000, 0.000000000000000 ) );
ENDSEC;
END-ISO-10303-21;
