ISO-10303-21;
HEADER;
/* Generated by software containing ST-Developer
 * from STEP Tools, Inc. (www.steptools.com) 
 */

FILE_DESCRIPTION(
/* description */ (''),
/* implementation_level */ '2;1');

FILE_NAME(
/* name */ 'NBF-32306_Mounting plate v3.step',
/* time_stamp */ '2023-03-15T23:41:54+01:00',
/* author */ (''),
/* organization */ (''),
/* preprocessor_version */ 'ST-DEVELOPER v19.2',
/* originating_system */ 'Autodesk Translation Framework v11.17.0.187',

/* authorisation */ '');

FILE_SCHEMA (('AUTOMOTIVE_DESIGN { 1 0 10303 214 3 1 1 }'));
ENDSEC;

DATA;
#10=MECHANICAL_DESIGN_GEOMETRIC_PRESENTATION_REPRESENTATION('',(#13),#569);
#11=SHAPE_REPRESENTATION_RELATIONSHIP('SRR','None',#576,#12);
#12=ADVANCED_BREP_SHAPE_REPRESENTATION('',(#14),#568);
#13=STYLED_ITEM('',(#585),#14);
#14=MANIFOLD_SOLID_BREP('Mounting plate',#325);
#15=FACE_BOUND('',#54,.T.);
#16=FACE_BOUND('',#56,.T.);
#17=FACE_BOUND('',#57,.T.);
#18=FACE_BOUND('',#58,.T.);
#19=FACE_BOUND('',#59,.T.);
#20=FACE_BOUND('',#73,.T.);
#21=FACE_BOUND('',#74,.T.);
#22=FACE_BOUND('',#75,.T.);
#23=FACE_BOUND('',#76,.T.);
#24=FACE_BOUND('',#77,.T.);
#25=PLANE('',#342);
#26=PLANE('',#343);
#27=PLANE('',#345);
#28=PLANE('',#362);
#29=PLANE('',#365);
#30=PLANE('',#368);
#31=PLANE('',#371);
#32=PLANE('',#374);
#33=FACE_OUTER_BOUND('',#51,.T.);
#34=FACE_OUTER_BOUND('',#52,.T.);
#35=FACE_OUTER_BOUND('',#53,.T.);
#36=FACE_OUTER_BOUND('',#55,.T.);
#37=FACE_OUTER_BOUND('',#60,.T.);
#38=FACE_OUTER_BOUND('',#61,.T.);
#39=FACE_OUTER_BOUND('',#62,.T.);
#40=FACE_OUTER_BOUND('',#63,.T.);
#41=FACE_OUTER_BOUND('',#64,.T.);
#42=FACE_OUTER_BOUND('',#65,.T.);
#43=FACE_OUTER_BOUND('',#66,.T.);
#44=FACE_OUTER_BOUND('',#67,.T.);
#45=FACE_OUTER_BOUND('',#68,.T.);
#46=FACE_OUTER_BOUND('',#69,.T.);
#47=FACE_OUTER_BOUND('',#70,.T.);
#48=FACE_OUTER_BOUND('',#71,.T.);
#49=FACE_OUTER_BOUND('',#72,.T.);
#50=FACE_OUTER_BOUND('',#78,.T.);
#51=EDGE_LOOP('',(#213,#214,#215,#216));
#52=EDGE_LOOP('',(#217));
#53=EDGE_LOOP('',(#218));
#54=EDGE_LOOP('',(#219));
#55=EDGE_LOOP('',(#220,#221,#222,#223,#224,#225,#226,#227));
#56=EDGE_LOOP('',(#228));
#57=EDGE_LOOP('',(#229));
#58=EDGE_LOOP('',(#230));
#59=EDGE_LOOP('',(#231));
#60=EDGE_LOOP('',(#232,#233,#234,#235));
#61=EDGE_LOOP('',(#236,#237,#238,#239));
#62=EDGE_LOOP('',(#240,#241,#242,#243));
#63=EDGE_LOOP('',(#244,#245,#246,#247));
#64=EDGE_LOOP('',(#248,#249,#250,#251));
#65=EDGE_LOOP('',(#252,#253,#254,#255));
#66=EDGE_LOOP('',(#256,#257,#258,#259));
#67=EDGE_LOOP('',(#260,#261,#262,#263));
#68=EDGE_LOOP('',(#264,#265,#266,#267));
#69=EDGE_LOOP('',(#268,#269,#270,#271));
#70=EDGE_LOOP('',(#272,#273,#274,#275));
#71=EDGE_LOOP('',(#276,#277,#278,#279));
#72=EDGE_LOOP('',(#280,#281,#282,#283,#284,#285,#286,#287));
#73=EDGE_LOOP('',(#288));
#74=EDGE_LOOP('',(#289));
#75=EDGE_LOOP('',(#290));
#76=EDGE_LOOP('',(#291));
#77=EDGE_LOOP('',(#292));
#78=EDGE_LOOP('',(#293,#294,#295,#296));
#79=LINE('',#482,#101);
#80=LINE('',#493,#102);
#81=LINE('',#497,#103);
#82=LINE('',#501,#104);
#83=LINE('',#504,#105);
#84=LINE('',#515,#106);
#85=LINE('',#519,#107);
#86=LINE('',#523,#108);
#87=LINE('',#527,#109);
#88=LINE('',#531,#110);
#89=LINE('',#533,#111);
#90=LINE('',#534,#112);
#91=LINE('',#538,#113);
#92=LINE('',#541,#114);
#93=LINE('',#542,#115);
#94=LINE('',#546,#116);
#95=LINE('',#549,#117);
#96=LINE('',#550,#118);
#97=LINE('',#554,#119);
#98=LINE('',#557,#120);
#99=LINE('',#558,#121);
#100=LINE('',#565,#122);
#101=VECTOR('',#383,1.666);
#102=VECTOR('',#396,10.);
#103=VECTOR('',#399,10.);
#104=VECTOR('',#402,10.);
#105=VECTOR('',#405,10.);
#106=VECTOR('',#416,2.5);
#107=VECTOR('',#421,2.5);
#108=VECTOR('',#426,2.5);
#109=VECTOR('',#431,2.5);
#110=VECTOR('',#436,10.);
#111=VECTOR('',#437,10.);
#112=VECTOR('',#438,10.);
#113=VECTOR('',#443,10.);
#114=VECTOR('',#446,10.);
#115=VECTOR('',#447,10.);
#116=VECTOR('',#452,10.);
#117=VECTOR('',#455,10.);
#118=VECTOR('',#456,10.);
#119=VECTOR('',#461,10.);
#120=VECTOR('',#464,10.);
#121=VECTOR('',#465,10.);
#122=VECTOR('',#476,16.5);
#123=CIRCLE('',#340,1.666);
#124=CIRCLE('',#341,1.666);
#125=CIRCLE('',#344,16.5);
#126=CIRCLE('',#346,2.);
#127=CIRCLE('',#347,1.99999999999999);
#128=CIRCLE('',#348,1.99999999999999);
#129=CIRCLE('',#349,2.);
#130=CIRCLE('',#350,2.5);
#131=CIRCLE('',#351,2.5);
#132=CIRCLE('',#352,2.5);
#133=CIRCLE('',#353,2.5);
#134=CIRCLE('',#355,2.5);
#135=CIRCLE('',#357,2.5);
#136=CIRCLE('',#359,2.5);
#137=CIRCLE('',#361,2.5);
#138=CIRCLE('',#364,1.99999999999999);
#139=CIRCLE('',#367,1.99999999999999);
#140=CIRCLE('',#370,2.);
#141=CIRCLE('',#373,2.);
#142=CIRCLE('',#375,16.5);
#143=VERTEX_POINT('',#479);
#144=VERTEX_POINT('',#481);
#145=VERTEX_POINT('',#486);
#146=VERTEX_POINT('',#489);
#147=VERTEX_POINT('',#490);
#148=VERTEX_POINT('',#492);
#149=VERTEX_POINT('',#494);
#150=VERTEX_POINT('',#496);
#151=VERTEX_POINT('',#498);
#152=VERTEX_POINT('',#500);
#153=VERTEX_POINT('',#502);
#154=VERTEX_POINT('',#505);
#155=VERTEX_POINT('',#507);
#156=VERTEX_POINT('',#509);
#157=VERTEX_POINT('',#511);
#158=VERTEX_POINT('',#514);
#159=VERTEX_POINT('',#518);
#160=VERTEX_POINT('',#522);
#161=VERTEX_POINT('',#526);
#162=VERTEX_POINT('',#530);
#163=VERTEX_POINT('',#532);
#164=VERTEX_POINT('',#536);
#165=VERTEX_POINT('',#540);
#166=VERTEX_POINT('',#544);
#167=VERTEX_POINT('',#548);
#168=VERTEX_POINT('',#552);
#169=VERTEX_POINT('',#556);
#170=VERTEX_POINT('',#562);
#171=EDGE_CURVE('',#143,#143,#123,.T.);
#172=EDGE_CURVE('',#143,#144,#79,.T.);
#173=EDGE_CURVE('',#144,#144,#124,.T.);
#174=EDGE_CURVE('',#145,#145,#125,.T.);
#175=EDGE_CURVE('',#146,#147,#126,.T.);
#176=EDGE_CURVE('',#146,#148,#80,.T.);
#177=EDGE_CURVE('',#149,#148,#127,.T.);
#178=EDGE_CURVE('',#149,#150,#81,.T.);
#179=EDGE_CURVE('',#151,#150,#128,.T.);
#180=EDGE_CURVE('',#151,#152,#82,.T.);
#181=EDGE_CURVE('',#153,#152,#129,.T.);
#182=EDGE_CURVE('',#153,#147,#83,.T.);
#183=EDGE_CURVE('',#154,#154,#130,.T.);
#184=EDGE_CURVE('',#155,#155,#131,.T.);
#185=EDGE_CURVE('',#156,#156,#132,.T.);
#186=EDGE_CURVE('',#157,#157,#133,.T.);
#187=EDGE_CURVE('',#154,#158,#84,.T.);
#188=EDGE_CURVE('',#158,#158,#134,.T.);
#189=EDGE_CURVE('',#155,#159,#85,.T.);
#190=EDGE_CURVE('',#159,#159,#135,.T.);
#191=EDGE_CURVE('',#156,#160,#86,.T.);
#192=EDGE_CURVE('',#160,#160,#136,.T.);
#193=EDGE_CURVE('',#157,#161,#87,.T.);
#194=EDGE_CURVE('',#161,#161,#137,.T.);
#195=EDGE_CURVE('',#162,#146,#88,.T.);
#196=EDGE_CURVE('',#163,#162,#89,.T.);
#197=EDGE_CURVE('',#148,#163,#90,.T.);
#198=EDGE_CURVE('',#163,#164,#138,.T.);
#199=EDGE_CURVE('',#164,#149,#91,.T.);
#200=EDGE_CURVE('',#150,#165,#92,.T.);
#201=EDGE_CURVE('',#165,#164,#93,.T.);
#202=EDGE_CURVE('',#165,#166,#139,.T.);
#203=EDGE_CURVE('',#166,#151,#94,.T.);
#204=EDGE_CURVE('',#152,#167,#95,.T.);
#205=EDGE_CURVE('',#167,#166,#96,.T.);
#206=EDGE_CURVE('',#167,#168,#140,.T.);
#207=EDGE_CURVE('',#168,#153,#97,.T.);
#208=EDGE_CURVE('',#147,#169,#98,.T.);
#209=EDGE_CURVE('',#169,#168,#99,.T.);
#210=EDGE_CURVE('',#169,#162,#141,.T.);
#211=EDGE_CURVE('',#170,#170,#142,.T.);
#212=EDGE_CURVE('',#145,#170,#100,.T.);
#213=ORIENTED_EDGE('',*,*,#171,.F.);
#214=ORIENTED_EDGE('',*,*,#172,.T.);
#215=ORIENTED_EDGE('',*,*,#173,.T.);
#216=ORIENTED_EDGE('',*,*,#172,.F.);
#217=ORIENTED_EDGE('',*,*,#173,.F.);
#218=ORIENTED_EDGE('',*,*,#174,.F.);
#219=ORIENTED_EDGE('',*,*,#171,.T.);
#220=ORIENTED_EDGE('',*,*,#175,.F.);
#221=ORIENTED_EDGE('',*,*,#176,.T.);
#222=ORIENTED_EDGE('',*,*,#177,.F.);
#223=ORIENTED_EDGE('',*,*,#178,.T.);
#224=ORIENTED_EDGE('',*,*,#179,.F.);
#225=ORIENTED_EDGE('',*,*,#180,.T.);
#226=ORIENTED_EDGE('',*,*,#181,.F.);
#227=ORIENTED_EDGE('',*,*,#182,.T.);
#228=ORIENTED_EDGE('',*,*,#183,.T.);
#229=ORIENTED_EDGE('',*,*,#184,.T.);
#230=ORIENTED_EDGE('',*,*,#185,.T.);
#231=ORIENTED_EDGE('',*,*,#186,.T.);
#232=ORIENTED_EDGE('',*,*,#183,.F.);
#233=ORIENTED_EDGE('',*,*,#187,.T.);
#234=ORIENTED_EDGE('',*,*,#188,.F.);
#235=ORIENTED_EDGE('',*,*,#187,.F.);
#236=ORIENTED_EDGE('',*,*,#184,.F.);
#237=ORIENTED_EDGE('',*,*,#189,.T.);
#238=ORIENTED_EDGE('',*,*,#190,.F.);
#239=ORIENTED_EDGE('',*,*,#189,.F.);
#240=ORIENTED_EDGE('',*,*,#185,.F.);
#241=ORIENTED_EDGE('',*,*,#191,.T.);
#242=ORIENTED_EDGE('',*,*,#192,.F.);
#243=ORIENTED_EDGE('',*,*,#191,.F.);
#244=ORIENTED_EDGE('',*,*,#186,.F.);
#245=ORIENTED_EDGE('',*,*,#193,.T.);
#246=ORIENTED_EDGE('',*,*,#194,.F.);
#247=ORIENTED_EDGE('',*,*,#193,.F.);
#248=ORIENTED_EDGE('',*,*,#195,.F.);
#249=ORIENTED_EDGE('',*,*,#196,.F.);
#250=ORIENTED_EDGE('',*,*,#197,.F.);
#251=ORIENTED_EDGE('',*,*,#176,.F.);
#252=ORIENTED_EDGE('',*,*,#198,.T.);
#253=ORIENTED_EDGE('',*,*,#199,.T.);
#254=ORIENTED_EDGE('',*,*,#177,.T.);
#255=ORIENTED_EDGE('',*,*,#197,.T.);
#256=ORIENTED_EDGE('',*,*,#200,.F.);
#257=ORIENTED_EDGE('',*,*,#178,.F.);
#258=ORIENTED_EDGE('',*,*,#199,.F.);
#259=ORIENTED_EDGE('',*,*,#201,.F.);
#260=ORIENTED_EDGE('',*,*,#202,.T.);
#261=ORIENTED_EDGE('',*,*,#203,.T.);
#262=ORIENTED_EDGE('',*,*,#179,.T.);
#263=ORIENTED_EDGE('',*,*,#200,.T.);
#264=ORIENTED_EDGE('',*,*,#204,.F.);
#265=ORIENTED_EDGE('',*,*,#180,.F.);
#266=ORIENTED_EDGE('',*,*,#203,.F.);
#267=ORIENTED_EDGE('',*,*,#205,.F.);
#268=ORIENTED_EDGE('',*,*,#206,.T.);
#269=ORIENTED_EDGE('',*,*,#207,.T.);
#270=ORIENTED_EDGE('',*,*,#181,.T.);
#271=ORIENTED_EDGE('',*,*,#204,.T.);
#272=ORIENTED_EDGE('',*,*,#208,.F.);
#273=ORIENTED_EDGE('',*,*,#182,.F.);
#274=ORIENTED_EDGE('',*,*,#207,.F.);
#275=ORIENTED_EDGE('',*,*,#209,.F.);
#276=ORIENTED_EDGE('',*,*,#210,.T.);
#277=ORIENTED_EDGE('',*,*,#195,.T.);
#278=ORIENTED_EDGE('',*,*,#175,.T.);
#279=ORIENTED_EDGE('',*,*,#208,.T.);
#280=ORIENTED_EDGE('',*,*,#210,.F.);
#281=ORIENTED_EDGE('',*,*,#209,.T.);
#282=ORIENTED_EDGE('',*,*,#206,.F.);
#283=ORIENTED_EDGE('',*,*,#205,.T.);
#284=ORIENTED_EDGE('',*,*,#202,.F.);
#285=ORIENTED_EDGE('',*,*,#201,.T.);
#286=ORIENTED_EDGE('',*,*,#198,.F.);
#287=ORIENTED_EDGE('',*,*,#196,.T.);
#288=ORIENTED_EDGE('',*,*,#211,.T.);
#289=ORIENTED_EDGE('',*,*,#194,.T.);
#290=ORIENTED_EDGE('',*,*,#192,.T.);
#291=ORIENTED_EDGE('',*,*,#190,.T.);
#292=ORIENTED_EDGE('',*,*,#188,.T.);
#293=ORIENTED_EDGE('',*,*,#174,.T.);
#294=ORIENTED_EDGE('',*,*,#212,.T.);
#295=ORIENTED_EDGE('',*,*,#211,.F.);
#296=ORIENTED_EDGE('',*,*,#212,.F.);
#297=CYLINDRICAL_SURFACE('',#339,1.666);
#298=CYLINDRICAL_SURFACE('',#354,2.5);
#299=CYLINDRICAL_SURFACE('',#356,2.5);
#300=CYLINDRICAL_SURFACE('',#358,2.5);
#301=CYLINDRICAL_SURFACE('',#360,2.5);
#302=CYLINDRICAL_SURFACE('',#363,1.99999999999999);
#303=CYLINDRICAL_SURFACE('',#366,1.99999999999999);
#304=CYLINDRICAL_SURFACE('',#369,2.);
#305=CYLINDRICAL_SURFACE('',#372,2.);
#306=CYLINDRICAL_SURFACE('',#376,16.5);
#307=ADVANCED_FACE('',(#33),#297,.F.);
#308=ADVANCED_FACE('',(#34),#25,.F.);
#309=ADVANCED_FACE('',(#35,#15),#26,.T.);
#310=ADVANCED_FACE('',(#36,#16,#17,#18,#19),#27,.T.);
#311=ADVANCED_FACE('',(#37),#298,.F.);
#312=ADVANCED_FACE('',(#38),#299,.F.);
#313=ADVANCED_FACE('',(#39),#300,.F.);
#314=ADVANCED_FACE('',(#40),#301,.F.);
#315=ADVANCED_FACE('',(#41),#28,.T.);
#316=ADVANCED_FACE('',(#42),#302,.T.);
#317=ADVANCED_FACE('',(#43),#29,.T.);
#318=ADVANCED_FACE('',(#44),#303,.T.);
#319=ADVANCED_FACE('',(#45),#30,.T.);
#320=ADVANCED_FACE('',(#46),#304,.T.);
#321=ADVANCED_FACE('',(#47),#31,.T.);
#322=ADVANCED_FACE('',(#48),#305,.T.);
#323=ADVANCED_FACE('',(#49,#20,#21,#22,#23,#24),#32,.T.);
#324=ADVANCED_FACE('',(#50),#306,.T.);
#325=CLOSED_SHELL('',(#307,#308,#309,#310,#311,#312,#313,#314,#315,#316,
#317,#318,#319,#320,#321,#322,#323,#324));
#326=DERIVED_UNIT_ELEMENT(#328,1.);
#327=DERIVED_UNIT_ELEMENT(#571,-3.);
#328=(
MASS_UNIT()
NAMED_UNIT(*)
SI_UNIT(.KILO.,.GRAM.)
);
#329=DERIVED_UNIT((#326,#327));
#330=MEASURE_REPRESENTATION_ITEM('density measure',
POSITIVE_RATIO_MEASURE(7850.),#329);
#331=PROPERTY_DEFINITION_REPRESENTATION(#336,#333);
#332=PROPERTY_DEFINITION_REPRESENTATION(#337,#334);
#333=REPRESENTATION('material name',(#335),#568);
#334=REPRESENTATION('density',(#330),#568);
#335=DESCRIPTIVE_REPRESENTATION_ITEM('Acier','Acier');
#336=PROPERTY_DEFINITION('material property','material name',#578);
#337=PROPERTY_DEFINITION('material property','density of part',#578);
#338=AXIS2_PLACEMENT_3D('placement',#477,#377,#378);
#339=AXIS2_PLACEMENT_3D('',#478,#379,#380);
#340=AXIS2_PLACEMENT_3D('',#480,#381,#382);
#341=AXIS2_PLACEMENT_3D('',#483,#384,#385);
#342=AXIS2_PLACEMENT_3D('',#484,#386,#387);
#343=AXIS2_PLACEMENT_3D('',#485,#388,#389);
#344=AXIS2_PLACEMENT_3D('',#487,#390,#391);
#345=AXIS2_PLACEMENT_3D('',#488,#392,#393);
#346=AXIS2_PLACEMENT_3D('',#491,#394,#395);
#347=AXIS2_PLACEMENT_3D('',#495,#397,#398);
#348=AXIS2_PLACEMENT_3D('',#499,#400,#401);
#349=AXIS2_PLACEMENT_3D('',#503,#403,#404);
#350=AXIS2_PLACEMENT_3D('',#506,#406,#407);
#351=AXIS2_PLACEMENT_3D('',#508,#408,#409);
#352=AXIS2_PLACEMENT_3D('',#510,#410,#411);
#353=AXIS2_PLACEMENT_3D('',#512,#412,#413);
#354=AXIS2_PLACEMENT_3D('',#513,#414,#415);
#355=AXIS2_PLACEMENT_3D('',#516,#417,#418);
#356=AXIS2_PLACEMENT_3D('',#517,#419,#420);
#357=AXIS2_PLACEMENT_3D('',#520,#422,#423);
#358=AXIS2_PLACEMENT_3D('',#521,#424,#425);
#359=AXIS2_PLACEMENT_3D('',#524,#427,#428);
#360=AXIS2_PLACEMENT_3D('',#525,#429,#430);
#361=AXIS2_PLACEMENT_3D('',#528,#432,#433);
#362=AXIS2_PLACEMENT_3D('',#529,#434,#435);
#363=AXIS2_PLACEMENT_3D('',#535,#439,#440);
#364=AXIS2_PLACEMENT_3D('',#537,#441,#442);
#365=AXIS2_PLACEMENT_3D('',#539,#444,#445);
#366=AXIS2_PLACEMENT_3D('',#543,#448,#449);
#367=AXIS2_PLACEMENT_3D('',#545,#450,#451);
#368=AXIS2_PLACEMENT_3D('',#547,#453,#454);
#369=AXIS2_PLACEMENT_3D('',#551,#457,#458);
#370=AXIS2_PLACEMENT_3D('',#553,#459,#460);
#371=AXIS2_PLACEMENT_3D('',#555,#462,#463);
#372=AXIS2_PLACEMENT_3D('',#559,#466,#467);
#373=AXIS2_PLACEMENT_3D('',#560,#468,#469);
#374=AXIS2_PLACEMENT_3D('',#561,#470,#471);
#375=AXIS2_PLACEMENT_3D('',#563,#472,#473);
#376=AXIS2_PLACEMENT_3D('',#564,#474,#475);
#377=DIRECTION('axis',(0.,0.,1.));
#378=DIRECTION('refdir',(1.,0.,0.));
#379=DIRECTION('center_axis',(0.,1.,0.));
#380=DIRECTION('ref_axis',(0.,0.,-1.));
#381=DIRECTION('center_axis',(0.,1.,0.));
#382=DIRECTION('ref_axis',(0.,0.,-1.));
#383=DIRECTION('',(0.,1.,0.));
#384=DIRECTION('center_axis',(0.,1.,0.));
#385=DIRECTION('ref_axis',(0.,0.,-1.));
#386=DIRECTION('center_axis',(0.,1.,0.));
#387=DIRECTION('ref_axis',(0.,0.,-1.));
#388=DIRECTION('center_axis',(0.,-1.,0.));
#389=DIRECTION('ref_axis',(1.,0.,0.));
#390=DIRECTION('center_axis',(0.,1.,0.));
#391=DIRECTION('ref_axis',(1.,0.,0.));
#392=DIRECTION('center_axis',(0.,1.,0.));
#393=DIRECTION('ref_axis',(1.,0.,0.));
#394=DIRECTION('center_axis',(0.,-1.,0.));
#395=DIRECTION('ref_axis',(-0.707106781186546,0.,0.707106781186549));
#396=DIRECTION('',(1.,0.,0.));
#397=DIRECTION('center_axis',(0.,-1.,0.));
#398=DIRECTION('ref_axis',(0.707106781186548,0.,0.707106781186548));
#399=DIRECTION('',(-2.19149118175206E-16,0.,-1.));
#400=DIRECTION('center_axis',(0.,-1.,0.));
#401=DIRECTION('ref_axis',(0.707106781186548,0.,-0.707106781186548));
#402=DIRECTION('',(-1.,0.,4.91927910166192E-17));
#403=DIRECTION('center_axis',(0.,-1.,0.));
#404=DIRECTION('ref_axis',(-0.707106781186546,0.,-0.707106781186549));
#405=DIRECTION('',(0.,0.,1.));
#406=DIRECTION('center_axis',(0.,-1.,0.));
#407=DIRECTION('ref_axis',(1.,0.,0.));
#408=DIRECTION('center_axis',(0.,-1.,0.));
#409=DIRECTION('ref_axis',(1.,0.,0.));
#410=DIRECTION('center_axis',(0.,-1.,0.));
#411=DIRECTION('ref_axis',(1.,0.,0.));
#412=DIRECTION('center_axis',(0.,-1.,0.));
#413=DIRECTION('ref_axis',(1.,0.,0.));
#414=DIRECTION('center_axis',(0.,-1.,0.));
#415=DIRECTION('ref_axis',(1.,0.,0.));
#416=DIRECTION('',(0.,-1.,0.));
#417=DIRECTION('center_axis',(0.,1.,0.));
#418=DIRECTION('ref_axis',(1.,0.,0.));
#419=DIRECTION('center_axis',(0.,-1.,0.));
#420=DIRECTION('ref_axis',(1.,0.,0.));
#421=DIRECTION('',(0.,-1.,0.));
#422=DIRECTION('center_axis',(0.,1.,0.));
#423=DIRECTION('ref_axis',(1.,0.,0.));
#424=DIRECTION('center_axis',(0.,-1.,0.));
#425=DIRECTION('ref_axis',(1.,0.,0.));
#426=DIRECTION('',(0.,-1.,0.));
#427=DIRECTION('center_axis',(0.,1.,0.));
#428=DIRECTION('ref_axis',(1.,0.,0.));
#429=DIRECTION('center_axis',(0.,-1.,0.));
#430=DIRECTION('ref_axis',(1.,0.,0.));
#431=DIRECTION('',(0.,-1.,0.));
#432=DIRECTION('center_axis',(0.,1.,0.));
#433=DIRECTION('ref_axis',(1.,0.,0.));
#434=DIRECTION('center_axis',(0.,0.,1.));
#435=DIRECTION('ref_axis',(-1.,0.,0.));
#436=DIRECTION('',(0.,1.,0.));
#437=DIRECTION('',(-1.,0.,0.));
#438=DIRECTION('',(0.,-1.,0.));
#439=DIRECTION('center_axis',(0.,-1.,0.));
#440=DIRECTION('ref_axis',(0.707106781186548,0.,0.707106781186548));
#441=DIRECTION('center_axis',(0.,1.,0.));
#442=DIRECTION('ref_axis',(0.707106781186548,0.,0.707106781186548));
#443=DIRECTION('',(0.,1.,0.));
#444=DIRECTION('center_axis',(1.,0.,-2.19149118175206E-16));
#445=DIRECTION('ref_axis',(2.19149118175206E-16,0.,1.));
#446=DIRECTION('',(0.,-1.,0.));
#447=DIRECTION('',(2.19149118175206E-16,0.,1.));
#448=DIRECTION('center_axis',(0.,-1.,0.));
#449=DIRECTION('ref_axis',(0.707106781186548,0.,-0.707106781186548));
#450=DIRECTION('center_axis',(0.,1.,0.));
#451=DIRECTION('ref_axis',(0.707106781186548,0.,-0.707106781186548));
#452=DIRECTION('',(0.,1.,0.));
#453=DIRECTION('center_axis',(-4.91927910166192E-17,0.,-1.));
#454=DIRECTION('ref_axis',(1.,0.,-4.91927910166192E-17));
#455=DIRECTION('',(0.,-1.,0.));
#456=DIRECTION('',(1.,0.,-4.91927910166192E-17));
#457=DIRECTION('center_axis',(0.,-1.,0.));
#458=DIRECTION('ref_axis',(-0.707106781186546,0.,-0.707106781186549));
#459=DIRECTION('center_axis',(0.,1.,0.));
#460=DIRECTION('ref_axis',(-0.707106781186546,0.,-0.707106781186549));
#461=DIRECTION('',(0.,1.,0.));
#462=DIRECTION('center_axis',(-1.,0.,0.));
#463=DIRECTION('ref_axis',(0.,0.,-1.));
#464=DIRECTION('',(0.,-1.,0.));
#465=DIRECTION('',(0.,0.,-1.));
#466=DIRECTION('center_axis',(0.,-1.,0.));
#467=DIRECTION('ref_axis',(-0.707106781186546,0.,0.707106781186549));
#468=DIRECTION('center_axis',(0.,1.,0.));
#469=DIRECTION('ref_axis',(-0.707106781186546,0.,0.707106781186549));
#470=DIRECTION('center_axis',(0.,-1.,0.));
#471=DIRECTION('ref_axis',(0.,0.,-1.));
#472=DIRECTION('center_axis',(0.,1.,0.));
#473=DIRECTION('ref_axis',(1.,0.,0.));
#474=DIRECTION('center_axis',(0.,-1.,0.));
#475=DIRECTION('ref_axis',(1.,0.,0.));
#476=DIRECTION('',(0.,1.,0.));
#477=CARTESIAN_POINT('',(0.,0.,0.));
#478=CARTESIAN_POINT('Origin',(6.43198352365697E-16,-66.,0.));
#479=CARTESIAN_POINT('',(8.47224509103646E-16,-70.,1.666));
#480=CARTESIAN_POINT('Origin',(6.43198352365697E-16,-70.,0.));
#481=CARTESIAN_POINT('',(8.47224509103646E-16,-62.,1.666));
#482=CARTESIAN_POINT('',(8.47224509103646E-16,-66.,1.666));
#483=CARTESIAN_POINT('Origin',(6.43198352365697E-16,-62.,0.));
#484=CARTESIAN_POINT('Origin',(6.43198352365697E-16,-62.,0.));
#485=CARTESIAN_POINT('Origin',(-0.0104909850367818,-70.,0.0116126779362524));
#486=CARTESIAN_POINT('',(-16.5,-70.,2.02066721859313E-15));
#487=CARTESIAN_POINT('Origin',(0.,-70.,0.));
#488=CARTESIAN_POINT('Origin',(-0.0104909850367996,-60.,0.0116126779362435));
#489=CARTESIAN_POINT('',(-88.2857530046348,-60.,40.5401088496636));
#490=CARTESIAN_POINT('',(-90.2857530046348,-60.,38.5401088496636));
#491=CARTESIAN_POINT('Origin',(-88.2857530046348,-60.,38.5401088496636));
#492=CARTESIAN_POINT('',(88.2647710345612,-60.,40.5401088496636));
#493=CARTESIAN_POINT('',(-90.2857530046348,-60.,40.5401088496636));
#494=CARTESIAN_POINT('',(90.2647710345612,-60.,38.5401088496636));
#495=CARTESIAN_POINT('Origin',(88.2647710345612,-60.,38.5401088496636));
#496=CARTESIAN_POINT('',(90.2647710345612,-60.,-38.5168834937912));
#497=CARTESIAN_POINT('',(90.2647710345612,-60.,40.5401088496636));
#498=CARTESIAN_POINT('',(88.2647710345612,-60.,-40.5168834937911));
#499=CARTESIAN_POINT('Origin',(88.2647710345612,-60.,-38.5168834937912));
#500=CARTESIAN_POINT('',(-88.2857530046348,-60.,-40.5168834937911));
#501=CARTESIAN_POINT('',(90.2647710345612,-60.,-40.5168834937911));
#502=CARTESIAN_POINT('',(-90.2857530046348,-60.,-38.5168834937911));
#503=CARTESIAN_POINT('Origin',(-88.2857530046348,-60.,-38.5168834937911));
#504=CARTESIAN_POINT('',(-90.2857530046348,-60.,-40.5168834937911));
#505=CARTESIAN_POINT('',(-85.5,-60.,33.15));
#506=CARTESIAN_POINT('Origin',(-83.,-60.,33.15));
#507=CARTESIAN_POINT('',(-85.5,-60.,-33.15));
#508=CARTESIAN_POINT('Origin',(-83.,-60.,-33.15));
#509=CARTESIAN_POINT('',(80.5,-60.,33.15));
#510=CARTESIAN_POINT('Origin',(83.,-60.,33.15));
#511=CARTESIAN_POINT('',(80.5,-60.,-33.15));
#512=CARTESIAN_POINT('Origin',(83.,-60.,-33.15));
#513=CARTESIAN_POINT('Origin',(-83.,-51.00158,33.15));
#514=CARTESIAN_POINT('',(-85.5,-62.,33.15));
#515=CARTESIAN_POINT('',(-85.5,-51.00158,33.15));
#516=CARTESIAN_POINT('Origin',(-83.,-62.,33.15));
#517=CARTESIAN_POINT('Origin',(-83.,-51.00158,-33.15));
#518=CARTESIAN_POINT('',(-85.5,-62.,-33.15));
#519=CARTESIAN_POINT('',(-85.5,-51.00158,-33.15));
#520=CARTESIAN_POINT('Origin',(-83.,-62.,-33.15));
#521=CARTESIAN_POINT('Origin',(83.,-51.00158,33.15));
#522=CARTESIAN_POINT('',(80.5,-62.,33.15));
#523=CARTESIAN_POINT('',(80.5,-51.00158,33.15));
#524=CARTESIAN_POINT('Origin',(83.,-62.,33.15));
#525=CARTESIAN_POINT('Origin',(83.,-51.00158,-33.15));
#526=CARTESIAN_POINT('',(80.5,-62.,-33.15));
#527=CARTESIAN_POINT('',(80.5,-51.00158,-33.15));
#528=CARTESIAN_POINT('Origin',(83.,-62.,-33.15));
#529=CARTESIAN_POINT('Origin',(90.2647710345612,-60.,40.5401088496636));
#530=CARTESIAN_POINT('',(-88.2857530046348,-62.,40.5401088496636));
#531=CARTESIAN_POINT('',(-88.2857530046348,-60.,40.5401088496636));
#532=CARTESIAN_POINT('',(88.2647710345612,-62.,40.5401088496636));
#533=CARTESIAN_POINT('',(-90.2857530046348,-62.,40.5401088496636));
#534=CARTESIAN_POINT('',(88.2647710345612,-60.,40.5401088496636));
#535=CARTESIAN_POINT('Origin',(88.2647710345612,-60.,38.5401088496636));
#536=CARTESIAN_POINT('',(90.2647710345612,-62.,38.5401088496636));
#537=CARTESIAN_POINT('Origin',(88.2647710345612,-62.,38.5401088496636));
#538=CARTESIAN_POINT('',(90.2647710345612,-60.,38.5401088496636));
#539=CARTESIAN_POINT('Origin',(90.2647710345612,-60.,-40.5168834937911));
#540=CARTESIAN_POINT('',(90.2647710345612,-62.,-38.5168834937912));
#541=CARTESIAN_POINT('',(90.2647710345612,-60.,-38.5168834937912));
#542=CARTESIAN_POINT('',(90.2647710345612,-62.,40.5401088496636));
#543=CARTESIAN_POINT('Origin',(88.2647710345612,-60.,-38.5168834937912));
#544=CARTESIAN_POINT('',(88.2647710345612,-62.,-40.5168834937911));
#545=CARTESIAN_POINT('Origin',(88.2647710345612,-62.,-38.5168834937912));
#546=CARTESIAN_POINT('',(88.2647710345612,-60.,-40.5168834937911));
#547=CARTESIAN_POINT('Origin',(-90.2857530046348,-60.,-40.5168834937911));
#548=CARTESIAN_POINT('',(-88.2857530046348,-62.,-40.5168834937911));
#549=CARTESIAN_POINT('',(-88.2857530046348,-60.,-40.5168834937911));
#550=CARTESIAN_POINT('',(90.2647710345612,-62.,-40.5168834937911));
#551=CARTESIAN_POINT('Origin',(-88.2857530046348,-60.,-38.5168834937911));
#552=CARTESIAN_POINT('',(-90.2857530046348,-62.,-38.5168834937911));
#553=CARTESIAN_POINT('Origin',(-88.2857530046348,-62.,-38.5168834937911));
#554=CARTESIAN_POINT('',(-90.2857530046348,-60.,-38.5168834937911));
#555=CARTESIAN_POINT('Origin',(-90.2857530046348,-60.,40.5401088496636));
#556=CARTESIAN_POINT('',(-90.2857530046348,-62.,38.5401088496636));
#557=CARTESIAN_POINT('',(-90.2857530046348,-60.,38.5401088496636));
#558=CARTESIAN_POINT('',(-90.2857530046348,-62.,-40.5168834937911));
#559=CARTESIAN_POINT('Origin',(-88.2857530046348,-60.,38.5401088496636));
#560=CARTESIAN_POINT('Origin',(-88.2857530046348,-62.,38.5401088496636));
#561=CARTESIAN_POINT('Origin',(-0.0104909850367996,-62.,0.0116126779362435));
#562=CARTESIAN_POINT('',(-16.5,-62.,-2.02066721859313E-15));
#563=CARTESIAN_POINT('Origin',(0.,-62.,0.));
#564=CARTESIAN_POINT('Origin',(0.,-62.,0.));
#565=CARTESIAN_POINT('',(-16.5,-62.,-2.02066721859313E-15));
#566=UNCERTAINTY_MEASURE_WITH_UNIT(LENGTH_MEASURE(0.01),#570,
'DISTANCE_ACCURACY_VALUE',
'Maximum model space distance between geometric entities at asserted c
onnectivities');
#567=UNCERTAINTY_MEASURE_WITH_UNIT(LENGTH_MEASURE(0.01),#570,
'DISTANCE_ACCURACY_VALUE',
'Maximum model space distance between geometric entities at asserted c
onnectivities');
#568=(
GEOMETRIC_REPRESENTATION_CONTEXT(3)
GLOBAL_UNCERTAINTY_ASSIGNED_CONTEXT((#566))
GLOBAL_UNIT_ASSIGNED_CONTEXT((#570,#572,#573))
REPRESENTATION_CONTEXT('','3D')
);
#569=(
GEOMETRIC_REPRESENTATION_CONTEXT(3)
GLOBAL_UNCERTAINTY_ASSIGNED_CONTEXT((#567))
GLOBAL_UNIT_ASSIGNED_CONTEXT((#570,#572,#573))
REPRESENTATION_CONTEXT('','3D')
);
#570=(
LENGTH_UNIT()
NAMED_UNIT(*)
SI_UNIT(.MILLI.,.METRE.)
);
#571=(
LENGTH_UNIT()
NAMED_UNIT(*)
SI_UNIT($,.METRE.)
);
#572=(
NAMED_UNIT(*)
PLANE_ANGLE_UNIT()
SI_UNIT($,.RADIAN.)
);
#573=(
NAMED_UNIT(*)
SI_UNIT($,.STERADIAN.)
SOLID_ANGLE_UNIT()
);
#574=SHAPE_DEFINITION_REPRESENTATION(#575,#576);
#575=PRODUCT_DEFINITION_SHAPE('',$,#578);
#576=SHAPE_REPRESENTATION('',(#338),#568);
#577=PRODUCT_DEFINITION_CONTEXT('part definition',#582,'design');
#578=PRODUCT_DEFINITION('NBF-32306_Mounting plate',
'NBF-32306_Mounting plate v3',#579,#577);
#579=PRODUCT_DEFINITION_FORMATION('',$,#584);
#580=PRODUCT_RELATED_PRODUCT_CATEGORY('NBF-32306_Mounting plate v3',
'NBF-32306_Mounting plate v3',(#584));
#581=APPLICATION_PROTOCOL_DEFINITION('international standard',
'automotive_design',2009,#582);
#582=APPLICATION_CONTEXT(
'Core Data for Automotive Mechanical Design Process');
#583=PRODUCT_CONTEXT('part definition',#582,'mechanical');
#584=PRODUCT('NBF-32306_Mounting plate','NBF-32306_Mounting plate v3',$,
(#583));
#585=PRESENTATION_STYLE_ASSIGNMENT((#586));
#586=SURFACE_STYLE_USAGE(.BOTH.,#587);
#587=SURFACE_SIDE_STYLE('',(#588));
#588=SURFACE_STYLE_FILL_AREA(#589);
#589=FILL_AREA_STYLE('Acier - Satin\X\E9',(#590));
#590=FILL_AREA_STYLE_COLOUR('Acier - Satin\X\E9',#591);
#591=COLOUR_RGB('Acier - Satin\X\E9',0.627450980392157,0.627450980392157,
0.627450980392157);
ENDSEC;
END-ISO-10303-21;
