ISO-10303-21;
HEADER;
/* Generated by software containing ST-Developer
 * from STEP Tools, Inc. (www.steptools.com) 
 */

FILE_DESCRIPTION(
/* description */ (''),
/* implementation_level */ '2;1');

FILE_NAME(
/* name */ 'CouvreAileron.step',
/* time_stamp */ '2023-03-06T22:52:23+01:00',
/* author */ (''),
/* organization */ (''),
/* preprocessor_version */ 'ST-DEVELOPER v19.2',
/* originating_system */ 'Autodesk Translation Framework v11.17.0.187',

/* authorisation */ '');

FILE_SCHEMA (('AUTOMOTIVE_DESIGN { 1 0 10303 214 3 1 1 }'));
ENDSEC;

DATA;
#10=MECHANICAL_DESIGN_GEOMETRIC_PRESENTATION_REPRESENTATION('',(#13),#488);
#11=SHAPE_REPRESENTATION_RELATIONSHIP('SRR','None',#495,#12);
#12=ADVANCED_BREP_SHAPE_REPRESENTATION('',(#14),#487);
#13=STYLED_ITEM('',(#504),#14);
#14=MANIFOLD_SOLID_BREP('Corps1',#288);
#15=PLANE('',#305);
#16=PLANE('',#306);
#17=PLANE('',#307);
#18=PLANE('',#308);
#19=PLANE('',#312);
#20=PLANE('',#316);
#21=PLANE('',#317);
#22=PLANE('',#318);
#23=PLANE('',#322);
#24=PLANE('',#323);
#25=PLANE('',#324);
#26=FACE_OUTER_BOUND('',#41,.T.);
#27=FACE_OUTER_BOUND('',#42,.T.);
#28=FACE_OUTER_BOUND('',#43,.T.);
#29=FACE_OUTER_BOUND('',#44,.T.);
#30=FACE_OUTER_BOUND('',#45,.T.);
#31=FACE_OUTER_BOUND('',#46,.T.);
#32=FACE_OUTER_BOUND('',#47,.T.);
#33=FACE_OUTER_BOUND('',#48,.T.);
#34=FACE_OUTER_BOUND('',#49,.T.);
#35=FACE_OUTER_BOUND('',#50,.T.);
#36=FACE_OUTER_BOUND('',#51,.T.);
#37=FACE_OUTER_BOUND('',#52,.T.);
#38=FACE_OUTER_BOUND('',#53,.T.);
#39=FACE_OUTER_BOUND('',#54,.T.);
#40=FACE_OUTER_BOUND('',#55,.T.);
#41=EDGE_LOOP('',(#191,#192,#193,#194));
#42=EDGE_LOOP('',(#195,#196,#197,#198));
#43=EDGE_LOOP('',(#199,#200,#201,#202));
#44=EDGE_LOOP('',(#203,#204,#205,#206));
#45=EDGE_LOOP('',(#207,#208,#209,#210));
#46=EDGE_LOOP('',(#211,#212,#213,#214));
#47=EDGE_LOOP('',(#215,#216,#217,#218));
#48=EDGE_LOOP('',(#219,#220,#221,#222));
#49=EDGE_LOOP('',(#223,#224,#225,#226));
#50=EDGE_LOOP('',(#227,#228,#229,#230));
#51=EDGE_LOOP('',(#231,#232,#233,#234));
#52=EDGE_LOOP('',(#235,#236,#237,#238));
#53=EDGE_LOOP('',(#239,#240,#241,#242));
#54=EDGE_LOOP('',(#243,#244,#245,#246,#247,#248,#249,#250,#251,#252,#253,
#254,#255));
#55=EDGE_LOOP('',(#256,#257,#258,#259,#260,#261,#262,#263,#264,#265,#266,
#267,#268));
#56=LINE('',#410,#87);
#57=LINE('',#413,#88);
#58=LINE('',#416,#89);
#59=LINE('',#418,#90);
#60=LINE('',#419,#91);
#61=LINE('',#422,#92);
#62=LINE('',#424,#93);
#63=LINE('',#425,#94);
#64=LINE('',#428,#95);
#65=LINE('',#430,#96);
#66=LINE('',#431,#97);
#67=LINE('',#434,#98);
#68=LINE('',#436,#99);
#69=LINE('',#437,#100);
#70=LINE('',#443,#101);
#71=LINE('',#446,#102);
#72=LINE('',#448,#103);
#73=LINE('',#449,#104);
#74=LINE('',#455,#105);
#75=LINE('',#458,#106);
#76=LINE('',#460,#107);
#77=LINE('',#461,#108);
#78=LINE('',#464,#109);
#79=LINE('',#466,#110);
#80=LINE('',#467,#111);
#81=LINE('',#470,#112);
#82=LINE('',#472,#113);
#83=LINE('',#473,#114);
#84=LINE('',#479,#115);
#85=LINE('',#481,#116);
#86=LINE('',#482,#117);
#87=VECTOR('',#331,10.);
#88=VECTOR('',#334,10.);
#89=VECTOR('',#337,10.);
#90=VECTOR('',#338,10.);
#91=VECTOR('',#339,10.);
#92=VECTOR('',#342,10.);
#93=VECTOR('',#343,10.);
#94=VECTOR('',#344,10.);
#95=VECTOR('',#347,10.);
#96=VECTOR('',#348,10.);
#97=VECTOR('',#349,10.);
#98=VECTOR('',#352,10.);
#99=VECTOR('',#353,10.);
#100=VECTOR('',#354,10.);
#101=VECTOR('',#361,10.);
#102=VECTOR('',#364,10.);
#103=VECTOR('',#365,10.);
#104=VECTOR('',#366,10.);
#105=VECTOR('',#373,10.);
#106=VECTOR('',#376,10.);
#107=VECTOR('',#377,10.);
#108=VECTOR('',#378,10.);
#109=VECTOR('',#381,10.);
#110=VECTOR('',#382,10.);
#111=VECTOR('',#383,10.);
#112=VECTOR('',#386,10.);
#113=VECTOR('',#387,10.);
#114=VECTOR('',#388,10.);
#115=VECTOR('',#395,10.);
#116=VECTOR('',#398,10.);
#117=VECTOR('',#399,10.);
#118=CIRCLE('',#303,5.19999999999993);
#119=CIRCLE('',#304,5.19999999999993);
#120=CIRCLE('',#310,5.00000000000007);
#121=CIRCLE('',#311,5.00000000000007);
#122=CIRCLE('',#314,2.00000000000001);
#123=CIRCLE('',#315,2.00000000000001);
#124=CIRCLE('',#320,5.19999999999998);
#125=CIRCLE('',#321,5.19999999999998);
#126=VERTEX_POINT('',#406);
#127=VERTEX_POINT('',#407);
#128=VERTEX_POINT('',#409);
#129=VERTEX_POINT('',#411);
#130=VERTEX_POINT('',#415);
#131=VERTEX_POINT('',#417);
#132=VERTEX_POINT('',#421);
#133=VERTEX_POINT('',#423);
#134=VERTEX_POINT('',#427);
#135=VERTEX_POINT('',#429);
#136=VERTEX_POINT('',#433);
#137=VERTEX_POINT('',#435);
#138=VERTEX_POINT('',#439);
#139=VERTEX_POINT('',#441);
#140=VERTEX_POINT('',#445);
#141=VERTEX_POINT('',#447);
#142=VERTEX_POINT('',#451);
#143=VERTEX_POINT('',#453);
#144=VERTEX_POINT('',#457);
#145=VERTEX_POINT('',#459);
#146=VERTEX_POINT('',#463);
#147=VERTEX_POINT('',#465);
#148=VERTEX_POINT('',#469);
#149=VERTEX_POINT('',#471);
#150=VERTEX_POINT('',#475);
#151=VERTEX_POINT('',#477);
#152=EDGE_CURVE('',#126,#127,#118,.T.);
#153=EDGE_CURVE('',#126,#128,#56,.T.);
#154=EDGE_CURVE('',#129,#128,#119,.T.);
#155=EDGE_CURVE('',#127,#129,#57,.T.);
#156=EDGE_CURVE('',#130,#127,#58,.T.);
#157=EDGE_CURVE('',#131,#129,#59,.T.);
#158=EDGE_CURVE('',#130,#131,#60,.T.);
#159=EDGE_CURVE('',#132,#130,#61,.T.);
#160=EDGE_CURVE('',#133,#131,#62,.T.);
#161=EDGE_CURVE('',#132,#133,#63,.T.);
#162=EDGE_CURVE('',#134,#132,#64,.T.);
#163=EDGE_CURVE('',#135,#133,#65,.T.);
#164=EDGE_CURVE('',#134,#135,#66,.T.);
#165=EDGE_CURVE('',#136,#134,#67,.T.);
#166=EDGE_CURVE('',#137,#135,#68,.T.);
#167=EDGE_CURVE('',#136,#137,#69,.T.);
#168=EDGE_CURVE('',#138,#136,#120,.T.);
#169=EDGE_CURVE('',#139,#137,#121,.T.);
#170=EDGE_CURVE('',#138,#139,#70,.T.);
#171=EDGE_CURVE('',#140,#138,#71,.T.);
#172=EDGE_CURVE('',#141,#139,#72,.T.);
#173=EDGE_CURVE('',#140,#141,#73,.T.);
#174=EDGE_CURVE('',#142,#140,#122,.T.);
#175=EDGE_CURVE('',#143,#141,#123,.T.);
#176=EDGE_CURVE('',#142,#143,#74,.T.);
#177=EDGE_CURVE('',#144,#142,#75,.T.);
#178=EDGE_CURVE('',#145,#143,#76,.T.);
#179=EDGE_CURVE('',#144,#145,#77,.T.);
#180=EDGE_CURVE('',#146,#144,#78,.T.);
#181=EDGE_CURVE('',#147,#145,#79,.T.);
#182=EDGE_CURVE('',#146,#147,#80,.T.);
#183=EDGE_CURVE('',#148,#146,#81,.T.);
#184=EDGE_CURVE('',#149,#147,#82,.T.);
#185=EDGE_CURVE('',#148,#149,#83,.T.);
#186=EDGE_CURVE('',#148,#150,#124,.T.);
#187=EDGE_CURVE('',#151,#149,#125,.T.);
#188=EDGE_CURVE('',#150,#151,#84,.T.);
#189=EDGE_CURVE('',#126,#150,#85,.T.);
#190=EDGE_CURVE('',#128,#151,#86,.T.);
#191=ORIENTED_EDGE('',*,*,#152,.F.);
#192=ORIENTED_EDGE('',*,*,#153,.T.);
#193=ORIENTED_EDGE('',*,*,#154,.F.);
#194=ORIENTED_EDGE('',*,*,#155,.F.);
#195=ORIENTED_EDGE('',*,*,#156,.T.);
#196=ORIENTED_EDGE('',*,*,#155,.T.);
#197=ORIENTED_EDGE('',*,*,#157,.F.);
#198=ORIENTED_EDGE('',*,*,#158,.F.);
#199=ORIENTED_EDGE('',*,*,#159,.T.);
#200=ORIENTED_EDGE('',*,*,#158,.T.);
#201=ORIENTED_EDGE('',*,*,#160,.F.);
#202=ORIENTED_EDGE('',*,*,#161,.F.);
#203=ORIENTED_EDGE('',*,*,#162,.T.);
#204=ORIENTED_EDGE('',*,*,#161,.T.);
#205=ORIENTED_EDGE('',*,*,#163,.F.);
#206=ORIENTED_EDGE('',*,*,#164,.F.);
#207=ORIENTED_EDGE('',*,*,#165,.T.);
#208=ORIENTED_EDGE('',*,*,#164,.T.);
#209=ORIENTED_EDGE('',*,*,#166,.F.);
#210=ORIENTED_EDGE('',*,*,#167,.F.);
#211=ORIENTED_EDGE('',*,*,#168,.T.);
#212=ORIENTED_EDGE('',*,*,#167,.T.);
#213=ORIENTED_EDGE('',*,*,#169,.F.);
#214=ORIENTED_EDGE('',*,*,#170,.F.);
#215=ORIENTED_EDGE('',*,*,#171,.T.);
#216=ORIENTED_EDGE('',*,*,#170,.T.);
#217=ORIENTED_EDGE('',*,*,#172,.F.);
#218=ORIENTED_EDGE('',*,*,#173,.F.);
#219=ORIENTED_EDGE('',*,*,#174,.T.);
#220=ORIENTED_EDGE('',*,*,#173,.T.);
#221=ORIENTED_EDGE('',*,*,#175,.F.);
#222=ORIENTED_EDGE('',*,*,#176,.F.);
#223=ORIENTED_EDGE('',*,*,#177,.T.);
#224=ORIENTED_EDGE('',*,*,#176,.T.);
#225=ORIENTED_EDGE('',*,*,#178,.F.);
#226=ORIENTED_EDGE('',*,*,#179,.F.);
#227=ORIENTED_EDGE('',*,*,#180,.T.);
#228=ORIENTED_EDGE('',*,*,#179,.T.);
#229=ORIENTED_EDGE('',*,*,#181,.F.);
#230=ORIENTED_EDGE('',*,*,#182,.F.);
#231=ORIENTED_EDGE('',*,*,#183,.T.);
#232=ORIENTED_EDGE('',*,*,#182,.T.);
#233=ORIENTED_EDGE('',*,*,#184,.F.);
#234=ORIENTED_EDGE('',*,*,#185,.F.);
#235=ORIENTED_EDGE('',*,*,#186,.F.);
#236=ORIENTED_EDGE('',*,*,#185,.T.);
#237=ORIENTED_EDGE('',*,*,#187,.F.);
#238=ORIENTED_EDGE('',*,*,#188,.F.);
#239=ORIENTED_EDGE('',*,*,#189,.T.);
#240=ORIENTED_EDGE('',*,*,#188,.T.);
#241=ORIENTED_EDGE('',*,*,#190,.F.);
#242=ORIENTED_EDGE('',*,*,#153,.F.);
#243=ORIENTED_EDGE('',*,*,#190,.T.);
#244=ORIENTED_EDGE('',*,*,#187,.T.);
#245=ORIENTED_EDGE('',*,*,#184,.T.);
#246=ORIENTED_EDGE('',*,*,#181,.T.);
#247=ORIENTED_EDGE('',*,*,#178,.T.);
#248=ORIENTED_EDGE('',*,*,#175,.T.);
#249=ORIENTED_EDGE('',*,*,#172,.T.);
#250=ORIENTED_EDGE('',*,*,#169,.T.);
#251=ORIENTED_EDGE('',*,*,#166,.T.);
#252=ORIENTED_EDGE('',*,*,#163,.T.);
#253=ORIENTED_EDGE('',*,*,#160,.T.);
#254=ORIENTED_EDGE('',*,*,#157,.T.);
#255=ORIENTED_EDGE('',*,*,#154,.T.);
#256=ORIENTED_EDGE('',*,*,#189,.F.);
#257=ORIENTED_EDGE('',*,*,#152,.T.);
#258=ORIENTED_EDGE('',*,*,#156,.F.);
#259=ORIENTED_EDGE('',*,*,#159,.F.);
#260=ORIENTED_EDGE('',*,*,#162,.F.);
#261=ORIENTED_EDGE('',*,*,#165,.F.);
#262=ORIENTED_EDGE('',*,*,#168,.F.);
#263=ORIENTED_EDGE('',*,*,#171,.F.);
#264=ORIENTED_EDGE('',*,*,#174,.F.);
#265=ORIENTED_EDGE('',*,*,#177,.F.);
#266=ORIENTED_EDGE('',*,*,#180,.F.);
#267=ORIENTED_EDGE('',*,*,#183,.F.);
#268=ORIENTED_EDGE('',*,*,#186,.T.);
#269=CYLINDRICAL_SURFACE('',#302,5.19999999999993);
#270=CYLINDRICAL_SURFACE('',#309,5.00000000000007);
#271=CYLINDRICAL_SURFACE('',#313,2.00000000000001);
#272=CYLINDRICAL_SURFACE('',#319,5.19999999999998);
#273=ADVANCED_FACE('',(#26),#269,.F.);
#274=ADVANCED_FACE('',(#27),#15,.T.);
#275=ADVANCED_FACE('',(#28),#16,.T.);
#276=ADVANCED_FACE('',(#29),#17,.T.);
#277=ADVANCED_FACE('',(#30),#18,.T.);
#278=ADVANCED_FACE('',(#31),#270,.T.);
#279=ADVANCED_FACE('',(#32),#19,.T.);
#280=ADVANCED_FACE('',(#33),#271,.T.);
#281=ADVANCED_FACE('',(#34),#20,.T.);
#282=ADVANCED_FACE('',(#35),#21,.T.);
#283=ADVANCED_FACE('',(#36),#22,.T.);
#284=ADVANCED_FACE('',(#37),#272,.F.);
#285=ADVANCED_FACE('',(#38),#23,.T.);
#286=ADVANCED_FACE('',(#39),#24,.T.);
#287=ADVANCED_FACE('',(#40),#25,.F.);
#288=CLOSED_SHELL('',(#273,#274,#275,#276,#277,#278,#279,#280,#281,#282,
#283,#284,#285,#286,#287));
#289=DERIVED_UNIT_ELEMENT(#291,1.);
#290=DERIVED_UNIT_ELEMENT(#490,-3.);
#291=(
MASS_UNIT()
NAMED_UNIT(*)
SI_UNIT(.KILO.,.GRAM.)
);
#292=DERIVED_UNIT((#289,#290));
#293=MEASURE_REPRESENTATION_ITEM('density measure',
POSITIVE_RATIO_MEASURE(7850.),#292);
#294=PROPERTY_DEFINITION_REPRESENTATION(#299,#296);
#295=PROPERTY_DEFINITION_REPRESENTATION(#300,#297);
#296=REPRESENTATION('material name',(#298),#487);
#297=REPRESENTATION('density',(#293),#487);
#298=DESCRIPTIVE_REPRESENTATION_ITEM('Acier','Acier');
#299=PROPERTY_DEFINITION('material property','material name',#497);
#300=PROPERTY_DEFINITION('material property','density of part',#497);
#301=AXIS2_PLACEMENT_3D('placement',#404,#325,#326);
#302=AXIS2_PLACEMENT_3D('',#405,#327,#328);
#303=AXIS2_PLACEMENT_3D('',#408,#329,#330);
#304=AXIS2_PLACEMENT_3D('',#412,#332,#333);
#305=AXIS2_PLACEMENT_3D('',#414,#335,#336);
#306=AXIS2_PLACEMENT_3D('',#420,#340,#341);
#307=AXIS2_PLACEMENT_3D('',#426,#345,#346);
#308=AXIS2_PLACEMENT_3D('',#432,#350,#351);
#309=AXIS2_PLACEMENT_3D('',#438,#355,#356);
#310=AXIS2_PLACEMENT_3D('',#440,#357,#358);
#311=AXIS2_PLACEMENT_3D('',#442,#359,#360);
#312=AXIS2_PLACEMENT_3D('',#444,#362,#363);
#313=AXIS2_PLACEMENT_3D('',#450,#367,#368);
#314=AXIS2_PLACEMENT_3D('',#452,#369,#370);
#315=AXIS2_PLACEMENT_3D('',#454,#371,#372);
#316=AXIS2_PLACEMENT_3D('',#456,#374,#375);
#317=AXIS2_PLACEMENT_3D('',#462,#379,#380);
#318=AXIS2_PLACEMENT_3D('',#468,#384,#385);
#319=AXIS2_PLACEMENT_3D('',#474,#389,#390);
#320=AXIS2_PLACEMENT_3D('',#476,#391,#392);
#321=AXIS2_PLACEMENT_3D('',#478,#393,#394);
#322=AXIS2_PLACEMENT_3D('',#480,#396,#397);
#323=AXIS2_PLACEMENT_3D('',#483,#400,#401);
#324=AXIS2_PLACEMENT_3D('',#484,#402,#403);
#325=DIRECTION('axis',(0.,0.,1.));
#326=DIRECTION('refdir',(1.,0.,0.));
#327=DIRECTION('center_axis',(1.,0.,0.));
#328=DIRECTION('ref_axis',(0.,-8.19857002800126E-14,-1.));
#329=DIRECTION('center_axis',(1.,9.83936417569829E-33,-6.31088724176808E-30));
#330=DIRECTION('ref_axis',(-6.31088724176808E-30,-8.19857002800126E-14,
-1.));
#331=DIRECTION('',(1.,0.,0.));
#332=DIRECTION('center_axis',(-1.,-9.83936417569829E-33,6.31088724176808E-30));
#333=DIRECTION('ref_axis',(-6.31088724176808E-30,-8.19857002800126E-14,
-1.));
#334=DIRECTION('',(1.,0.,0.));
#335=DIRECTION('center_axis',(0.,-1.,6.95732881092031E-14));
#336=DIRECTION('ref_axis',(-2.12676666906954E-32,-6.95732881092031E-14,
-1.));
#337=DIRECTION('',(-2.12676666906954E-32,-6.95732881092031E-14,-1.));
#338=DIRECTION('',(-2.12676666906954E-32,-6.95732881092031E-14,-1.));
#339=DIRECTION('',(1.,0.,0.));
#340=DIRECTION('center_axis',(0.,-1.12041508030763E-13,1.));
#341=DIRECTION('ref_axis',(4.17860773056199E-33,-1.,-1.12041508030763E-13));
#342=DIRECTION('',(4.17860773056199E-33,-1.,-1.12041508030763E-13));
#343=DIRECTION('',(4.17860773056199E-33,-1.,-1.12041508030763E-13));
#344=DIRECTION('',(1.,0.,0.));
#345=DIRECTION('center_axis',(0.,1.,0.));
#346=DIRECTION('ref_axis',(0.,0.,1.));
#347=DIRECTION('',(0.,0.,1.));
#348=DIRECTION('',(0.,0.,1.));
#349=DIRECTION('',(1.,0.,0.));
#350=DIRECTION('center_axis',(0.,0.767076870152409,-0.641555200491107));
#351=DIRECTION('ref_axis',(0.,0.641555200491107,0.767076870152408));
#352=DIRECTION('',(0.,0.641555200491107,0.767076870152408));
#353=DIRECTION('',(0.,0.641555200491107,0.767076870152408));
#354=DIRECTION('',(1.,0.,0.));
#355=DIRECTION('center_axis',(1.,0.,0.));
#356=DIRECTION('ref_axis',(0.,1.24344978758016E-14,-1.));
#357=DIRECTION('center_axis',(1.,0.,0.));
#358=DIRECTION('ref_axis',(0.,1.24344978758016E-14,-1.));
#359=DIRECTION('center_axis',(1.,0.,0.));
#360=DIRECTION('ref_axis',(0.,1.24344978758016E-14,-1.));
#361=DIRECTION('',(1.,0.,0.));
#362=DIRECTION('center_axis',(0.,1.8070917395651E-15,-1.));
#363=DIRECTION('ref_axis',(0.,1.,1.8070917395651E-15));
#364=DIRECTION('',(0.,1.,1.8070917395651E-15));
#365=DIRECTION('',(0.,1.,1.8070917395651E-15));
#366=DIRECTION('',(1.,0.,0.));
#367=DIRECTION('center_axis',(1.,0.,0.));
#368=DIRECTION('ref_axis',(0.,-0.996883185721588,0.0788917868068491));
#369=DIRECTION('center_axis',(1.,0.,0.));
#370=DIRECTION('ref_axis',(0.,-0.996883185721588,0.0788917868068491));
#371=DIRECTION('center_axis',(1.,0.,0.));
#372=DIRECTION('ref_axis',(0.,-0.996883185721588,0.0788917868068491));
#373=DIRECTION('',(1.,0.,0.));
#374=DIRECTION('center_axis',(0.,-0.996883185721588,0.0788917868068577));
#375=DIRECTION('ref_axis',(-1.21687974145498E-33,-0.0788917868068577,-0.996883185721588));
#376=DIRECTION('',(-1.21687974145498E-33,-0.0788917868068577,-0.996883185721588));
#377=DIRECTION('',(-1.21687974145498E-33,-0.0788917868068577,-0.996883185721588));
#378=DIRECTION('',(1.,0.,0.));
#379=DIRECTION('center_axis',(0.,6.97316870157779E-14,1.));
#380=DIRECTION('ref_axis',(6.71726003427573E-33,-1.,6.97316870157779E-14));
#381=DIRECTION('',(6.71726003427573E-33,-1.,6.97316870157779E-14));
#382=DIRECTION('',(6.71726003427573E-33,-1.,6.97316870157779E-14));
#383=DIRECTION('',(1.,0.,0.));
#384=DIRECTION('center_axis',(0.,1.,-7.08156682540087E-14));
#385=DIRECTION('ref_axis',(0.,7.08156682540087E-14,1.));
#386=DIRECTION('',(0.,7.08156682540087E-14,1.));
#387=DIRECTION('',(0.,7.08156682540087E-14,1.));
#388=DIRECTION('',(1.,0.,0.));
#389=DIRECTION('center_axis',(1.,0.,0.));
#390=DIRECTION('ref_axis',(0.,-1.,7.00294523225102E-14));
#391=DIRECTION('center_axis',(1.,-4.38579471286279E-43,-6.31088724176809E-30));
#392=DIRECTION('ref_axis',(3.36850592385775E-45,-1.,7.00294523225102E-14));
#393=DIRECTION('center_axis',(-1.,4.38579471286279E-43,6.31088724176809E-30));
#394=DIRECTION('ref_axis',(3.36850592385775E-45,-1.,7.00294523225102E-14));
#395=DIRECTION('',(1.,0.,0.));
#396=DIRECTION('center_axis',(0.,6.39488462184094E-14,1.));
#397=DIRECTION('ref_axis',(1.09379814904996E-30,-1.,6.39488462184094E-14));
#398=DIRECTION('',(1.09379814904996E-30,-1.,6.39488462184094E-14));
#399=DIRECTION('',(1.09379814904996E-30,-1.,6.39488462184094E-14));
#400=DIRECTION('center_axis',(1.,0.,0.));
#401=DIRECTION('ref_axis',(0.,0.,-1.));
#402=DIRECTION('center_axis',(1.,0.,0.));
#403=DIRECTION('ref_axis',(0.,0.,-1.));
#404=CARTESIAN_POINT('',(0.,0.,0.));
#405=CARTESIAN_POINT('Origin',(-3.11788908312272E-43,114.655213562377,-52.9865535552011));
#406=CARTESIAN_POINT('',(-3.28166136571939E-29,114.655213562376,-58.1865535552011));
#407=CARTESIAN_POINT('',(-5.11646937160154E-32,119.855213562377,-52.9865535552015));
#408=CARTESIAN_POINT('Origin',(-3.11788908312272E-43,114.655213562377,-52.9865535552011));
#409=CARTESIAN_POINT('',(0.8,114.655213562376,-58.1865535552011));
#410=CARTESIAN_POINT('',(-3.28166136571939E-29,114.655213562376,-58.1865535552011));
#411=CARTESIAN_POINT('',(0.8,119.855213562377,-52.9865535552015));
#412=CARTESIAN_POINT('Origin',(0.8,114.655213562377,-52.9865535552011));
#413=CARTESIAN_POINT('',(-5.11646937160154E-32,119.855213562377,-52.9865535552015));
#414=CARTESIAN_POINT('Origin',(1.52042695394027E-31,119.855213562377,-45.8375466798706));
#415=CARTESIAN_POINT('',(1.52042695394027E-31,119.855213562377,-45.8375466798706));
#416=CARTESIAN_POINT('',(1.52042695394027E-31,119.855213562377,-45.8375466798706));
#417=CARTESIAN_POINT('',(0.8,119.855213562377,-45.8375466798706));
#418=CARTESIAN_POINT('',(0.8,119.855213562377,-45.8375466798706));
#419=CARTESIAN_POINT('',(1.52042695394027E-31,119.855213562377,-45.8375466798706));
#420=CARTESIAN_POINT('Origin',(0.,156.241183530795,-45.8375466798665));
#421=CARTESIAN_POINT('',(0.,156.241183530795,-45.8375466798665));
#422=CARTESIAN_POINT('',(0.,156.241183530795,-45.8375466798665));
#423=CARTESIAN_POINT('',(0.8,156.241183530795,-45.8375466798665));
#424=CARTESIAN_POINT('',(0.8,156.241183530795,-45.8375466798665));
#425=CARTESIAN_POINT('',(0.,156.241183530795,-45.8375466798665));
#426=CARTESIAN_POINT('Origin',(0.,156.241183530795,-53.8375467990758));
#427=CARTESIAN_POINT('',(0.,156.241183530795,-53.8375467990758));
#428=CARTESIAN_POINT('',(0.,156.241183530795,-53.8375467990758));
#429=CARTESIAN_POINT('',(0.8,156.241183530795,-53.8375467990758));
#430=CARTESIAN_POINT('',(0.8,156.241183530795,-53.8375467990758));
#431=CARTESIAN_POINT('',(0.,156.241183530795,-53.8375467990758));
#432=CARTESIAN_POINT('Origin',(0.,78.7981801742772,-146.432442116651));
#433=CARTESIAN_POINT('',(0.,78.7981801742772,-146.432442116651));
#434=CARTESIAN_POINT('',(0.,78.7981801742772,-146.432442116651));
#435=CARTESIAN_POINT('',(0.8,78.7981801742772,-146.432442116651));
#436=CARTESIAN_POINT('',(0.8,78.7981801742772,-146.432442116651));
#437=CARTESIAN_POINT('',(0.,78.7981801742772,-146.432442116651));
#438=CARTESIAN_POINT('Origin',(0.,74.9627958235151,-143.224666114196));
#439=CARTESIAN_POINT('',(0.,74.9627958235151,-148.224666114196));
#440=CARTESIAN_POINT('Origin',(0.,74.9627958235151,-143.224666114196));
#441=CARTESIAN_POINT('',(0.8,74.9627958235151,-148.224666114196));
#442=CARTESIAN_POINT('Origin',(0.8,74.9627958235151,-143.224666114196));
#443=CARTESIAN_POINT('',(0.,74.9627958235151,-148.224666114196));
#444=CARTESIAN_POINT('Origin',(0.,55.3029545381163,-148.224666114196));
#445=CARTESIAN_POINT('',(0.,55.3029545381163,-148.224666114196));
#446=CARTESIAN_POINT('',(0.,55.3029545381163,-148.224666114196));
#447=CARTESIAN_POINT('',(0.8,55.3029545381163,-148.224666114196));
#448=CARTESIAN_POINT('',(0.8,55.3029545381163,-148.224666114196));
#449=CARTESIAN_POINT('',(0.,55.3029545381163,-148.224666114196));
#450=CARTESIAN_POINT('Origin',(0.,55.3029545381163,-146.224666114196));
#451=CARTESIAN_POINT('',(0.,53.3091881666731,-146.066882540582));
#452=CARTESIAN_POINT('Origin',(0.,55.3029545381163,-146.224666114196));
#453=CARTESIAN_POINT('',(0.8,53.3091881666731,-146.066882540582));
#454=CARTESIAN_POINT('Origin',(0.8,55.3029545381163,-146.224666114196));
#455=CARTESIAN_POINT('',(0.,53.3091881666731,-146.066882540582));
#456=CARTESIAN_POINT('Origin',(1.22348385503269E-31,61.2411821151846,-45.8375466798665));
#457=CARTESIAN_POINT('',(1.22348385503269E-31,61.2411821151846,-45.8375466798665));
#458=CARTESIAN_POINT('',(1.22348385503269E-31,61.2411821151846,-45.8375466798665));
#459=CARTESIAN_POINT('',(0.8,61.2411821151846,-45.8375466798665));
#460=CARTESIAN_POINT('',(0.8,61.2411821151846,-45.8375466798665));
#461=CARTESIAN_POINT('',(1.22348385503269E-31,61.2411821151846,-45.8375466798665));
#462=CARTESIAN_POINT('Origin',(0.,79.4552135623774,-45.8375466798677));
#463=CARTESIAN_POINT('',(0.,79.4552135623774,-45.8375466798677));
#464=CARTESIAN_POINT('',(0.,79.4552135623774,-45.8375466798677));
#465=CARTESIAN_POINT('',(0.8,79.4552135623774,-45.8375466798677));
#466=CARTESIAN_POINT('',(0.8,79.4552135623774,-45.8375466798677));
#467=CARTESIAN_POINT('',(0.,79.4552135623774,-45.8375466798677));
#468=CARTESIAN_POINT('Origin',(0.,79.4552135623769,-52.9865535551988));
#469=CARTESIAN_POINT('',(0.,79.4552135623769,-52.9865535551988));
#470=CARTESIAN_POINT('',(0.,79.4552135623769,-52.9865535551988));
#471=CARTESIAN_POINT('',(0.8,79.4552135623769,-52.9865535551988));
#472=CARTESIAN_POINT('',(0.8,79.4552135623769,-52.9865535551988));
#473=CARTESIAN_POINT('',(0.,79.4552135623769,-52.9865535551988));
#474=CARTESIAN_POINT('Origin',(-1.75162308040602E-44,84.6552135623768,-52.9865535551992));
#475=CARTESIAN_POINT('',(-3.2816613657194E-29,84.6552135623765,-58.1865535551991));
#476=CARTESIAN_POINT('Origin',(-1.75162308040602E-44,84.6552135623768,-52.9865535551992));
#477=CARTESIAN_POINT('',(0.8,84.6552135623765,-58.1865535551991));
#478=CARTESIAN_POINT('Origin',(0.8,84.6552135623768,-52.9865535551992));
#479=CARTESIAN_POINT('',(-3.2816613657194E-29,84.6552135623765,-58.1865535551991));
#480=CARTESIAN_POINT('Origin',(-3.28166136571939E-29,114.655213562376,-58.1865535552011));
#481=CARTESIAN_POINT('',(-3.28166136571939E-29,114.655213562376,-58.1865535552011));
#482=CARTESIAN_POINT('',(0.8,114.655213562376,-58.1865535552011));
#483=CARTESIAN_POINT('Origin',(0.8,104.772069034456,-97.0311063970311));
#484=CARTESIAN_POINT('Origin',(0.,104.772069034456,-97.0311063970311));
#485=UNCERTAINTY_MEASURE_WITH_UNIT(LENGTH_MEASURE(0.01),#489,
'DISTANCE_ACCURACY_VALUE',
'Maximum model space distance between geometric entities at asserted c
onnectivities');
#486=UNCERTAINTY_MEASURE_WITH_UNIT(LENGTH_MEASURE(0.01),#489,
'DISTANCE_ACCURACY_VALUE',
'Maximum model space distance between geometric entities at asserted c
onnectivities');
#487=(
GEOMETRIC_REPRESENTATION_CONTEXT(3)
GLOBAL_UNCERTAINTY_ASSIGNED_CONTEXT((#485))
GLOBAL_UNIT_ASSIGNED_CONTEXT((#489,#491,#492))
REPRESENTATION_CONTEXT('','3D')
);
#488=(
GEOMETRIC_REPRESENTATION_CONTEXT(3)
GLOBAL_UNCERTAINTY_ASSIGNED_CONTEXT((#486))
GLOBAL_UNIT_ASSIGNED_CONTEXT((#489,#491,#492))
REPRESENTATION_CONTEXT('','3D')
);
#489=(
LENGTH_UNIT()
NAMED_UNIT(*)
SI_UNIT(.MILLI.,.METRE.)
);
#490=(
LENGTH_UNIT()
NAMED_UNIT(*)
SI_UNIT($,.METRE.)
);
#491=(
NAMED_UNIT(*)
PLANE_ANGLE_UNIT()
SI_UNIT($,.RADIAN.)
);
#492=(
NAMED_UNIT(*)
SI_UNIT($,.STERADIAN.)
SOLID_ANGLE_UNIT()
);
#493=SHAPE_DEFINITION_REPRESENTATION(#494,#495);
#494=PRODUCT_DEFINITION_SHAPE('',$,#497);
#495=SHAPE_REPRESENTATION('',(#301),#487);
#496=PRODUCT_DEFINITION_CONTEXT('part definition',#501,'design');
#497=PRODUCT_DEFINITION('(Non enregistr\X\E9)','(Non enregistr\X\E9)',#498,
#496);
#498=PRODUCT_DEFINITION_FORMATION('',$,#503);
#499=PRODUCT_RELATED_PRODUCT_CATEGORY('(Non enregistr\X\E9)',
'(Non enregistr\X\E9)',(#503));
#500=APPLICATION_PROTOCOL_DEFINITION('international standard',
'automotive_design',2009,#501);
#501=APPLICATION_CONTEXT(
'Core Data for Automotive Mechanical Design Process');
#502=PRODUCT_CONTEXT('part definition',#501,'mechanical');
#503=PRODUCT('(Non enregistr\X\E9)','(Non enregistr\X\E9)',$,(#502));
#504=PRESENTATION_STYLE_ASSIGNMENT((#505));
#505=SURFACE_STYLE_USAGE(.BOTH.,#506);
#506=SURFACE_SIDE_STYLE('',(#507));
#507=SURFACE_STYLE_FILL_AREA(#508);
#508=FILL_AREA_STYLE('Acier - Satin\X\E9',(#509));
#509=FILL_AREA_STYLE_COLOUR('Acier - Satin\X\E9',#510);
#510=COLOUR_RGB('Acier - Satin\X\E9',0.627450980392157,0.627450980392157,
0.627450980392157);
ENDSEC;
END-ISO-10303-21;
