  0
SECTION
  2
HEADER
  9
$ACADVER
  1
AC1015
  9
$ACADMAINTVER
 70
     6
  9
$DWGCODEPAGE
  3
ANSI_1252
  9
$INSBASE
 10
0.0
 20
0.0
 30
0.0
  9
$EXTMIN
 10
-7.3639424246
 20
-48.5926092155
 30
0.0
  9
$EXTMAX
 10
167.4827425601
 20
15.03117366
 30
0.0
  9
$LIMMIN
 10
0.0
 20
0.0
  9
$LIMMAX
 10
420.0
 20
297.0
  9
$ORTHOMODE
 70
     0
  9
$REGENMODE
 70
     1
  9
$FILLMODE
 70
     1
  9
$QTEXTMODE
 70
     0
  9
$MIRRTEXT
 70
     1
  9
$LTSCALE
 40
1.0
  9
$ATTMODE
 70
     1
  9
$TEXTSIZE
 40
3.5
  9
$TRACEWID
 40
1.0
  9
$TEXTSTYLE
  7
Standard
  9
$CLAYER
  8
0
  9
$CELTYPE
  6
ByLayer
  9
$CECOLOR
 62
   256
  9
$CELTSCALE
 40
1.0
  9
$DISPSILH
 70
     0
  9
$DIMSCALE
 40
1.0
  9
$DIMASZ
 40
3.302
  9
$DIMEXO
 40
0.0
  9
$DIMDLI
 40
3.75
  9
$DIMRND
 40
0.0
  9
$DIMDLE
 40
0.0
  9
$DIMEXE
 40
1.0
  9
$DIMTP
 40
0.0
  9
$DIMTM
 40
0.0
  9
$DIMTXT
 40
3.5
  9
$DIMCEN
 40
2.5
  9
$DIMTSZ
 40
0.0
  9
$DIMTOL
 70
     0
  9
$DIMLIM
 70
     0
  9
$DIMTIH
 70
     1
  9
$DIMTOH
 70
     1
  9
$DIMSE1
 70
     0
  9
$DIMSE2
 70
     0
  9
$DIMTAD
 70
     1
  9
$DIMZIN
 70
     1
  9
$DIMBLK
  1

  9
$DIMASO
 70
     1
  9
$DIMSHO
 70
     1
  9
$DIMPOST
  1

  9
$DIMAPOST
  1

  9
$DIMALT
 70
     0
  9
$DIMALTD
 70
     3
  9
$DIMALTF
 40
0.0393700787
  9
$DIMLFAC
 40
1.0
  9
$DIMTOFL
 70
     1
  9
$DIMTVP
 40
0.0
  9
$DIMTIX
 70
     0
  9
$DIMSOXD
 70
     0
  9
$DIMSAH
 70
     0
  9
$DIMBLK1
  1

  9
$DIMBLK2
  1

  9
$DIMSTYLE
  2
ISO-25
  9
$DIMCLRD
 70
     0
  9
$DIMCLRE
 70
     0
  9
$DIMCLRT
 70
     0
  9
$DIMTFAC
 40
1.0
  9
$DIMGAP
 40
1.524
  9
$DIMJUST
 70
     0
  9
$DIMSD1
 70
     0
  9
$DIMSD2
 70
     0
  9
$DIMTOLJ
 70
     0
  9
$DIMTZIN
 70
     1
  9
$DIMALTZ
 70
     0
  9
$DIMALTTZ
 70
     0
  9
$DIMUPT
 70
     0
  9
$DIMDEC
 70
     2
  9
$DIMTDEC
 70
     2
  9
$DIMALTU
 70
     2
  9
$DIMALTTD
 70
     3
  9
$DIMTXSTY
  7
Standard
  9
$DIMAUNIT
 70
     0
  9
$DIMADEC
 70
     2
  9
$DIMALTRND
 40
0.0
  9
$DIMAZIN
 70
     0
  9
$DIMDSEP
 70
    44
  9
$DIMATFIT
 70
     3
  9
$DIMFRAC
 70
     0
  9
$DIMLDRBLK
  1

  9
$DIMLUNIT
 70
     2
  9
$DIMLWD
 70
    -2
  9
$DIMLWE
 70
    -2
  9
$DIMTMOVE
 70
     0
  9
$LUNITS
 70
     2
  9
$LUPREC
 70
     2
  9
$SKETCHINC
 40
1.0
  9
$FILLETRAD
 40
10.0
  9
$AUNITS
 70
     0
  9
$AUPREC
 70
     2
  9
$MENU
  1
.
  9
$ELEVATION
 40
0.0
  9
$PELEVATION
 40
0.0
  9
$THICKNESS
 40
0.0
  9
$LIMCHECK
 70
     0
  9
$CHAMFERA
 40
0.0
  9
$CHAMFERB
 40
0.0
  9
$CHAMFERC
 40
0.0
  9
$CHAMFERD
 40
0.0
  9
$SKPOLY
 70
     0
  9
$TDCREATE
 40
2460002.971315695
  9
$TDUCREATE
 40
2460002.929649028
  9
$TDUPDATE
 40
2460002.97137809
  9
$TDUUPDATE
 40
2460002.929711424
  9
$TDINDWG
 40
0.0000000116
  9
$TDUSRTIMER
 40
0.0000000116
  9
$USRTIMER
 70
     1
  9
$ANGBASE
 50
0.0
  9
$ANGDIR
 70
     0
  9
$PDMODE
 70
     0
  9
$PDSIZE
 40
-1.0
  9
$PLINEWID
 40
0.0
  9
$SPLFRAME
 70
     0
  9
$SPLINETYPE
 70
     6
  9
$SPLINESEGS
 70
     8
  9
$HANDSEED
  5
186
  9
$SURFTAB1
 70
     6
  9
$SURFTAB2
 70
     6
  9
$SURFTYPE
 70
     6
  9
$SURFU
 70
     6
  9
$SURFV
 70
     6
  9
$UCSBASE
  2

  9
$UCSNAME
  2

  9
$UCSORG
 10
0.0
 20
0.0
 30
0.0
  9
$UCSXDIR
 10
1.0
 20
0.0
 30
0.0
  9
$UCSYDIR
 10
0.0
 20
1.0
 30
0.0
  9
$UCSORTHOREF
  2

  9
$UCSORTHOVIEW
 70
     0
  9
$UCSORGTOP
 10
0.0
 20
0.0
 30
0.0
  9
$UCSORGBOTTOM
 10
0.0
 20
0.0
 30
0.0
  9
$UCSORGLEFT
 10
0.0
 20
0.0
 30
0.0
  9
$UCSORGRIGHT
 10
0.0
 20
0.0
 30
0.0
  9
$UCSORGFRONT
 10
0.0
 20
0.0
 30
0.0
  9
$UCSORGBACK
 10
0.0
 20
0.0
 30
0.0
  9
$PUCSBASE
  2

  9
$PUCSNAME
  2

  9
$PUCSORG
 10
0.0
 20
0.0
 30
0.0
  9
$PUCSXDIR
 10
1.0
 20
0.0
 30
0.0
  9
$PUCSYDIR
 10
0.0
 20
1.0
 30
0.0
  9
$PUCSORTHOREF
  2

  9
$PUCSORTHOVIEW
 70
     0
  9
$PUCSORGTOP
 10
0.0
 20
0.0
 30
0.0
  9
$PUCSORGBOTTOM
 10
0.0
 20
0.0
 30
0.0
  9
$PUCSORGLEFT
 10
0.0
 20
0.0
 30
0.0
  9
$PUCSORGRIGHT
 10
0.0
 20
0.0
 30
0.0
  9
$PUCSORGFRONT
 10
0.0
 20
0.0
 30
0.0
  9
$PUCSORGBACK
 10
0.0
 20
0.0
 30
0.0
  9
$USERI1
 70
     0
  9
$USERI2
 70
     0
  9
$USERI3
 70
     0
  9
$USERI4
 70
     0
  9
$USERI5
 70
     0
  9
$USERR1
 40
0.0
  9
$USERR2
 40
0.0
  9
$USERR3
 40
0.0
  9
$USERR4
 40
0.0
  9
$USERR5
 40
0.0
  9
$WORLDVIEW
 70
     1
  9
$SHADEDGE
 70
     3
  9
$SHADEDIF
 70
    70
  9
$TILEMODE
 70
     1
  9
$MAXACTVP
 70
    64
  9
$PINSBASE
 10
0.0
 20
0.0
 30
0.0
  9
$PLIMCHECK
 70
     0
  9
$PEXTMIN
 10
1.0000000000E+20
 20
1.0000000000E+20
 30
1.0000000000E+20
  9
$PEXTMAX
 10
-1.0000000000E+20
 20
-1.0000000000E+20
 30
-1.0000000000E+20
  9
$PLIMMIN
 10
0.0
 20
0.0
  9
$PLIMMAX
 10
420.0
 20
297.0
  9
$UNITMODE
 70
     0
  9
$VISRETAIN
 70
     1
  9
$PLINEGEN
 70
     0
  9
$PSLTSCALE
 70
     1
  9
$TREEDEPTH
 70
  3020
  9
$CMLSTYLE
  2
Standard
  9
$CMLJUST
 70
     0
  9
$CMLSCALE
 40
20.0
  9
$PROXYGRAPHICS
 70
     1
  9
$MEASUREMENT
 70
     1
  9
$CELWEIGHT
370
    -1
  9
$ENDCAPS
280
     0
  9
$JOINSTYLE
280
     0
  9
$LWDISPLAY
290
     1
  9
$INSUNITS
 70
     4
  9
$HYPERLINKBASE
  1

  9
$STYLESHEET
  1

  9
$XEDIT
290
     1
  9
$CEPSNTYPE
380
     0
  9
$PSTYLEMODE
290
     1
  9
$FINGERPRINTGUID
  2
{1a66671a-14c8-43e3-87c7-6d5eca8f3617}
  9
$VERSIONGUID
  2
{FAEB1C32-E019-11D5-929B-00C0DF256EC4}
  9
$EXTNAMES
290
     1
  9
$PSVPSCALE
 40
0.0
  9
$OLESTARTUP
290
     0
  0
ENDSEC
  0
SECTION
  2
CLASSES
  0
CLASS
  1
ACDBDICTIONARYWDFLT
  2
AcDbDictionaryWithDefault
  3
ObjectDBX Classes
 90
        0
280
     0
281
     0
  0
CLASS
  1
VISUALSTYLE
  2
AcDbVisualStyle
  3
ObjectDBX Classes
 90
     4095
280
     0
281
     0
  0
CLASS
  1
MATERIAL
  2
AcDbMaterial
  3
ObjectDBX Classes
 90
     1153
280
     0
281
     0
  0
CLASS
  1
SCALE
  2
AcDbScale
  3
ObjectDBX Classes
 90
     1153
280
     0
281
     0
  0
CLASS
  1
TABLESTYLE
  2
AcDbTableStyle
  3
ObjectDBX Classes
 90
     4095
280
     0
281
     0
  0
CLASS
  1
MLEADERSTYLE
  2
AcDbMLeaderStyle
  3
ACDB_MLEADERSTYLE_CLASS
 90
     4095
280
     0
281
     0
  0
CLASS
  1
SUN
  2
AcDbSun
  3
SCENEOE
 90
     1153
280
     0
281
     0
  0
CLASS
  1
ACDBPLACEHOLDER
  2
AcDbPlaceHolder
  3
ObjectDBX Classes
 90
        0
280
     0
281
     0
  0
CLASS
  1
LAYOUT
  2
AcDbLayout
  3
ObjectDBX Classes
 90
        0
280
     0
281
     0
  0
ENDSEC
  0
SECTION
  2
TABLES
  0
TABLE
  2
VPORT
  5
8
330
0
100
AcDbSymbolTable
 70
     1
  0
VPORT
  5
29
330
8
100
AcDbSymbolTableRecord
100
AcDbViewportTableRecord
  2
*Active
 70
     0
 10
0.0
 20
0.0
 11
1.0
 21
1.0
 12
80.0594000678
 22
-16.7807177778
 13
0.0
 23
0.0
 14
10.0
 24
10.0
 15
10.0
 25
10.0
 16
0.0
 26
0.0
 36
1.0
 17
0.0
 27
0.0
 37
0.0
 40
64.896258533
 41
2.7481340637
 42
50.0
 43
0.0
 44
0.0
 50
0.0
 51
0.0
 71
     0
 72
   100
 73
     1
 74
     3
 75
     0
 76
     0
 77
     0
 78
     0
281
     0
 65
     1
110
0.0
120
0.0
130
0.0
111
1.0
121
0.0
131
0.0
112
0.0
122
1.0
132
0.0
 79
     0
146
0.0
  0
ENDTAB
  0
TABLE
  2
LTYPE
  5
5
330
0
100
AcDbSymbolTable
 70
     6
  0
LTYPE
  5
14
330
5
100
AcDbSymbolTableRecord
100
AcDbLinetypeTableRecord
  2
ByBlock
 70
     0
  3

 72
    65
 73
     0
 40
0.0
  0
LTYPE
  5
15
330
5
100
AcDbSymbolTableRecord
100
AcDbLinetypeTableRecord
  2
ByLayer
 70
     0
  3

 72
    65
 73
     0
 40
0.0
  0
LTYPE
  5
16
330
5
100
AcDbSymbolTableRecord
100
AcDbLinetypeTableRecord
  2
Continuous
 70
     0
  3
Solid line
 72
    65
 73
     0
 40
0.0
  0
LTYPE
  5
6E
330
5
100
AcDbSymbolTableRecord
100
AcDbLinetypeTableRecord
  2
HIDDEN
 70
     0
  3
Hidden __ __ __ __ __ __ __ __ __ __ __ __ __ __
 72
    65
 73
     2
 40
1.905
 49
1.27
 74
     0
 49
-0.635
 74
     0
  0
LTYPE
  5
6F
330
5
100
AcDbSymbolTableRecord
100
AcDbLinetypeTableRecord
  2
PHANTOM
 70
     0
  3
Phantom ______  __  __  ______  __  __  ______
 72
    65
 73
     6
 40
12.7
 49
6.35
 74
     0
 49
-1.27
 74
     0
 49
1.27
 74
     0
 49
-1.27
 74
     0
 49
1.27
 74
     0
 49
-1.27
 74
     0
  0
LTYPE
  5
70
330
5
100
AcDbSymbolTableRecord
100
AcDbLinetypeTableRecord
  2
CENTER
 70
     0
  3
Center ____ _ ____ _ ____ _ ____ _ ____ _ ____
 72
    65
 73
     4
 40
10.16
 49
6.35
 74
     0
 49
-1.27
 74
     0
 49
1.27
 74
     0
 49
-1.27
 74
     0
  0
LTYPE
  5
71
330
5
100
AcDbSymbolTableRecord
100
AcDbLinetypeTableRecord
  2
CENTERX2
 70
     0
  3
Center (2x) ________  __  ________  __  _____
 72
    65
 73
     4
 40
20.32
 49
12.7
 74
     0
 49
-2.54
 74
     0
 49
2.54
 74
     0
 49
-2.54
 74
     0
  0
LTYPE
  5
72
330
5
100
AcDbSymbolTableRecord
100
AcDbLinetypeTableRecord
  2
DOT2
 70
     0
  3
Dot (.5x) ........................................
 72
    65
 73
     2
 40
0.635
 49
0.0
 74
     0
 49
-0.635
 74
     0
  0
ENDTAB
  0
TABLE
  2
LAYER
  5
2
330
0
100
AcDbSymbolTable
 70
     1
  0
LAYER
  5
10
330
2
100
AcDbSymbolTableRecord
100
AcDbLayerTableRecord
  2
0
 70
     0
 62
     7
  6
Continuous
370
    -3
390
F
  0
ENDTAB
  0
TABLE
  2
STYLE
  5
3
330
0
100
AcDbSymbolTable
 70
     1
  0
STYLE
  5
11
330
3
100
AcDbSymbolTableRecord
100
AcDbTextStyleTableRecord
  2
Standard
 70
     0
 40
0.0
 41
1.0
 50
0.0
 71
     0
 42
3.5
  3
txt
  4

  0
ENDTAB
  0
TABLE
  2
VIEW
  5
6
330
0
100
AcDbSymbolTable
 70
     0
  0
ENDTAB
  0
TABLE
  2
UCS
  5
7
330
0
100
AcDbSymbolTable
 70
     0
  0
ENDTAB
  0
TABLE
  2
APPID
  5
9
330
0
100
AcDbSymbolTable
 70
     1
  0
APPID
  5
12
330
9
100
AcDbSymbolTableRecord
100
AcDbRegAppTableRecord
  2
ACAD
 70
     0
  0
ENDTAB
  0
TABLE
  2
DIMSTYLE
  5
A
330
0
100
AcDbSymbolTable
 70
     1
100
AcDbDimStyleTable
  0
DIMSTYLE
105
27
330
A
100
AcDbSymbolTableRecord
100
AcDbDimStyleTableRecord
  2
ISO-25
 70
     0
 41
2.5
 42
0.625
 43
3.75
 44
1.25
 73
     0
 74
     0
 77
     1
 78
     8
140
2.5
141
2.5
143
0.0393700787
147
0.625
171
     3
172
     1
178
     0
271
     2
272
     2
274
     3
278
    44
283
     0
284
     8
340
11
  0
ENDTAB
  0
TABLE
  2
BLOCK_RECORD
  5
1
330
0
100
AcDbSymbolTable
 70
     1
  0
BLOCK_RECORD
  5
1F
330
1
100
AcDbSymbolTableRecord
100
AcDbBlockTableRecord
  2
*Model_Space
340
22
  0
BLOCK_RECORD
  5
1B
330
1
100
AcDbSymbolTableRecord
100
AcDbBlockTableRecord
  2
*Paper_Space
340
1E
  0
BLOCK_RECORD
  5
23
330
1
100
AcDbSymbolTableRecord
100
AcDbBlockTableRecord
  2
*Paper_Space0
340
26
  0
ENDTAB
  0
ENDSEC
  0
SECTION
  2
BLOCKS
  0
BLOCK
  5
20
330
1F
100
AcDbEntity
  8
0
100
AcDbBlockBegin
  2
*Model_Space
 70
     0
 10
0.0
 20
0.0
 30
0.0
  3
*Model_Space
  1

  0
ENDBLK
  5
21
330
1F
100
AcDbEntity
  8
0
100
AcDbBlockEnd
  0
BLOCK
  5
1C
330
1B
100
AcDbEntity
 67
     1
  8
0
100
AcDbBlockBegin
  2
*Paper_Space
 70
     0
 10
0.0
 20
0.0
 30
0.0
  3
*Paper_Space
  1

  0
ENDBLK
  5
1D
330
1B
100
AcDbEntity
 67
     1
  8
0
100
AcDbBlockEnd
  0
BLOCK
  5
24
330
23
100
AcDbEntity
  8
0
100
AcDbBlockBegin
  2
*Paper_Space0
 70
     0
 10
0.0
 20
0.0
 30
0.0
  3
*Paper_Space0
  1

  0
ENDBLK
  5
25
330
23
100
AcDbEntity
  8
0
100
AcDbBlockEnd
  0
ENDSEC
  0
SECTION
  2
ENTITIES
  0
SPLINE
  5
7B
330
1F
100
AcDbEntity
  8
0
  6
Continuous
 62
     7
370
    25
100
AcDbSpline
210
0.0
220
0.0
230
1.0
 70
     8
 71
     3
 72
    10
 73
     6
 74
     0
 42
0.00000001
 43
0.00000001
 40
0.0
 40
0.0
 40
0.0
 40
0.0
 40
0.3854884393956927
 40
0.8507809134699729
 40
1.0
 40
1.0
 40
1.0
 40
1.0
 10
47.11347775893906
 20
0.4618687683337203
 30
0.0
 10
46.94871817347695
 20
0.3543736848911315
 30
0.0
 10
46.58509038001539
 20
0.1171298250540256
 30
0.0
 10
46.15827340603484
 20
-0.2429002093615566
 30
0.0
 10
45.90108234621855
 20
-0.5174949071603575
 30
0.0
 10
45.8386297945176
 20
-0.5841735062272826
 30
0.0
  0
SPLINE
  5
7C
330
1F
100
AcDbEntity
  8
0
  6
Continuous
 62
     7
370
    25
100
AcDbSpline
210
0.0
220
0.0
230
1.0
 70
     8
 71
     3
 72
    10
 73
     6
 74
     0
 42
0.00000001
 43
0.00000001
 40
0.0
 40
0.0
 40
0.0
 40
0.0
 40
0.0610964574750507
 40
0.8808035991275021
 40
1.0
 40
1.0
 40
1.0
 40
1.0
 10
41.35167050496666
 20
-20.82166487161859
 30
0.0
 10
41.3584277166458
 20
-20.84083039645598
 30
0.0
 10
41.45584377991734
 20
-21.1171322305325
 30
0.0
 10
41.58955283013005
 20
-21.39371217815859
 30
0.0
 10
41.73401842921054
 20
-21.61394960229342
 30
0.0
 10
41.7523587364736
 20
-21.64190935226273
 30
0.0
  0
LWPOLYLINE
  5
81
330
1F
100
AcDbEntity
  8
0
  6
Continuous
 62
     7
370
    25
100
AcDbPolyline
 90
       22
 70
   128
 43
0.0
 10
157.5913900282
 20
-40.6954239956
 10
157.7391136648
 20
-39.5687819824
 10
157.9483404239
 20
-38.4319725752
 10
158.2162408723
 20
-37.3003691713
 10
158.5391921161
 20
-36.1892747654
 10
158.9128267939
 20
-35.1137150032
 10
159.3320921374
 20
-34.0882349854
 10
159.7913183022
 20
-33.1267025701
 10
160.2842950422
 20
-32.2421208337
 10
160.8043556927
 20
-31.4464522267
 10
161.3444673255
 20
-30.7504568021
 10
161.8973258574
 20
-30.163546704
 10
162.4554548252
 20
-29.6936588846
 10
163.0113064919
 20
-29.3471477707
 10
163.5573639174
 20
-29.1286993305
 10
164.0862426118
 20
-29.0412677046
 10
164.590790398
 20
-29.0860352556
 10
165.0641841326
 20
-29.2623965792
 10
165.5000219777
 20
-29.5679666912
 10
165.8924099739
 20
-29.9986132798
 10
166.2360417467
 20
-30.5485125888
 10
166.3398245348
 20
-30.7590016167
  0
LWPOLYLINE
  5
82
330
1F
100
AcDbEntity
  8
0
  6
Continuous
 62
     7
370
    25
100
AcDbPolyline
 90
       17
 70
   128
 43
0.0
 10
162.255087189
 20
-47.8365977887
 10
162.1186578012
 20
-47.9402180354
 10
161.5628061344
 20
-48.2867291494
 10
161.0167487089
 20
-48.5051775896
 10
160.4878700145
 20
-48.5926092155
 10
159.9833222284
 20
-48.5478416645
 10
159.5099284937
 20
-48.3714803408
 10
159.0740906487
 20
-48.0659102289
 10
158.6817026525
 20
-47.6352636403
 10
158.3380708796
 20
-47.0853643313
 10
158.0478423603
 20
-46.4236487467
 10
157.8149419374
 20
-45.6590654547
 10
157.6425191896
 20
-44.8019541327
 10
157.5329058387
 20
-43.8639057409
 10
157.4875842174
 20
-42.8576057746
 10
157.5071672227
 20
-41.7966627145
 10
157.5913900282
 20
-40.6954239956
  0
LWPOLYLINE
  5
83
330
1F
100
AcDbEntity
  8
0
  6
Continuous
 62
     7
370
    25
100
AcDbPolyline
 90
       53
 70
   128
 43
0.0
 10
158.9381839881
 20
-40.717396731
 10
159.0773681778
 20
-39.664148618
 10
159.276148798
 20
-38.60160594
 10
159.5316271795
 20
-37.5452629619
 10
159.8400778723
 20
-36.5105235429
 10
160.1970029708
 20
-35.512476514
 10
160.5971977032
 20
-34.5656756481
 10
161.0348263292
 20
-33.6839274338
 10
161.503507238
 20
-32.8800897457
 10
161.9964060065
 20
-32.1658843474
 10
162.5063350608
 20
-31.5517259618
 10
163.0258584871
 20
-31.0465704011
 10
163.5474004638
 20
-30.6577839709
 10
164.0633557346
 20
-30.3910360528
 10
164.5662005098
 20
-30.2502164322
 10
165.0486021803
 20
-30.2373785762
 10
165.5035262434
 20
-30.3527096897
 10
165.9243388819
 20
-30.5945279853
 10
166.3049037
 20
-30.9593072077
 10
166.6396712056
 20
-31.4417280545
 10
166.9237597346
 20
-32.0347557434
 10
167.1530266366
 20
-32.7297425954
 10
167.324128684
 20
-33.5165541371
 10
167.4345708235
 20
-34.3837168845
 10
167.4827425601
 20
-35.3185856521
 10
167.4679414414
 20
-36.3075279481
 10
167.3903833011
 20
-37.336122767
 10
167.2511991113
 20
-38.38937088
 10
167.0524184912
 20
-39.451913558
 10
166.7969401097
 20
-40.5082565361
 10
166.4884894168
 20
-41.5429959551
 10
166.1315643184
 20
-42.541042984
 10
165.731369586
 20
-43.48784385
 10
165.29374096
 20
-44.3695920642
 10
164.8250600512
 20
-45.1734297523
 10
164.3321612827
 20
-45.8876351506
 10
163.8222322284
 20
-46.5017935363
 10
163.3027088021
 20
-47.006949097
 10
162.7811668254
 20
-47.3957355272
 10
162.2652115546
 20
-47.6624834452
 10
161.7623667793
 20
-47.8033030658
 10
161.2799651089
 20
-47.8161409218
 10
160.8250410457
 20
-47.7008098083
 10
160.4042284072
 20
-47.4589915128
 10
160.0236635892
 20
-47.0942122903
 10
159.6888960836
 20
-46.6117914435
 10
159.4048075546
 20
-46.0187637546
 10
159.1755406525
 20
-45.3237769026
 10
159.0044386052
 20
-44.5369653609
 10
158.8939964657
 20
-43.6698026135
 10
158.8458247291
 20
-42.7349338459
 10
158.8606258478
 20
-41.7459915499
 10
158.9381839881
 20
-40.717396731
  0
SPLINE
  5
85
330
1F
100
AcDbEntity
  8
0
  6
Continuous
 62
     7
370
    25
100
AcDbSpline
210
0.0
220
0.0
230
1.0
 70
     8
 71
     3
 72
    36
 73
    32
 74
     0
 42
0.00000001
 43
0.00000001
 40
0.0
 40
0.0
 40
0.0
 40
0.0
 40
0.0624999999999977
 40
0.0624999999999977
 40
0.1249999999999953
 40
0.1249999999999953
 40
0.187499999999993
 40
0.187499999999993
 40
0.2499999999999907
 40
0.2499999999999907
 40
0.3749999999999922
 40
0.3749999999999922
 40
0.437499999999993
 40
0.437499999999993
 40
0.4999999999999938
 40
0.4999999999999938
 40
0.5624999999999946
 40
0.5624999999999946
 40
0.6249999999999953
 40
0.6249999999999953
 40
0.6874999999999961
 40
0.6874999999999961
 40
0.7499999999999969
 40
0.7499999999999969
 40
0.8124999999999977
 40
0.8124999999999977
 40
0.8749999999999984
 40
0.8749999999999984
 40
0.9374999999999992
 40
0.9374999999999992
 40
1.0
 40
1.0
 40
1.0
 40
1.0
 10
106.3509543099276
 20
-25.35086883691395
 30
0.0
 10
106.5258689298491
 20
-25.39270612321085
 30
0.0
 10
106.6927452987087
 20
-25.4538499590635
 30
0.0
 10
107.011562518126
 20
-25.61281062735878
 30
0.0
 10
107.1650599860634
 20
-25.71207413128874
 30
0.0
 10
107.4476608740541
 20
-25.941098245586
 30
0.0
 10
107.577123196342
 20
-26.07038784144322
 30
0.0
 10
107.8143238226013
 20
-26.35785791561596
 30
0.0
 10
107.9216953727104
 20
-26.51634731002042
 30
0.0
 10
108.2002463790658
 20
-27.01536310054806
 30
0.0
 10
108.3349087766521
 20
-27.39255184700047
 30
0.0
 10
108.4489530119619
 20
-27.97036899713898
 30
0.0
 10
108.4731055874248
 20
-28.16833486544635
 30
0.0
 10
108.4917452857106
 20
-28.56094617544381
 30
0.0
 10
108.4864817887954
 20
-28.75359876568039
 30
0.0
 10
108.4474264202704
 20
-29.13158337784531
 30
0.0
 10
108.4129712154423
 20
-29.31828796328242
 30
0.0
 10
108.3175988875178
 20
-29.66797105546884
 30
0.0
 10
108.2567139679043
 20
-29.83291158884363
 30
0.0
 10
108.1073559918005
 20
-30.14319285541765
 30
0.0
 10
108.0200495428172
 20
-30.28556541196613
 30
0.0
 10
107.823460532181
 20
-30.54055290771722
 30
0.0
 10
107.7125176625594
 20
-30.6551106405756
 30
0.0
 10
107.4702860476767
 20
-30.85148147098637
 30
0.0
 10
107.340277294631
 20
-30.93277156181929
 30
0.0
 10
107.0607738901361
 20
-31.06281198217031
 30
0.0
 10
106.9097167721427
 20
-31.11157460256232
 30
0.0
 10
106.59812894111
 20
-31.17202168253347
 30
0.0
 10
106.436571838693
 20
-31.18454391394611
 30
0.0
 10
106.1004362057264
 20
-31.17363102299238
 30
0.0
 10
105.926498976126
 20
-31.14985799022429
 30
0.0
 10
105.7515729165676
 20
-31.10801796771607
 30
0.0
  0
LWPOLYLINE
  5
87
330
1F
100
AcDbEntity
  8
0
  6
Continuous
 62
     7
370
    25
100
AcDbPolyline
 90
       15
 70
   128
 43
0.0
 10
81.7885890301
 20
-19.4758727457
 10
82.0894276149
 20
-18.3605321655
 10
82.4422147786
 20
-17.2746818631
 10
82.8422257217
 20
-16.2328643875
 10
83.2841031877
 20
-15.2490325666
 10
83.7619292107
 20
-14.3363626388
 10
84.2693043742
 20
-13.5070777877
 10
84.7994335165
 20
-12.7722844392
 10
85.3452167369
 20
-12.1418235155
 10
85.8993444833
 20
-11.6241386383
 10
86.4543954473
 20
-11.2261630449
 10
87.0029359559
 20
-10.9532267331
 10
87.5376195292
 20
-10.8089850776
 10
88.0512852701
 20
-10.7953698746
 10
88.294530097
 20
-10.8368216422
  0
LWPOLYLINE
  5
88
330
1F
100
AcDbEntity
  8
0
  6
Continuous
 62
     7
370
    25
100
AcDbPolyline
 90
       10
 70
   128
 43
0.0
 10
83.6420268619
 20
-30.2881509965
 10
83.4614975109
 20
-30.235232194
 10
83.005256383
 20
-30.0056277475
 10
82.5886983448
 20
-29.6495534277
 10
82.2174022647
 20
-29.1717780583
 10
81.8963408276
 20
-28.5787003774
 10
81.6298139373
 20
-27.8782633412
 10
81.4213911286
 20
-27.0798477458
 10
81.2738637615
 20
-26.194146592
 10
81.1892076367
 20
-25.2330218765
  0
LWPOLYLINE
  5
8A
330
1F
100
AcDbEntity
  8
0
  6
Continuous
 62
     7
370
    25
100
AcDbPolyline
 90
        3
 70
   128
 43
0.0
 10
107.1787699773
 20
-30.5370725742
 10
107.7324763912
 20
-30.6050417103
 10
107.7794803741
 20
-30.6048798445
  0
SPLINE
  5
8E
330
1F
100
AcDbEntity
  8
0
  6
Continuous
 62
     7
370
    25
100
AcDbSpline
210
0.0
220
0.0
230
1.0
 70
     8
 71
     3
 72
    36
 73
    32
 74
     0
 42
0.00000001
 43
0.00000001
 40
0.0
 40
0.0
 40
0.0
 40
0.0
 40
0.1249999999999963
 40
0.1249999999999963
 40
0.1874999999999964
 40
0.1874999999999964
 40
0.2499999999999966
 40
0.2499999999999966
 40
0.3124999999999968
 40
0.3124999999999968
 40
0.3749999999999971
 40
0.3749999999999971
 40
0.4374999999999973
 40
0.4374999999999973
 40
0.4999999999999976
 40
0.4999999999999976
 40
0.5624999999999978
 40
0.5624999999999978
 40
0.624999999999998
 40
0.624999999999998
 40
0.6874999999999983
 40
0.6874999999999983
 40
0.7499999999999987
 40
0.7499999999999987
 40
0.8124999999999991
 40
0.8124999999999991
 40
0.8749999999999994
 40
0.8749999999999994
 40
0.9374999999999998
 40
0.9374999999999998
 40
1.0
 40
1.0
 40
1.0
 40
1.0
 10
79.53129891366038
 20
-25.57730122935094
 30
0.0
 10
79.22311729524246
 20
-25.44968174149363
 30
0.0
 10
78.93156106347489
 20
-25.27204159774242
 30
0.0
 10
78.52853015762322
 20
-24.93458008261734
 30
0.0
 10
78.40326941099492
 20
-24.81281905860139
 30
0.0
 10
78.17094836841972
 20
-24.55094493393286
 30
0.0
 10
78.06313979071581
 20
-24.40964034962618
 30
0.0
 10
77.87116238970344
 20
-24.11271615079248
 30
0.0
 10
77.78781873257742
 20
-23.9587959645704
 30
0.0
 10
77.6466307320916
 20
-23.63976991741184
 30
0.0
 10
77.5884074829136
 20
-23.4730163641471
 30
0.0
 10
77.50202783057728
 20
-23.13556582871988
 30
0.0
 10
77.47381596216891
 20
-22.96596006185081
 30
0.0
 10
77.44734032250759
 20
-22.62479337921407
 30
0.0
 10
77.44934959857204
 20
-22.45143559727755
 30
0.0
 10
77.48445373326194
 20
-22.11297805570458
 30
0.0
 10
77.51711562558452
 20
-21.94799995053497
 30
0.0
 10
77.61207275708239
 20
-21.62647345057873
 30
0.0
 10
77.6752327953256
 20
-21.46861392413091
 30
0.0
 10
77.82697499313562
 20
-21.17263568147764
 30
0.0
 10
77.91555838417038
 20
-21.03350016034025
 30
0.0
 10
78.11736494364597
 20
-20.77297569645098
 30
0.0
 10
78.2313968185235
 20
-20.65124201782509
 30
0.0
 10
78.4752300837349
 20
-20.43499476479577
 30
0.0
 10
78.60584607561442
 20
-20.33918214052854
 30
0.0
 10
78.88391681990183
 20
-20.17267271125674
 30
0.0
 10
79.03160130495378
 20
-20.10230317915116
 30
0.0
 10
79.3319490002081
 20
-19.99279817937977
 30
0.0
 10
79.48597038455011
 20
-19.95273968862324
 30
0.0
 10
79.8012992044953
 20
-19.90302113841403
 30
0.0
 10
79.96229768206356
 20
-19.89368701963846
 30
0.0
 10
80.12229693759761
 20
-19.90067563251294
 30
0.0
  0
LWPOLYLINE
  5
8F
330
1F
100
AcDbEntity
  8
0
  6
Continuous
 62
     7
370
    25
100
AcDbPolyline
 90
       22
 70
   128
 43
0.0
 10
80.1222969376
 20
-19.9006756325
 10
80.420611342
 20
-18.6402522554
 10
80.7737830791
 20
-17.399341987
 10
81.1780200454
 20
-16.191268827
 10
81.6289818358
 20
-15.029004194
 10
82.1218263478
 20
-13.9250276478
 10
82.6512617723
 20
-12.8911928926
 10
83.2116034134
 20
-11.9386005005
 10
83.7968347266
 20
-11.077478722
 10
84.4006719199
 20
-10.3170736618
 10
85.016631425
 20
-9.6655500013
 10
85.6380995127
 20
-9.1299033317
 10
86.2584033068
 20
-8.7158850408
 10
86.8708824324
 20
-8.4279405586
 10
87.4689605301
 20
-8.2691616253
 10
88.0462158686
 20
-8.2412530946
 10
88.5964502963
 20
-8.3445146282
 10
89.1137557924
 20
-8.5778374782
 10
89.5925779037
 20
-8.938716392
 10
90.0277753834
 20
-9.4232765121
 10
90.4146753949
 20
-10.0263149812
 10
90.5956250907
 20
-10.3851546207
  0
LWPOLYLINE
  5
90
330
1F
100
AcDbEntity
  8
0
  6
Continuous
 62
     7
370
    25
100
AcDbPolyline
 90
       16
 70
   128
 43
0.0
 10
85.4897034085
 20
-31.7321498357
 10
84.9893352787
 20
-32.0863379994
 10
84.3737711875
 20
-32.41307255
 10
83.7706182487
 20
-32.6114375947
 10
83.1863526837
 20
-32.6793032326
 10
82.627247915
 20
-32.6159407715
 10
82.0993072063
 20
-32.4220305518
 10
81.6081992044
 20
-32.0996546416
 10
81.159197073
 20
-31.652274481
 10
80.7571218732
 20
-31.0846937157
 10
80.4062907987
 20
-30.4030066186
 10
80.1104708206
 20
-29.6145326544
 10
79.8728382405
 20
-28.7277378881
 10
79.6959445857
 20
-27.7521440824
 10
79.5816892128
 20
-26.6982264603
 10
79.5312989137
 20
-25.5773012294
  0
SPLINE
  5
93
330
1F
100
AcDbEntity
  8
0
  6
Continuous
 62
     7
370
    25
100
AcDbSpline
210
0.0
220
0.0
230
1.0
 70
     8
 71
     3
 72
     8
 73
     4
 74
     0
 42
0.00000001
 43
0.00000001
 40
0.0
 40
0.0
 40
0.0
 40
0.0
 40
1.0
 40
1.0
 40
1.0
 40
1.0
 10
80.12229693759761
 20
-19.90067563251292
 30
0.0
 10
80.35220470828281
 20
-19.87541862590169
 30
0.0
 10
80.58209816640493
 20
-19.86384490970357
 30
0.0
 10
80.81209797979315
 20
-19.86651471260156
 30
0.0
  0
SPLINE
  5
94
330
1F
100
AcDbEntity
  8
0
  6
Continuous
 62
     7
370
    25
100
AcDbSpline
210
0.0
220
0.0
230
1.0
 70
     8
 71
     3
 72
     8
 73
     4
 74
     0
 42
0.00000001
 43
0.00000001
 40
0.0
 40
0.0
 40
0.0
 40
0.0
 40
1.0
 40
1.0
 40
1.0
 40
1.0
 10
80.21271658643313
 20
-25.62366384340373
 30
0.0
 10
79.98271677304491
 20
-25.62099404050574
 30
0.0
 10
79.75564781441959
 20
-25.60543801093097
 30
0.0
 10
79.53129891366038
 20
-25.57730122935097
 30
0.0
  0
LWPOLYLINE
  5
95
330
1F
100
AcDbEntity
  8
0
  6
Continuous
 62
     7
370
    25
100
AcDbPolyline
 90
       22
 70
   128
 43
0.0
 10
80.8120979798
 20
-19.8665147126
 10
81.1099455405
 20
-18.6422289497
 10
81.4613593453
 20
-17.4391152588
 10
81.862464831
 20
-16.2704387419
 10
82.3088395519
 20
-15.149084809
 10
82.7955619397
 20
-14.087417108
 10
83.3172655671
 20
-13.0971412079
 10
83.8681983161
 20
-12.1891755372
 10
84.4422857992
 20
-11.3735310011
 10
85.0331983326
 20
-10.6592006051
 10
85.6344207258
 20
-10.0540603009
 10
86.2393241154
 20
-9.5647821496
 10
86.8412390525
 20
-9.1967607572
 10
87.4335290381
 20
-8.9540537962
 10
88.0096636943
 20
-8.839337267
 10
88.5632907661
 20
-8.8538759929
 10
89.0883061591
 20
-8.9975096753
 10
89.578921241
 20
-9.2686546603
 10
90.0297266652
 20
-9.6643214003
 10
90.4357520119
 20
-10.180147415
 10
90.7925205908
 20
-10.810445391
 10
91.0801612099
 20
-11.5031081221
  0
LWPOLYLINE
  5
96
330
1F
100
AcDbEntity
  8
0
  6
Continuous
 62
     7
370
    25
100
AcDbPolyline
 90
       17
 70
   128
 43
0.0
 10
86.4276579748
 20
-30.9544374764
 10
86.2449066829
 20
-31.1223065068
 10
85.6400003744
 20
-31.6003126227
 10
85.0387135429
 20
-31.9566196074
 10
84.4476757625
 20
-32.1872989472
 10
83.8734036047
 20
-32.2898072542
 10
83.3222287892
 20
-32.2630143082
 10
82.8002283727
 20
-32.1072155188
 10
82.3131577453
 20
-31.8241286678
 10
81.866387174
 20
-31.4168749697
 10
81.4648425914
 20
-30.8899446584
 10
81.1129512848
 20
-30.2491474793
 10
80.8145930821
 20
-29.5015486333
 10
80.5730575742
 20
-28.6553908784
 10
80.3910078453
 20
-27.7200036476
 10
80.2704511109
 20
-26.7057001867
 10
80.2127165864
 20
-25.6236638434
  0
LWPOLYLINE
  5
9D
330
1F
100
AcDbEntity
  8
0
  6
Continuous
 62
     7
370
    25
100
AcDbPolyline
 90
       15
 70
   128
 43
0.0
 10
37.2172419825
 20
-12.5938785814
 10
37.3773191572
 20
-11.3475600163
 10
37.598921937
 20
-10.0895816491
 10
37.8796223952
 20
-8.833726154
 10
38.2163451191
 20
-7.5937529465
 10
38.6054009039
 20
-6.3832474327
 10
39.0425271732
 20
-5.2154721642
 10
39.5229346799
 20
-4.1032215313
 10
40.0413599789
 20
-3.0586815847
 10
40.5921230942
 20
-2.0932965225
 10
41.1691897498
 20
-1.2176433056
 10
41.7662374827
 20
-0.4413157739
 10
42.376724913
 20
0.2271804658
 10
42.9939634126
 20
0.7805212288
 10
43.2304701435
 20
0.9604453172
  0
SPLINE
  5
BD
330
1F
100
AcDbEntity
  8
0
  6
Continuous
 62
     7
370
    25
100
AcDbSpline
210
0.0
220
0.0
230
1.0
 70
     8
 71
     3
 72
    10
 73
     6
 74
     0
 42
0.00000001
 43
0.00000001
 40
0.0
 40
0.0
 40
0.0
 40
0.0
 40
0.5
 40
0.5
 40
1.0
 40
1.0
 40
1.0
 40
1.0
 10
29.45999015756245
 20
-8.992329611627113
 30
0.0
 10
28.55542964030019
 20
-8.599375502757567
 30
0.0
 10
27.57955065337753
 20
-8.256089805261217
 30
0.0
 10
25.49770140733665
 20
-7.616226020089329
 30
0.0
 10
24.39179787724351
 20
-7.319888303887403
 30
0.0
 10
23.21980821061861
 20
-7.039563724720806
 30
0.0
  0
SPLINE
  5
C1
330
1F
100
AcDbEntity
  8
0
  6
Continuous
 62
     7
370
    25
100
AcDbSpline
210
0.0
220
0.0
230
1.0
 70
     8
 71
     3
 72
    10
 73
     6
 74
     0
 42
0.00000001
 43
0.00000001
 40
0.0
 40
0.0
 40
0.0
 40
0.0
 40
0.5
 40
0.5
 40
1.0
 40
1.0
 40
1.0
 40
1.0
 10
23.68196969034663
 20
-4.971850556274887
 30
0.0
 10
24.85395935697151
 20
-5.252175135441481
 30
0.0
 10
25.97179746779126
 20
-5.495117467539144
 30
0.0
 10
28.10775574063521
 20
-5.892897149729666
 30
0.0
 10
29.12571058196259
 20
-6.047935228066195
 30
0.0
 10
30.09919470843531
 20
-6.132524705454093
 30
0.0
  0
LWPOLYLINE
  5
C7
330
1F
100
AcDbEntity
  8
0
  6
Continuous
 62
     7
370
    25
100
AcDbPolyline
 90
        3
 70
   128
 43
0.0
 10
-6.9457216207
 20
-4.0224424733
 10
-7.1370600477
 20
-3.9675876521
 10
-7.3639424246
 20
-3.8777614897
  0
SPLINE
  5
CA
330
1F
100
AcDbEntity
  8
0
  6
Continuous
 62
     7
370
    25
100
AcDbSpline
210
0.0
220
0.0
230
1.0
 70
     8
 71
     3
 72
    10
 73
     6
 74
     0
 42
0.00000001
 43
0.00000001
 40
0.0
 40
0.0
 40
0.0
 40
0.0
 40
0.5
 40
0.5
 40
1.0
 40
1.0
 40
1.0
 40
1.0
 10
25.74039723016878
 20
0.2163048768152043
 30
0.0
 10
26.91238689679368
 20
-0.0640197023513943
 30
0.0
 10
28.05263521937973
 20
-0.2614911220079584
 30
0.0
 10
30.27914346675954
 20
-0.4849337065780945
 30
0.0
 10
31.36523357105832
 20
-0.51096126325623
 30
0.0
 10
32.43446231795504
 20
-0.42989480478689
 30
0.0
  0
SPLINE
  5
CB
330
1F
100
AcDbEntity
  8
0
  6
Continuous
 62
     7
370
    25
100
AcDbSpline
210
0.0
220
0.0
230
1.0
 70
     8
 71
     3
 72
    10
 73
     6
 74
     0
 42
0.00000001
 43
0.00000001
 40
0.0
 40
0.0
 40
0.0
 40
0.0
 40
0.5
 40
0.5
 40
1.0
 40
1.0
 40
1.0
 40
1.0
 10
29.17437765249208
 20
-15.01553270129301
 30
0.0
 10
28.25209184932716
 20
-14.43917556845977
 30
0.0
 10
27.26840363266726
 20
-13.95500136643774
 30
0.0
 10
25.17742245307548
 20
-13.12520988643159
 30
0.0
 10
24.07026275784262
 20
-12.77969975410616
 30
0.0
 10
22.89827309121772
 20
-12.49937517493957
 30
0.0
  0
SPLINE
  5
D8
330
1F
100
AcDbEntity
  8
0
  6
Continuous
 62
     7
370
    25
100
AcDbSpline
210
0.0
220
0.0
230
1.0
 70
     8
 71
     3
 72
    10
 73
     6
 74
     0
 42
0.00000001
 43
0.00000001
 40
0.0
 40
0.0
 40
0.0
 40
0.0
 40
0.5
 40
0.5
 40
1.0
 40
1.0
 40
1.0
 40
1.0
 10
28.46892346226172
 20
3.536522309294594
 30
0.0
 10
29.64091312888662
 20
3.256197730127995
 30
0.0
 10
30.80792800035831
 20
3.082989107704635
 30
0.0
 10
33.14008200571178
 20
2.947447392501509
 30
0.0
 10
34.30508690125875
 20
2.985218651269477
 30
0.0
 10
35.48103614376816
 20
3.139067264244757
 30
0.0
  0
SPLINE
  5
D9
330
1F
100
AcDbEntity
  8
0
  6
Continuous
 62
     7
370
    25
100
AcDbSpline
210
0.0
220
0.0
230
1.0
 70
     8
 71
     3
 72
    10
 73
     6
 74
     0
 42
0.00000001
 43
0.00000001
 40
0.0
 40
0.0
 40
0.0
 40
0.0
 40
0.5
 40
0.5
 40
1.0
 40
1.0
 40
1.0
 40
1.0
 10
30.47360841708288
 20
-19.26419372713305
 30
0.0
 10
29.48324820972024
 20
-18.58771590935951
 30
0.0
 10
28.45353273195003
 20
-18.02020152023443
 30
0.0
 10
26.3020094670032
 20
-17.07651681400423
 30
0.0
 10
25.18037119853338
 20
-16.70029300385562
 30
0.0
 10
24.00838153190848
 20
-16.41996842468902
 30
0.0
  0
LWPOLYLINE
  5
FE
330
1F
100
AcDbEntity
  8
0
  6
Continuous
 62
     8
370
    25
100
AcDbPolyline
 90
       16
 70
   128
 43
0.0
 10
40.7901389022
 20
-13.50850128
 10
40.9496421558
 20
-12.2628147414
 10
41.1696736738
 20
-11.0054422726
 10
41.4479010672
 20
-9.7497123345
 10
41.7813750565
 20
-8.5089359768
 10
42.1665607344
 20
-7.2962657375
 10
42.599375037
 20
-6.1245562229
 10
43.0752300248
 20
-5.0062278454
 10
43.5890815168
 20
-3.9531351639
 10
44.1354825592
 20
-2.9764412228
 10
44.7086411651
 20
-2.086499221
 10
45.3024817107
 20
-1.2927427649
 10
45.9107093384
 20
-0.6035858705
 10
46.5268766841
 20
-0.0263337723
 10
47.1444522206
 20
0.4328945138
 10
47.2297291289
 20
0.4869033127
  0
LWPOLYLINE
  5
100
330
1F
100
AcDbEntity
  8
0
  6
Continuous
 62
     8
370
    25
100
AcDbPolyline
 90
       16
 70
   128
 43
0.0
 10
36.9478831905
 20
-12.5894840343
 10
37.1073864442
 20
-11.3437974957
 10
37.3274179622
 20
-10.0864250269
 10
37.6056453556
 20
-8.8306950888
 10
37.9391193449
 20
-7.5899187311
 10
38.3243050228
 20
-6.3772484918
 10
38.7571193253
 20
-5.2055389772
 10
39.2329743132
 20
-4.0872105997
 10
39.7468258052
 20
-3.0341179182
 10
40.2932268476
 20
-2.0574239771
 10
40.8663854535
 20
-1.1674819752
 10
41.4602259991
 20
-0.3737255192
 10
42.0684536268
 20
0.3154313752
 10
42.6846209724
 20
0.8926834734
 10
43.302196509
 20
1.3519117595
 10
43.3874734173
 20
1.4059205584
  0
LWPOLYLINE
  5
104
330
1F
100
AcDbEntity
  8
0
  6
Continuous
 62
     8
370
    25
100
AcDbPolyline
 90
       20
 70
   128
 43
0.0
 10
37.9685485881
 20
-12.2933208957
 10
38.1198191999
 20
-11.1311527008
 10
38.3323717749
 20
-9.9583227865
 10
38.6035333412
 20
-8.7895801696
 10
38.9298938848
 20
-7.6396224664
 10
39.3073492325
 20
-6.5229110625
 10
39.7311526643
 20
-5.4534892515
 10
40.1959746062
 20
-4.4448056333
 10
40.6959696525
 20
-3.5095449897
 10
41.2248500753
 20
-2.6594687657
 10
41.7759648966
 20
-1.9052671633
 10
42.3423835277
 20
-1.2564247052
 10
42.9169829257
 20
-0.7211009617
 10
43.4925371697
 20
-0.3060279395
 10
44.0618083312
 20
-0.0164254226
 10
44.617637495
 20
0.1440646691
 10
45.1530347869
 20
0.1734240797
 10
45.6612672753
 20
0.0712835977
 10
46.1359436417
 20
-0.1610723013
 10
46.2024365412
 20
-0.2059882568
  0
LWPOLYLINE
  5
105
330
1F
100
AcDbEntity
  8
0
  6
Continuous
 62
     8
370
    25
100
AcDbPolyline
 90
       14
 70
   128
 43
0.0
 10
41.3656782251
 20
-20.7111822875
 10
40.8327882392
 20
-20.7401068249
 10
40.3245557508
 20
-20.6379663428
 10
39.8498793843
 20
-20.4056104439
 10
39.4147284705
 20
-20.0459611382
 10
39.0245752846
 20
-19.5635412247
 10
38.6843262292
 20
-18.9644174135
 10
38.3982601336
 20
-18.2561240342
 10
38.1699744451
 20
-17.447568287
 10
38.0023399884
 20
-16.5489182296
 10
37.8974648644
 20
-15.5714749078
 10
37.8566679383
 20
-14.5275302386
 10
37.8804622554
 20
-13.4302124318
 10
37.9685485881
 20
-12.2933208957
  0
LWPOLYLINE
  5
106
330
1F
100
AcDbEntity
  8
0
  6
Continuous
 62
     8
370
    25
100
AcDbPolyline
 90
       18
 70
   128
 43
0.0
 10
38.7766249641
 20
-12.3065045369
 10
38.9225512579
 20
-11.1894239567
 10
39.1284025224
 20
-10.0621724091
 10
39.3914951714
 20
-8.939445342
 10
39.70839939
 20
-7.8358792198
 10
40.074983847
 20
-6.7658607144
 10
40.4864695535
 20
-5.7433391535
 10
40.9374921639
 20
-4.7816446695
 10
41.4221719087
 20
-3.8933144205
 10
41.9341902463
 20
-3.08992915
 10
42.4668722346
 20
-2.3819622136
 10
43.0132735493
 20
-1.7786430429
 10
43.5662710135
 20
-1.287836826
 10
44.1186554597
 20
-0.9159419726
 10
44.6632257119
 20
-0.6678067007
 10
45.192882464
 20
-0.5466658333
 10
45.7007208301
 20
-0.5540986266
 10
45.8353300652
 20
-0.5786375303
  0
LWPOLYLINE
  5
107
330
1F
100
AcDbEntity
  8
0
  6
Continuous
 62
     8
370
    25
100
AcDbPolyline
 90
       13
 70
   128
 43
0.0
 10
41.1697337782
 20
-20.2321554699
 10
41.0941200969
 20
-20.2124028365
 10
40.6313100421
 20
-20.0128152866
 10
40.2061486739
 20
-19.6880303698
 10
39.8241786211
 20
-19.2422821541
 10
39.4903794473
 20
-18.6813816491
 10
39.2091027353
 20
-18.0126410509
 10
38.9840153572
 20
-17.2447784158
 10
38.8180516713
 20
-16.3878040074
 10
38.7133752678
 20
-15.4528897979
 10
38.6713507639
 20
-14.4522238237
 10
38.6925260133
 20
-13.3988512961
 10
38.7766249641
 20
-12.3065045369
  0
LWPOLYLINE
  5
10B
330
1F
100
AcDbEntity
  8
0
  6
Continuous
 62
     8
370
    25
100
AcDbPolyline
 90
        3
 70
   128
 43
0.0
 10
24.0083815319
 20
-16.4199684247
 10
23.930443174
 20
-16.2934210333
 10
23.9230555456
 20
-16.2809395328
  0
LINE
  5
10C
330
1F
100
AcDbEntity
  8
0
  6
Continuous
 62
     7
370
    25
100
AcDbLine
 10
162.255087189
 20
-47.8365977887
 30
0.0
 11
163.1355114329
 21
-47.1444531448
 31
0.0
  0
LINE
  5
10D
330
1F
100
AcDbEntity
  8
0
  6
Continuous
 62
     7
370
    25
100
AcDbLine
 10
166.8117750441
 20
-31.77461659
 30
0.0
 11
166.3398245348
 21
-30.7590016167
 31
0.0
  0
LINE
  5
10E
330
1F
100
AcDbEntity
  8
0
  6
Continuous
 62
     7
370
    25
100
AcDbLine
 10
83.6420268619
 20
-30.2881509965
 30
0.0
 11
159.9608046956
 21
-48.5426031372
 31
0.0
  0
LINE
  5
10F
330
1F
100
AcDbEntity
  8
0
  6
Continuous
 62
     7
370
    25
100
AcDbLine
 10
164.6133079307
 20
-29.0912737829
 30
0.0
 11
88.294530097
 21
-10.8368216422
 31
0.0
  0
LINE
  5
110
330
1F
100
AcDbEntity
  8
0
  6
Continuous
 62
     7
370
    25
100
AcDbLine
 10
43.7519072364
 20
-23.3174752069
 30
0.0
 11
82.6218502918
 21
-32.6146565213
 31
0.0
  0
LINE
  5
111
330
1F
100
AcDbEntity
  8
0
  6
Continuous
 62
     7
370
    25
100
AcDbLine
 10
88.4374793356
 20
-8.3004948285
 30
0.0
 11
49.5675362803
 21
0.9966864859
 31
0.0
  0
LINE
  5
112
330
1F
100
AcDbEntity
  8
0
  6
Continuous
 62
     7
370
    25
100
AcDbLine
 10
85.4897034085
 20
-31.7321498357
 30
0.0
 11
85.9299155305
 21
-31.3860775138
 31
0.0
  0
LINE
  5
113
330
1F
100
AcDbEntity
  8
0
  6
Continuous
 62
     7
370
    25
100
AcDbLine
 10
90.8316003454
 20
-10.8929621073
 30
0.0
 11
90.5956250907
 21
-10.3851546207
 31
0.0
  0
LINE
  5
114
330
1F
100
AcDbEntity
  8
0
  6
Continuous
 62
     7
370
    25
100
AcDbLine
 10
32.181278735
 20
-20.5499324053
 30
0.0
 11
39.9096515248
 21
-22.3984579612
 31
0.0
  0
LINE
  5
115
330
1F
100
AcDbEntity
  8
0
  6
Continuous
 62
     7
370
    25
100
AcDbLine
 10
45.7252805687
 20
1.9157037316
 30
0.0
 11
37.9969077788
 21
3.7642292875
 31
0.0
  0
LINE
  5
116
330
1F
100
AcDbEntity
  8
0
  6
Continuous
 62
     7
370
    25
100
AcDbLine
 10
23.6856618194
 20
-0.9195786514
 30
0.0
 11
-4.3856127861
 21
5.7947025957
 31
0.0
  0
LINE
  5
117
330
1F
100
AcDbEntity
  8
0
  6
Continuous
 62
     7
370
    25
100
AcDbLine
 10
-6.9457216207
 20
-4.0224424733
 30
0.0
 11
21.1255529848
 21
-10.7367237204
 31
0.0
  0
LINE
  5
118
330
1F
100
AcDbEntity
  8
0
  6
Continuous
 62
     7
370
    25
100
AcDbLine
 10
105.7515729166
 20
-31.1080179677
 30
0.0
 11
81.1892076367
 21
-25.2330218765
 31
0.0
  0
LINE
  5
119
330
1F
100
AcDbEntity
  8
0
  6
Continuous
 62
     7
370
    25
100
AcDbLine
 10
81.7885890301
 20
-19.4758727457
 30
0.0
 11
106.3509543099
 21
-25.3508688369
 31
0.0
  0
LINE
  5
11A
330
1F
100
AcDbEntity
  8
0
  6
Continuous
 62
     7
370
    25
100
AcDbLine
 10
105.7515729166
 20
-31.1080179677
 30
0.0
 11
107.1787699773
 21
-30.5370725742
 31
0.0
  0
LINE
  5
11B
330
1F
100
AcDbEntity
  8
0
  6
Continuous
 62
     7
370
    25
100
AcDbLine
 10
82.6164046975
 20
-24.6620764829
 30
0.0
 11
107.1787699773
 21
-30.5370725742
 31
0.0
  0
LINE
  5
11C
330
1F
100
AcDbEntity
  8
0
  6
Continuous
 62
     7
370
    25
100
AcDbLine
 10
80.2127165864
 20
-25.6236638434
 30
0.0
 11
82.6164046975
 21
-24.6620764829
 31
0.0
  0
LINE
  5
11D
330
1F
100
AcDbEntity
  8
0
  6
Continuous
 62
     7
370
    25
100
AcDbLine
 10
80.8120979798
 20
-19.8665147126
 30
0.0
 11
81.7885890301
 21
-19.4758727457
 31
0.0
  0
LINE
  5
11E
330
1F
100
AcDbEntity
  8
0
  6
Continuous
 62
     7
370
    25
100
AcDbLine
 10
24.7377786729
 20
-18.7251938035
 30
0.0
 11
31.7555973242
 21
-20.4037641153
 31
0.0
  0
LINE
  5
11F
330
1F
100
AcDbEntity
  8
0
  6
Continuous
 62
     7
370
    25
100
AcDbLine
 10
23.4557897657
 20
-17.5856234153
 30
0.0
 11
30.4736084171
 21
-19.2641937271
 31
0.0
  0
LINE
  5
120
330
1F
100
AcDbEntity
  8
0
  6
Continuous
 62
     7
370
    25
100
AcDbLine
 10
22.6894331702
 20
-15.9858732168
 30
0.0
 11
29.7072518216
 21
-17.6644435286
 31
0.0
  0
LINE
  5
121
330
1F
100
AcDbEntity
  8
0
  6
Continuous
 62
     7
370
    25
100
AcDbLine
 10
22.1565590011
 20
-13.3369623895
 30
0.0
 11
29.1743776525
 21
-15.0155327013
 31
0.0
  0
LINE
  5
122
330
1F
100
AcDbEntity
  8
0
  6
Continuous
 62
     7
370
    25
100
AcDbLine
 10
22.0831477339
 20
-10.7622370494
 30
0.0
 11
29.1009663853
 21
-12.4408073611
 31
0.0
  0
LINE
  5
123
330
1F
100
AcDbEntity
  8
0
  6
Continuous
 62
     7
370
    25
100
AcDbLine
 10
22.4421715062
 20
-7.3137592998
 30
0.0
 11
29.4599901576
 21
-8.9923296116
 31
0.0
  0
LINE
  5
124
330
1F
100
AcDbEntity
  8
0
  6
Continuous
 62
     7
370
    25
100
AcDbLine
 10
23.0813760571
 20
-4.4539543937
 30
0.0
 11
30.0991947084
 21
-6.1325247055
 31
0.0
  0
LINE
  5
125
330
1F
100
AcDbEntity
  8
0
  6
Continuous
 62
     7
370
    25
100
AcDbLine
 10
24.2360976408
 20
-1.1299265501
 30
0.0
 11
31.2539162922
 21
-2.8084968619
 31
0.0
  0
LINE
  5
126
330
1F
100
AcDbEntity
  8
0
  6
Continuous
 62
     7
370
    25
100
AcDbLine
 10
25.4166436666
 20
1.248675507
 30
0.0
 11
32.434462318
 21
-0.4298948048
 31
0.0
  0
LINE
  5
127
330
1F
100
AcDbEntity
  8
0
  6
Continuous
 62
     7
370
    25
100
AcDbLine
 10
27.057656346
 20
3.5575828684
 30
0.0
 11
34.0754749974
 21
1.8790125566
 31
0.0
  0
LINE
  5
128
330
1F
100
AcDbEntity
  8
0
  6
Continuous
 62
     7
370
    25
100
AcDbLine
 10
28.4632174924
 20
4.817637576
 30
0.0
 11
35.4810361438
 21
3.1390672642
 31
0.0
  0
LINE
  5
129
330
1F
100
AcDbEntity
  8
0
  6
Continuous
 62
     7
370
    25
100
AcDbLine
 10
30.1508132452
 20
5.4927545923
 30
0.0
 11
37.1686318966
 21
3.8141842805
 31
0.0
  0
LINE
  5
12A
330
1F
100
AcDbEntity
  8
0
  6
Continuous
 62
     7
370
    25
100
AcDbLine
 10
31.4047705382
 20
5.2966313092
 30
0.0
 11
37.5511581813
 21
3.8264958818
 31
0.0
  0
LINE
  5
12B
330
1F
100
AcDbEntity
  8
0
  6
Continuous
 62
     7
370
    25
100
AcDbLine
 10
20.9097939777
 20
-8.6473664928
 30
0.0
 11
-7.1614806279
 21
-1.9330852457
 31
0.0
  0
LINE
  5
12C
330
1F
100
AcDbEntity
  8
0
  6
Continuous
 62
     7
370
    25
100
AcDbLine
 10
23.2198082106
 20
-7.0395637247
 30
0.0
 11
-5.0214313852
 21
-0.2846290779
 31
0.0
  0
LINE
  5
12D
330
1F
100
AcDbEntity
  8
0
  6
Continuous
 62
     7
370
    25
100
AcDbLine
 10
22.2285394738
 20
-2.7472914156
 30
0.0
 11
-5.8427351317
 21
3.9669898316
 31
0.0
  0
LINE
  5
12E
330
1F
100
AcDbEntity
  8
0
  6
Continuous
 62
     7
370
    25
100
AcDbLine
 10
23.6819696903
 20
-4.9718505563
 30
0.0
 11
-4.5592699055
 21
1.7830840906
 31
0.0
  0
LINE
  5
12F
330
1F
100
AcDbEntity
  8
0
  6
Continuous
 62
     7
370
    25
100
AcDbLine
 10
22.8797136427
 20
-0.8727953476
 30
0.0
 11
-5.1915609628
 21
5.8414858996
 31
0.0
  0
LINE
  5
130
330
1F
100
AcDbEntity
  8
0
  6
Continuous
 62
     7
370
    25
100
AcDbLine
 10
20.707332181
 20
-10.5920427369
 30
0.0
 11
-7.3639424246
 21
-3.8777614897
 31
0.0
  0
LINE
  5
131
330
1F
100
AcDbEntity
  8
0
  6
Continuous
 62
     7
370
    25
100
AcDbLine
 10
20.8587872635
 20
-15.9039690075
 30
0.0
 11
-7.212487342
 21
-9.1896877604
 31
0.0
  0
LINE
  5
132
330
1F
100
AcDbEntity
  8
0
  6
Continuous
 62
     7
370
    25
100
AcDbLine
 10
22.8982730912
 20
-12.4993751749
 30
0.0
 11
-5.3429665046
 21
-5.7444405281
 31
0.0
  0
LINE
  5
133
330
1F
100
AcDbEntity
  8
0
  6
Continuous
 62
     7
370
    25
100
AcDbLine
 10
25.3153029268
 20
4.034508184
 30
0.0
 11
-2.7559716788
 21
10.7487894311
 31
0.0
  0
LINE
  5
134
330
1F
100
AcDbEntity
  8
0
  6
Continuous
 62
     7
370
    25
100
AcDbLine
 10
25.7403972302
 20
0.2163048768
 30
0.0
 11
-2.5008423656
 21
6.9712395237
 31
0.0
  0
LINE
  5
135
330
1F
100
AcDbEntity
  8
0
  6
Continuous
 62
     7
370
    25
100
AcDbLine
 10
26.2407078752
 20
5.3365543683
 30
0.0
 11
-1.8305667304
 21
12.0508356154
 31
0.0
  0
LINE
  5
136
330
1F
100
AcDbEntity
  8
0
  6
Continuous
 62
     7
370
    25
100
AcDbLine
 10
21.1592873139
 20
-17.3977509985
 30
0.0
 11
-6.9119872916
 21
-10.6834697514
 31
0.0
  0
LINE
  5
137
330
1F
100
AcDbEntity
  8
0
  6
Continuous
 62
     7
370
    25
100
AcDbLine
 10
29.1405267654
 20
7.9361783358
 30
0.0
 11
1.0692521599
 21
14.650459583
 31
0.0
  0
LINE
  5
138
330
1F
100
AcDbEntity
  8
0
  6
Continuous
 62
     7
370
    25
100
AcDbLine
 10
28.4689234623
 20
3.5365223093
 30
0.0
 11
26.9460113506
 21
3.9007829414
 31
0.0
  0
LINE
  5
139
330
1F
100
AcDbEntity
  8
0
  6
Continuous
 62
     7
370
    25
100
AcDbLine
 10
22.740360708
 20
-20.6982021082
 30
0.0
 11
-5.3309138975
 21
-13.9839208611
 31
0.0
  0
LINE
  5
13A
330
1F
100
AcDbEntity
  8
0
  6
Continuous
 62
     7
370
    25
100
AcDbLine
 10
24.0083815319
 20
-16.4199684247
 30
0.0
 11
22.6048433696
 21
-16.0842604778
 31
0.0
  0
LINE
  5
13B
330
1F
100
AcDbEntity
  8
0
  6
Continuous
 62
     7
370
    25
100
AcDbLine
 10
30.0922009847
 20
8.3168924128
 30
0.0
 11
2.0209263792
 21
15.03117366
 31
0.0
  0
LINE
  5
13C
330
1F
100
AcDbEntity
  8
0
  6
Continuous
 62
     7
370
    25
100
AcDbLine
 10
4.4999070447
 20
14.438233951
 30
0.0
 11
4.6079707458
 21
14.6265509208
 31
0.0
  0
LINE
  5
13D
330
1F
100
AcDbEntity
  8
0
  6
Continuous
 62
     7
370
    25
100
AcDbLine
 10
32.6792453513
 20
7.9122696737
 30
0.0
 11
4.6079707458
 21
14.6265509208
 31
0.0
  0
LINE
  5
13E
330
1F
100
AcDbEntity
  8
0
  6
Continuous
 62
     7
370
    25
100
AcDbLine
 10
23.4633038597
 20
-21.340832168
 30
0.0
 11
-4.6079707458
 21
-14.6265509208
 31
0.0
  0
LINE
  5
13F
330
1F
100
AcDbEntity
  8
0
  6
Continuous
 62
     7
370
    25
100
AcDbLine
 10
26.0503482263
 20
-21.7454549071
 30
0.0
 11
23.5713675608
 21
-21.1525151982
 31
0.0
  0
ARC
  5
140
330
1F
100
AcDbEntity
  8
0
  6
Continuous
 62
     7
370
    25
100
AcDbCircle
 10
83.4859079184
 20
-21.5581203355
 30
0.0
 40
3.223442199896466
100
AcDbArc
 50
147.5760146571
 51
254.3509840073
  0
ARC
  5
141
330
1F
100
AcDbEntity
  8
0
  6
Continuous
 62
     7
370
    25
100
AcDbCircle
 10
48.984999771
 20
-1.9472172007
 30
0.0
 40
3.000986121380704
100
AcDbArc
 50
78.8069692811
 51
125.7957812505
  0
ARC
  5
142
330
1F
100
AcDbEntity
  8
0
  6
Continuous
 62
     7
370
    25
100
AcDbCircle
 10
44.6606269766
 20
-20.299242667
 30
0.0
 40
3.152062694593015
100
AcDbArc
 50
206.7240681729
 51
253.2441715829
  0
ARC
  5
143
330
1F
100
AcDbEntity
  8
0
  6
Continuous
 62
     7
370
    25
100
AcDbCircle
 10
63.3629501627
 20
-15.0779988457
 30
0.0
 40
22.71428140916574
100
AcDbArc
 50
140.6953257057
 51
175.8367275832
  0
ARC
  5
144
330
1F
100
AcDbEntity
  8
0
  6
Continuous
 62
     7
370
    25
100
AcDbCircle
 10
57.0189460792
 20
-15.6498450135
 30
0.0
 40
16.46084646737555
100
AcDbArc
 50
172.2460753116
 51
197.6427417246
  0
ARC
  5
145
330
1F
100
AcDbEntity
  8
0
  6
Continuous
 62
     7
370
    25
100
AcDbCircle
 10
45.0633784659
 20
-0.8021253345
 30
0.0
 40
2.772025324052562
100
AcDbArc
 50
30.0437167491
 51
127.198468789
  0
ARC
  5
146
330
1F
100
AcDbEntity
  8
0
  6
Continuous
 62
     7
370
    25
100
AcDbCircle
 10
40.5564601814
 20
-19.6223062061
 30
0.0
 40
2.810990230714456
100
AcDbArc
 50
204.7171279338
 51
301.6748902818
  0
ARC
  5
147
330
1F
100
AcDbEntity
  8
0
  6
Continuous
 62
     7
370
    25
100
AcDbCircle
 10
50.8249139505
 20
-14.9396493721
 30
0.0
 40
13.80838067952773
100
AcDbArc
 50
170.2191449486
 51
204.7516276217
  0
ARC
  5
148
330
1F
100
AcDbEntity
  8
0
  6
Continuous
 62
     7
370
    25
100
AcDbCircle
 10
32.7316391972
 20
-18.2542009981
 30
0.0
 40
2.360779390892229
100
AcDbArc
 50
245.5788526993
 51
256.518782317
  0
ARC
  5
149
330
1F
100
AcDbEntity
  8
0
  6
Continuous
 62
     7
370
    25
100
AcDbCircle
 10
26.1368716774
 20
-15.8603599506
 30
0.0
 40
3.188218035252947
100
AcDbArc
 50
212.7610883766
 51
243.970599978
  0
ARC
  5
14A
330
1F
100
AcDbEntity
  8
0
  6
Continuous
 62
     7
370
    25
100
AcDbCircle
 10
35.812411161
 20
-15.7232169767
 30
0.0
 40
6.406350840034222
100
AcDbArc
 50
197.6388390742
 51
213.5544451614
  0
ARC
  5
14B
330
1F
100
AcDbEntity
  8
0
  6
Continuous
 62
     7
370
    25
100
AcDbCircle
 10
34.3526127579
 20
-12.2615693424
 30
0.0
 40
12.2433736137111
100
AcDbArc
 50
185.0390511434
 51
197.7093999811
  0
ARC
  5
14C
330
1F
100
AcDbEntity
  8
0
  6
Continuous
 62
     7
370
    25
100
AcDbCircle
 10
48.6521134221
 20
-13.1717689853
 30
0.0
 40
19.5648065503039
100
AcDbArc
 50
177.858871473
 51
185.4075091944
  0
ARC
  5
14D
330
1F
100
AcDbEntity
  8
0
  6
Continuous
 62
     7
370
    25
100
AcDbCircle
 10
47.9265734112
 20
-11.7098887332
 30
0.0
 40
25.86079454412854
100
AcDbArc
 50
170.2126432756
 51
177.8999639473
  0
ARC
  5
14E
330
1F
100
AcDbEntity
  8
0
  6
Continuous
 62
     7
370
    25
100
AcDbCircle
 10
57.8617355675
 20
-13.8391608095
 30
0.0
 40
28.81233963064938
100
AcDbArc
 50
164.4858156103
 51
170.315618617
  0
ARC
  5
14F
330
1F
100
AcDbEntity
  8
0
  6
Continuous
 62
     7
370
    25
100
AcDbCircle
 10
49.1448471491
 20
-11.6454648811
 30
0.0
 40
27.037424959783
100
AcDbArc
 50
157.1123557053
 51
164.5745958458
  0
ARC
  5
150
330
1F
100
AcDbEntity
  8
0
  6
Continuous
 62
     7
370
    25
100
AcDbCircle
 10
51.0098563471
 20
-11.1314856213
 30
0.0
 40
21.43756771048437
100
AcDbArc
 50
150.0530460609
 51
157.1547730157
  0
ARC
  5
151
330
1F
100
AcDbEntity
  8
0
  6
Continuous
 62
     7
370
    25
100
AcDbCircle
 10
37.6751750841
 20
-5.7262329922
 30
0.0
 40
14.10393353242183
100
AcDbArc
 50
138.8339869123
 51
150.3608153983
  0
ARC
  5
152
330
1F
100
AcDbEntity
  8
0
  6
Continuous
 62
     7
370
    25
100
AcDbCircle
 10
39.8879013293
 20
-3.1906487671
 30
0.0
 40
7.71270158896409
100
AcDbArc
 50
124.8463483358
 51
138.9047098593
  0
ARC
  5
153
330
1F
100
AcDbEntity
  8
0
  6
Continuous
 62
     7
370
    25
100
AcDbCircle
 10
30.6676212767
 20
1.7540779133
 30
0.0
 40
3.774227583398222
100
AcDbArc
 50
97.8702839988
 51
125.7371426017
  0
ARC
  5
154
330
1F
100
AcDbEntity
  8
0
  6
Continuous
 62
     7
370
    25
100
AcDbCircle
 10
37.4386353159
 20
1.3993926529
 30
0.0
 40
2.429839593685369
100
AcDbArc
 50
76.7172389167
 51
96.3798742212
  0
ARC
  5
155
330
1F
100
AcDbEntity
  8
0
  6
Continuous
 62
     7
370
    25
100
AcDbCircle
 10
26.3105718919
 20
-13.3059242958
 30
0.0
 40
7.132360260280428
100
AcDbArc
 50
122.8453330206
 51
139.2198769318
  0
ARC
  5
156
330
1F
100
AcDbEntity
  8
0
  6
Continuous
 62
     7
370
    25
100
AcDbCircle
 10
-2.4181581792
 20
-5.8775846457
 30
0.0
 40
6.169131492254022
100
AcDbArc
 50
114.9598930468
 51
140.2534291966
  0
ARC
  5
157
330
1F
100
AcDbEntity
  8
0
  6
Continuous
 62
     7
370
    25
100
AcDbCircle
 10
-0.935868022
 20
5.3816249099
 30
0.0
 40
5.106714916384645
100
AcDbArc
 50
196.0821129198
 51
224.8027638155
  0
ARC
  5
158
330
1F
100
AcDbEntity
  8
0
  6
Continuous
 62
     7
370
    25
100
AcDbCircle
 10
27.8788534821
 20
-0.990189895
 30
0.0
 40
5.91721675668073
100
AcDbArc
 50
197.2743426152
 51
215.8291728359
  0
ARC
  5
159
330
1F
100
AcDbEntity
  8
0
  6
Continuous
 62
     7
370
    25
100
AcDbCircle
 10
23.1504987921
 20
-3.1504588655
 30
0.0
 40
2.293703489560291
100
AcDbArc
 50
61.7515914955
 51
96.7799142711
  0
ARC
  5
15A
330
1F
100
AcDbEntity
  8
0
  6
Continuous
 62
     7
370
    25
100
AcDbCircle
 10
-4.9215797819
 20
3.5269907449
 30
0.0
 40
2.330188331241472
100
AcDbArc
 50
76.7023299678
 51
96.6533686664
  0
ARC
  5
15B
330
1F
100
AcDbEntity
  8
0
  6
Continuous
 62
     7
370
    25
100
AcDbCircle
 10
48.7660110228
 20
-11.6639746676
 30
0.0
 40
25.96138776510184
100
AcDbArc
 50
165.0620864986
 51
169.7393477287
  0
ARC
  5
15C
330
1F
100
AcDbEntity
  8
0
  6
Continuous
 62
     7
370
    25
100
AcDbCircle
 10
21.6672110876
 20
-8.4785816377
 30
0.0
 40
2.321224963839361
100
AcDbArc
 50
245.573690079
 51
280.3224914604
  0
ARC
  5
15D
330
1F
100
AcDbEntity
  8
0
  6
Continuous
 62
     7
370
    25
100
AcDbCircle
 10
39.4922340054
 20
-23.7127113713
 30
0.0
 40
20.20350946709274
100
AcDbArc
 50
149.0986335772
 51
157.2628419873
  0
ARC
  5
15E
330
1F
100
AcDbEntity
  8
0
  6
Continuous
 62
     7
370
    25
100
AcDbCircle
 10
10.0912555779
 20
-16.3494902259
 30
0.0
 40
18.72651303322481
100
AcDbArc
 50
145.5065489736
 51
157.5216032119
  0
ARC
  5
15F
330
1F
100
AcDbEntity
  8
0
  6
Continuous
 62
     7
370
    25
100
AcDbCircle
 10
14.1028382011
 20
9.9900143996
 30
0.0
 40
16.87587657316015
100
AcDbArc
 50
177.4229920419
 51
190.3045921461
  0
ARC
  5
160
330
1F
100
AcDbEntity
  8
0
  6
Continuous
 62
     7
370
    25
100
AcDbCircle
 10
43.6915342196
 20
3.308224094
 30
0.0
 40
18.39057816130228
100
AcDbArc
 50
177.7366759681
 51
186.4300046541
  0
ARC
  5
161
330
1F
100
AcDbEntity
  8
0
  6
Continuous
 62
     7
370
    25
100
AcDbCircle
 10
54.3360492803
 20
-12.8506464896
 30
0.0
 40
33.65961927480652
100
AcDbArc
 50
159.1543143519
 51
162.5326371992
  0
ARC
  5
162
330
1F
100
AcDbEntity
  8
0
  6
Continuous
 62
     7
370
    25
100
AcDbCircle
 10
26.2647746748
 20
-6.1363652424
 30
0.0
 40
33.65961927481337
100
AcDbArc
 50
159.1543143519
 51
162.5326371992
  0
ARC
  5
163
330
1F
100
AcDbEntity
  8
0
  6
Continuous
 62
     7
370
    25
100
AcDbCircle
 10
52.8163415224
 20
-12.9520599882
 30
0.0
 40
32.1956233409771
100
AcDbArc
 50
172.3162971021
 51
175.7963101208
  0
ARC
  5
164
330
1F
100
AcDbEntity
  8
0
  6
Continuous
 62
     7
370
    25
100
AcDbCircle
 10
24.7450669169
 20
-6.2377787411
 30
0.0
 40
32.19562334097615
100
AcDbArc
 50
172.3162971021
 51
175.7963101208
  0
ARC
  5
165
330
1F
100
AcDbEntity
  8
0
  6
Continuous
 62
     7
370
    25
100
AcDbCircle
 10
40.0748792871
 20
-5.4757041705
 30
0.0
 40
17.55816714136481
100
AcDbArc
 50
141.99017902
 51
147.2046232906
  0
ARC
  5
166
330
1F
100
AcDbEntity
  8
0
  6
Continuous
 62
     7
370
    25
100
AcDbCircle
 10
20.912975223
 20
1.8128580952
 30
0.0
 40
6.387579403631054
100
AcDbArc
 50
15.8513998606
 51
33.480155632
  0
ARC
  5
167
330
1F
100
AcDbEntity
  8
0
  6
Continuous
 62
     7
370
    25
100
AcDbCircle
 10
12.0036046816
 20
1.2385770766
 30
0.0
 40
17.55816714136734
100
AcDbArc
 50
141.99017902
 51
147.2046232906
  0
ARC
  5
168
330
1F
100
AcDbEntity
  8
0
  6
Continuous
 62
     7
370
    25
100
AcDbCircle
 10
35.9301914836
 20
-13.6492120951
 30
0.0
 40
15.2391323211214
100
AcDbArc
 50
188.5086285883
 51
194.2398225362
  0
ARC
  5
169
330
1F
100
AcDbEntity
  8
0
  6
Continuous
 62
     7
370
    25
100
AcDbCircle
 10
16.7676627782
 20
-11.1031560932
 30
0.0
 40
7.675173684352193
100
AcDbArc
 50
304.902781496
 51
320.4931665075
  0
ARC
  5
16A
330
1F
100
AcDbEntity
  8
0
  6
Continuous
 62
     7
370
    25
100
AcDbCircle
 10
20.524771427
 20
-4.9090400208
 30
0.0
 40
25.96138776509647
100
AcDbArc
 50
165.0620864986
 51
169.7393477287
  0
ARC
  5
16B
330
1F
100
AcDbEntity
  8
0
  6
Continuous
 62
     7
370
    25
100
AcDbCircle
 10
7.8589168781
 20
-6.9349308479
 30
0.0
 40
15.23913232112627
100
AcDbArc
 50
188.5086285883
 51
194.2398225362
  0
ARC
  5
16C
330
1F
100
AcDbEntity
  8
0
  6
Continuous
 62
     7
370
    25
100
AcDbCircle
 10
13.9965790559
 20
-2.2808406165
 30
0.0
 40
18.91470064470561
100
AcDbArc
 50
150.7154298068
 51
155.6447508274
  0
ARC
  5
16D
330
1F
100
AcDbEntity
  8
0
  6
Continuous
 62
     7
370
    25
100
AcDbCircle
 10
11.6275501464
 20
-4.3427702643
 30
0.0
 40
17.02830334853461
100
AcDbArc
 50
180.165630937
 51
184.7215954404
  0
ARC
  5
16E
330
1F
100
AcDbEntity
  8
0
  6
Continuous
 62
     7
370
    25
100
AcDbCircle
 10
27.6265298167
 20
7.2497661552
 30
0.0
 40
27.56917227179395
100
AcDbArc
 50
164.4284876146
 51
171.0901243943
  0
ARC
  5
16F
330
1F
100
AcDbEntity
  8
0
  6
Continuous
 62
     7
370
    25
100
AcDbCircle
 10
55.7226485707
 20
0.5300414484
 30
0.0
 40
27.59456582858226
100
AcDbArc
 50
164.4314474867
 51
171.0612641968
  0
ARC
  5
170
330
1F
100
AcDbEntity
  8
0
  6
Continuous
 62
     7
370
    25
100
AcDbCircle
 10
50.0096276456
 20
-25.3275576822
 30
0.0
 40
27.65942610288586
100
AcDbArc
 50
163.7456321049
 51
170.365065048
  0
ARC
  5
171
330
1F
100
AcDbEntity
  8
0
  6
Continuous
 62
     7
370
    25
100
AcDbCircle
 10
21.9300985061
 20
-18.6114589397
 30
0.0
 40
27.65098381501958
100
AcDbArc
 50
164.473482201
 51
170.3659152281
  0
ARC
  5
172
330
1F
100
AcDbEntity
  8
0
  6
Continuous
 62
     7
370
    25
100
AcDbCircle
 10
31.3333746971
 20
3.8345088055
 30
0.0
 40
4.65105095517595
100
AcDbArc
 50
105.4774302033
 51
118.1299963973
  0
ARC
  5
173
330
1F
100
AcDbEntity
  8
0
  6
Continuous
 62
     7
370
    25
100
AcDbCircle
 10
11.0437020491
 20
6.5088820324
 30
0.0
 40
19.13411124761969
100
AcDbArc
 50
356.955844301
 51
5.4220517711
  0
ARC
  5
174
330
1F
100
AcDbEntity
  8
0
  6
Continuous
 62
     7
370
    25
100
AcDbCircle
 10
3.2621000916
 20
10.5487900526
 30
0.0
 40
4.651050955175887
100
AcDbArc
 50
105.4774302033
 51
118.1299963973
  0
ARC
  5
175
330
1F
100
AcDbEntity
  8
0
  6
Continuous
 62
     7
370
    25
100
AcDbCircle
 10
50.7951203399
 20
-2.5330395148
 30
0.0
 40
20.9114660089693
100
AcDbArc
 50
150.0329732791
 51
158.0115309874
  0
ARC
  5
176
330
1F
100
AcDbEntity
  8
0
  6
Continuous
 62
     7
370
    25
100
AcDbCircle
 10
25.6815036015
 20
-18.1174497908
 30
0.0
 40
3.912876696702635
100
AcDbArc
 50
221.2658445761
 51
235.4658437786
  0
ARC
  5
177
330
1F
100
AcDbEntity
  8
0
  6
Continuous
 62
     7
370
    25
100
AcDbCircle
 10
5.3474288712
 20
-10.8955229795
 30
0.0
 40
20.91146600897002
100
AcDbArc
 50
330.0329732791
 51
338.0115309874
  0
ARC
  5
178
330
1F
100
AcDbEntity
  8
0
  6
Continuous
 62
     7
370
    25
100
AcDbCircle
 10
-2.389771004
 20
-11.4031685437
 30
0.0
 40
3.912876696702561
100
AcDbArc
 50
221.2658445761
 51
235.4658437786
  0
ARC
  5
179
330
1F
100
AcDbEntity
  8
0
  6
Continuous
 62
     7
370
    25
100
AcDbCircle
 10
45.0229788785
 20
-19.9419320703
 30
0.0
 40
19.0581585807421
100
AcDbArc
 50
177.2392235633
 51
185.4301732891
  0
ARC
  5
17A
330
1F
100
AcDbEntity
  8
0
  6
Continuous
 62
     7
370
    25
100
AcDbCircle
 10
30.4610456095
 20
4.6888872966
 30
0.0
 40
3.912876696703001
100
AcDbArc
 50
41.2658445761
 51
55.4658437786
  0
ARC
  5
17B
330
1F
100
AcDbEntity
  8
0
  6
Continuous
 62
     7
370
    25
100
AcDbCircle
 10
6.1726171856
 20
11.8908221817
 30
0.0
 40
27.61892254335032
100
AcDbArc
 50
345.4204326943
 51
350.3679981315
  0
ARC
  5
17C
330
1F
100
AcDbEntity
  8
0
  6
Continuous
 62
     7
370
    25
100
AcDbCircle
 10
24.8091745139
 20
-17.2630712998
 30
0.0
 40
4.651050955175141
100
AcDbArc
 50
285.4774302033
 51
298.1299963973
  0
ARC
  5
17D
330
1F
100
AcDbEntity
  8
0
  6
Continuous
 62
     7
370
    25
100
AcDbCircle
 10
0.2863515727
 20
-13.9259959806
 30
0.0
 40
27.73196702592269
100
AcDbArc
 50
344.4406038504
 51
348.6571653833
  0
ARC
  5
17E
330
1F
100
AcDbEntity
  8
0
  6
Continuous
 62
     8
370
    25
100
AcDbCircle
 10
54.7738849786
 20
-15.8828840069
 30
0.0
 40
14.18389395274638
100
AcDbArc
 50
170.3633207634
 51
204.2864695867
  0
ARC
  5
17F
330
1F
100
AcDbEntity
  8
0
  6
Continuous
 62
     8
370
    25
100
AcDbCircle
 10
50.9316292669
 20
-14.9638667612
 30
0.0
 40
14.18389395274633
100
AcDbArc
 50
170.3633207634
 51
204.2864695867
  0
ARC
  5
180
330
1F
100
AcDbEntity
  8
0
  6
Continuous
 62
     8
370
    25
100
AcDbCircle
 10
45.1546528708
 20
-1.0757787297
 30
0.0
 40
2.801550916397807
100
AcDbArc
 50
36.5176095685
 51
133.3795141937
  0
ARC
  5
181
330
1F
100
AcDbEntity
  8
0
  6
Continuous
 62
     8
370
    25
100
AcDbCircle
 10
40.743607863
 20
-19.5810623392
 30
0.0
 40
2.709945190466924
100
AcDbArc
 50
204.8760473893
 51
297.8096104077
  0
ARC
  5
182
330
1F
100
AcDbEntity
  8
0
  6
Continuous
 62
     8
370
    25
100
AcDbCircle
 10
42.4577157208
 20
-9.148107367
 30
0.0
 40
19.16144447032628
100
AcDbArc
 50
150.7440933104
 51
155.8429492501
  0
ARC
  5
183
330
1F
100
AcDbEntity
  8
0
  6
Continuous
 62
     8
370
    25
100
AcDbCircle
 10
40.2300230998
 20
-11.08016657
 30
0.0
 40
17.38975880864558
100
AcDbArc
 50
179.5495677703
 51
184.6812150516
  0
ARC
  5
184
330
1F
100
AcDbEntity
  8
0
  6
Continuous
 62
     8
370
    25
100
AcDbCircle
 10
31.8971827331
 20
-1.2165367867
 30
0.0
 40
5.860420837983726
100
AcDbArc
 50
125.8019422344
 51
129.6649756751
  0
ENDSEC
  0
SECTION
  2
OBJECTS
  0
DICTIONARY
  5
C
330
0
100
AcDbDictionary
281
     1
  3
ACAD_GROUP
350
D
  3
ACAD_LAYOUT
350
1A
  3
ACAD_MLINESTYLE
350
17
  3
ACAD_PLOTSETTINGS
350
19
  3
ACAD_PLOTSTYLENAME
350
E
  3
ACAD_SCALELIST
350
47
  3
DWGPROPS
350
185
  0
DICTIONARY
  5
D
102
{ACAD_REACTORS
330
C
102
}
330
C
100
AcDbDictionary
281
     1
  0
DICTIONARY
  5
1A
102
{ACAD_REACTORS
330
C
102
}
330
C
100
AcDbDictionary
281
     1
  3
Layout1
350
1E
  3
Layout2
350
26
  3
Model
350
22
  0
DICTIONARY
  5
17
102
{ACAD_REACTORS
330
C
102
}
330
C
100
AcDbDictionary
281
     1
  3
Standard
350
18
  0
DICTIONARY
  5
19
102
{ACAD_REACTORS
330
C
102
}
330
C
100
AcDbDictionary
281
     1
  0
ACDBDICTIONARYWDFLT
  5
E
102
{ACAD_REACTORS
330
C
102
}
330
C
100
AcDbDictionary
281
     1
  3
Normal
350
F
100
AcDbDictionaryWithDefault
340
F
  0
DICTIONARY
  5
47
102
{ACAD_REACTORS
330
C
102
}
330
C
100
AcDbDictionary
281
     1
  3
A0
350
48
  3
A1
350
49
  3
A2
350
4A
  3
A3
350
4B
  3
A4
350
4C
  3
A5
350
4D
  3
A6
350
4E
  3
A7
350
4F
  3
A8
350
50
  3
A9
350
51
  3
B0
350
52
  3
B1
350
53
  3
B2
350
54
  3
B3
350
55
  3
B4
350
56
  3
B5
350
57
  3
B6
350
58
  3
B7
350
59
  3
B8
350
5A
  3
B9
350
5B
  3
C0
350
5C
  3
C1
350
5D
  3
C2
350
5E
  3
C3
350
5F
  3
C4
350
60
  3
C5
350
61
  3
C6
350
62
  3
C7
350
63
  3
C8
350
64
  3
C9
350
65
  3
D0
350
66
  3
D1
350
67
  3
D2
350
68
  0
XRECORD
  5
185
102
{ACAD_REACTORS
330
C
102
}
330
C
100
AcDbXrecord
280
     1
  1
DWGPROPS COOKIE
  2

  3

  4

  6

  7

  8
DOM
  9

300
=
301
=
302
=
303
=
304
=
305
=
306
=
307
=
308
=
309
=
 40
0.0
 41
2460002.929649028
 42
2460002.929711424
  1

 90
        0
  0
LAYOUT
  5
1E
102
{ACAD_REACTORS
330
1A
102
}
330
1A
100
AcDbPlotSettings
  1

  2
none_device
  4

  6

 40
0.0
 41
0.0
 42
0.0
 43
0.0
 44
0.0
 45
0.0
 46
0.0
 47
0.0
 48
0.0
 49
0.0
140
0.0
141
0.0
142
1.0
143
1.0
 70
   688
 72
     1
 73
     0
 74
     5
  7

 75
    16
147
1.0
148
0.0
149
0.0
100
AcDbLayout
  1
Layout1
 70
     1
 71
     1
 10
0.0
 20
0.0
 11
420.0
 21
297.0
 12
0.0
 22
0.0
 32
0.0
 14
1.0000000000E+20
 24
1.0000000000E+20
 34
1.0000000000E+20
 15
-1.0000000000E+20
 25
-1.0000000000E+20
 35
-1.0000000000E+20
146
0.0
 13
0.0
 23
0.0
 33
0.0
 16
1.0
 26
0.0
 36
0.0
 17
0.0
 27
1.0
 37
0.0
 76
     0
330
1B
  0
LAYOUT
  5
26
102
{ACAD_REACTORS
330
1A
102
}
330
1A
100
AcDbPlotSettings
  1

  2
none_device
  4

  6

 40
0.0
 41
0.0
 42
0.0
 43
0.0
 44
0.0
 45
0.0
 46
0.0
 47
0.0
 48
0.0
 49
0.0
140
0.0
141
0.0
142
1.0
143
1.0
 70
   688
 72
     1
 73
     0
 74
     5
  7

 75
    16
147
1.0
148
0.0
149
0.0
100
AcDbLayout
  1
Layout2
 70
     1
 71
     2
 10
0.0
 20
0.0
 11
0.0
 21
0.0
 12
0.0
 22
0.0
 32
0.0
 14
0.0
 24
0.0
 34
0.0
 15
0.0
 25
0.0
 35
0.0
146
0.0
 13
0.0
 23
0.0
 33
0.0
 16
1.0
 26
0.0
 36
0.0
 17
0.0
 27
1.0
 37
0.0
 76
     0
330
23
  0
LAYOUT
  5
22
102
{ACAD_REACTORS
330
1A
102
}
330
1A
100
AcDbPlotSettings
  1

  2
none_device
  4
ANSI_A_(11.00_x_8.50_Inches)
  6

 40
6.35
 41
19.05
 42
6.35000508
 43
19.05000254
 44
279.4
 45
215.9
 46
6.6966930688
 47
115.4469545504
 48
0.0
 49
0.0
140
0.0
141
0.0
142
0.0622831368
143
1.0
 70
  1696
 72
     0
 73
     0
 74
     0
  7

 75
     0
147
0.0179189148
148
-1300.4909072572
149
0.0
100
AcDbLayout
  1
Model
 70
     1
 71
     0
 10
0.0
 20
0.0
 11
420.0
 21
297.0
 12
0.0
 22
0.0
 32
0.0
 14
-7.3639424246
 24
-48.5926092155
 34
0.0
 15
167.4827425601
 25
15.03117366
 35
0.0
146
0.0
 13
0.0
 23
0.0
 33
0.0
 16
1.0
 26
0.0
 36
0.0
 17
0.0
 27
1.0
 37
0.0
 76
     0
330
1F
331
29
  0
MLINESTYLE
  5
18
102
{ACAD_REACTORS
330
17
102
}
330
17
100
AcDbMlineStyle
  2
Standard
 70
     0
  3

 62
   256
 51
90.0
 52
90.0
 71
     2
 49
0.5
 62
   256
  6
BYLAYER
 49
-0.5
 62
   256
  6
BYLAYER
  0
ACDBPLACEHOLDER
  5
F
102
{ACAD_REACTORS
330
E
102
}
330
E
  0
SCALE
  5
48
102
{ACAD_REACTORS
330
47
102
}
330
47
100
AcDbScale
 70
     0
300
1:1
140
1.0
141
1.0
290
     1
  0
SCALE
  5
49
102
{ACAD_REACTORS
330
47
102
}
330
47
100
AcDbScale
 70
     0
300
1:2
140
1.0
141
2.0
290
     0
  0
SCALE
  5
4A
102
{ACAD_REACTORS
330
47
102
}
330
47
100
AcDbScale
 70
     0
300
1:4
140
1.0
141
4.0
290
     0
  0
SCALE
  5
4B
102
{ACAD_REACTORS
330
47
102
}
330
47
100
AcDbScale
 70
     0
300
1:5
140
1.0
141
5.0
290
     0
  0
SCALE
  5
4C
102
{ACAD_REACTORS
330
47
102
}
330
47
100
AcDbScale
 70
     0
300
1:8
140
1.0
141
8.0
290
     0
  0
SCALE
  5
4D
102
{ACAD_REACTORS
330
47
102
}
330
47
100
AcDbScale
 70
     0
300
1:10
140
1.0
141
10.0
290
     0
  0
SCALE
  5
4E
102
{ACAD_REACTORS
330
47
102
}
330
47
100
AcDbScale
 70
     0
300
1:16
140
1.0
141
16.0
290
     0
  0
SCALE
  5
4F
102
{ACAD_REACTORS
330
47
102
}
330
47
100
AcDbScale
 70
     0
300
1:20
140
1.0
141
20.0
290
     0
  0
SCALE
  5
50
102
{ACAD_REACTORS
330
47
102
}
330
47
100
AcDbScale
 70
     0
300
1:30
140
1.0
141
30.0
290
     0
  0
SCALE
  5
51
102
{ACAD_REACTORS
330
47
102
}
330
47
100
AcDbScale
 70
     0
300
1:40
140
1.0
141
40.0
290
     0
  0
SCALE
  5
52
102
{ACAD_REACTORS
330
47
102
}
330
47
100
AcDbScale
 70
     0
300
1:50
140
1.0
141
50.0
290
     0
  0
SCALE
  5
53
102
{ACAD_REACTORS
330
47
102
}
330
47
100
AcDbScale
 70
     0
300
1:100
140
1.0
141
100.0
290
     0
  0
SCALE
  5
54
102
{ACAD_REACTORS
330
47
102
}
330
47
100
AcDbScale
 70
     0
300
2:1
140
2.0
141
1.0
290
     0
  0
SCALE
  5
55
102
{ACAD_REACTORS
330
47
102
}
330
47
100
AcDbScale
 70
     0
300
4:1
140
4.0
141
1.0
290
     0
  0
SCALE
  5
56
102
{ACAD_REACTORS
330
47
102
}
330
47
100
AcDbScale
 70
     0
300
8:1
140
8.0
141
1.0
290
     0
  0
SCALE
  5
57
102
{ACAD_REACTORS
330
47
102
}
330
47
100
AcDbScale
 70
     0
300
10:1
140
10.0
141
1.0
290
     0
  0
SCALE
  5
58
102
{ACAD_REACTORS
330
47
102
}
330
47
100
AcDbScale
 70
     0
300
100:1
140
100.0
141
1.0
290
     0
  0
SCALE
  5
59
102
{ACAD_REACTORS
330
47
102
}
330
47
100
AcDbScale
 70
     0
300
1/128" = 1'-0"
140
0.0078125
141
12.0
290
     0
  0
SCALE
  5
5A
102
{ACAD_REACTORS
330
47
102
}
330
47
100
AcDbScale
 70
     0
300
1/64" = 1'-0"
140
0.015625
141
12.0
290
     0
  0
SCALE
  5
5B
102
{ACAD_REACTORS
330
47
102
}
330
47
100
AcDbScale
 70
     0
300
1/32" = 1'-0"
140
0.03125
141
12.0
290
     0
  0
SCALE
  5
5C
102
{ACAD_REACTORS
330
47
102
}
330
47
100
AcDbScale
 70
     0
300
1/16" = 1'-0"
140
0.0625
141
12.0
290
     0
  0
SCALE
  5
5D
102
{ACAD_REACTORS
330
47
102
}
330
47
100
AcDbScale
 70
     0
300
3/32" = 1'-0"
140
0.09375
141
12.0
290
     0
  0
SCALE
  5
5E
102
{ACAD_REACTORS
330
47
102
}
330
47
100
AcDbScale
 70
     0
300
1/8" = 1'-0"
140
0.125
141
12.0
290
     0
  0
SCALE
  5
5F
102
{ACAD_REACTORS
330
47
102
}
330
47
100
AcDbScale
 70
     0
300
3/16" = 1'-0"
140
0.1875
141
12.0
290
     0
  0
SCALE
  5
60
102
{ACAD_REACTORS
330
47
102
}
330
47
100
AcDbScale
 70
     0
300
1/4" = 1'-0"
140
0.25
141
12.0
290
     0
  0
SCALE
  5
61
102
{ACAD_REACTORS
330
47
102
}
330
47
100
AcDbScale
 70
     0
300
3/8" = 1'-0"
140
0.375
141
12.0
290
     0
  0
SCALE
  5
62
102
{ACAD_REACTORS
330
47
102
}
330
47
100
AcDbScale
 70
     0
300
1/2" = 1'-0"
140
0.5
141
12.0
290
     0
  0
SCALE
  5
63
102
{ACAD_REACTORS
330
47
102
}
330
47
100
AcDbScale
 70
     0
300
3/4" = 1'-0"
140
0.75
141
12.0
290
     0
  0
SCALE
  5
64
102
{ACAD_REACTORS
330
47
102
}
330
47
100
AcDbScale
 70
     0
300
1" = 1'-0"
140
1.0
141
12.0
290
     0
  0
SCALE
  5
65
102
{ACAD_REACTORS
330
47
102
}
330
47
100
AcDbScale
 70
     0
300
1-1/2" = 1'-0"
140
1.5
141
12.0
290
     0
  0
SCALE
  5
66
102
{ACAD_REACTORS
330
47
102
}
330
47
100
AcDbScale
 70
     0
300
3" = 1'-0"
140
3.0
141
12.0
290
     0
  0
SCALE
  5
67
102
{ACAD_REACTORS
330
47
102
}
330
47
100
AcDbScale
 70
     0
300
6" = 1'-0"
140
6.0
141
12.0
290
     0
  0
SCALE
  5
68
102
{ACAD_REACTORS
330
47
102
}
330
47
100
AcDbScale
 70
     0
300
1'-0" = 1'-0"
140
12.0
141
12.0
290
     0
  0
ENDSEC
  0
EOF
