ISO-10303-21;
HEADER;
/* Generated by software containing ST-Developer
 * from STEP Tools, Inc. (www.steptools.com) 
 */

FILE_DESCRIPTION(
/* description */ (''),
/* implementation_level */ '2;1');

FILE_NAME(
/* name */ 'Composant35.step',
/* time_stamp */ '2023-02-18T14:42:30+01:00',
/* author */ (''),
/* organization */ (''),
/* preprocessor_version */ 'ST-DEVELOPER v19.2',
/* originating_system */ 'Autodesk Translation Framework v11.17.0.187',

/* authorisation */ '');

FILE_SCHEMA (('AUTOMOTIVE_DESIGN { 1 0 10303 214 3 1 1 }'));
ENDSEC;

DATA;
#10=MECHANICAL_DESIGN_GEOMETRIC_PRESENTATION_REPRESENTATION('',(#13),#445);
#11=SHAPE_REPRESENTATION_RELATIONSHIP('SRR','None',#452,#12);
#12=ADVANCED_BREP_SHAPE_REPRESENTATION('',(#14),#444);
#13=STYLED_ITEM('',(#461),#14);
#14=MANIFOLD_SOLID_BREP('Corps1',#243);
#15=CYLINDRICAL_SURFACE('',#262,30.00002);
#16=CYLINDRICAL_SURFACE('',#266,27.9999900000124);
#17=CYLINDRICAL_SURFACE('',#270,30.00001);
#18=CYLINDRICAL_SURFACE('',#274,28.0000000000062);
#19=CYLINDRICAL_SURFACE('',#278,30.);
#20=CYLINDRICAL_SURFACE('',#282,29.0000000000624);
#21=CYLINDRICAL_SURFACE('',#288,7.25);
#22=FACE_BOUND('',#58,.T.);
#23=FACE_BOUND('',#61,.T.);
#24=FACE_BOUND('',#64,.T.);
#25=FACE_BOUND('',#67,.T.);
#26=FACE_BOUND('',#70,.T.);
#27=FACE_BOUND('',#73,.T.);
#28=FACE_BOUND('',#76,.T.);
#29=FACE_BOUND('',#81,.T.);
#30=PLANE('',#260);
#31=PLANE('',#264);
#32=PLANE('',#268);
#33=PLANE('',#272);
#34=PLANE('',#276);
#35=PLANE('',#280);
#36=PLANE('',#284);
#37=PLANE('',#292);
#38=FACE_OUTER_BOUND('',#56,.T.);
#39=FACE_OUTER_BOUND('',#57,.T.);
#40=FACE_OUTER_BOUND('',#59,.T.);
#41=FACE_OUTER_BOUND('',#60,.T.);
#42=FACE_OUTER_BOUND('',#62,.T.);
#43=FACE_OUTER_BOUND('',#63,.T.);
#44=FACE_OUTER_BOUND('',#65,.T.);
#45=FACE_OUTER_BOUND('',#66,.T.);
#46=FACE_OUTER_BOUND('',#68,.T.);
#47=FACE_OUTER_BOUND('',#69,.T.);
#48=FACE_OUTER_BOUND('',#71,.T.);
#49=FACE_OUTER_BOUND('',#72,.T.);
#50=FACE_OUTER_BOUND('',#74,.T.);
#51=FACE_OUTER_BOUND('',#75,.T.);
#52=FACE_OUTER_BOUND('',#77,.T.);
#53=FACE_OUTER_BOUND('',#78,.T.);
#54=FACE_OUTER_BOUND('',#79,.T.);
#55=FACE_OUTER_BOUND('',#80,.T.);
#56=EDGE_LOOP('',(#166,#167,#168,#169));
#57=EDGE_LOOP('',(#170));
#58=EDGE_LOOP('',(#171));
#59=EDGE_LOOP('',(#172,#173,#174,#175));
#60=EDGE_LOOP('',(#176));
#61=EDGE_LOOP('',(#177));
#62=EDGE_LOOP('',(#178,#179,#180,#181));
#63=EDGE_LOOP('',(#182));
#64=EDGE_LOOP('',(#183));
#65=EDGE_LOOP('',(#184,#185,#186,#187));
#66=EDGE_LOOP('',(#188));
#67=EDGE_LOOP('',(#189));
#68=EDGE_LOOP('',(#190,#191,#192,#193));
#69=EDGE_LOOP('',(#194));
#70=EDGE_LOOP('',(#195));
#71=EDGE_LOOP('',(#196,#197,#198,#199));
#72=EDGE_LOOP('',(#200));
#73=EDGE_LOOP('',(#201));
#74=EDGE_LOOP('',(#202,#203,#204,#205));
#75=EDGE_LOOP('',(#206));
#76=EDGE_LOOP('',(#207));
#77=EDGE_LOOP('',(#208,#209,#210,#211));
#78=EDGE_LOOP('',(#212,#213,#214,#215));
#79=EDGE_LOOP('',(#216,#217,#218,#219));
#80=EDGE_LOOP('',(#220));
#81=EDGE_LOOP('',(#221));
#82=LINE('',#382,#92);
#83=LINE('',#390,#93);
#84=LINE('',#397,#94);
#85=LINE('',#404,#95);
#86=LINE('',#411,#96);
#87=LINE('',#418,#97);
#88=LINE('',#425,#98);
#89=LINE('',#431,#99);
#90=LINE('',#435,#100);
#91=LINE('',#439,#101);
#92=VECTOR('',#299,14.4495259589279);
#93=VECTOR('',#310,30.00002);
#94=VECTOR('',#319,27.9999900000124);
#95=VECTOR('',#328,30.00001);
#96=VECTOR('',#337,28.0000000000062);
#97=VECTOR('',#346,30.);
#98=VECTOR('',#355,29.0000000000624);
#99=VECTOR('',#362,17.2500000000213);
#100=VECTOR('',#367,7.25);
#101=VECTOR('',#372,12.2700000000001);
#102=CIRCLE('',#258,9.60905191785553);
#103=CIRCLE('',#259,19.2900000000002);
#104=CIRCLE('',#261,30.00002);
#105=CIRCLE('',#263,30.00002);
#106=CIRCLE('',#265,27.9999900000124);
#107=CIRCLE('',#267,27.9999900000125);
#108=CIRCLE('',#269,30.00001);
#109=CIRCLE('',#271,30.00001);
#110=CIRCLE('',#273,28.0000000000125);
#111=CIRCLE('',#275,28.);
#112=CIRCLE('',#277,30.);
#113=CIRCLE('',#279,30.);
#114=CIRCLE('',#281,29.);
#115=CIRCLE('',#283,29.0000000001248);
#116=CIRCLE('',#285,27.2500000000427);
#117=CIRCLE('',#287,7.25);
#118=CIRCLE('',#289,7.25);
#119=CIRCLE('',#291,17.2900000000002);
#120=VERTEX_POINT('',#379);
#121=VERTEX_POINT('',#381);
#122=VERTEX_POINT('',#385);
#123=VERTEX_POINT('',#388);
#124=VERTEX_POINT('',#392);
#125=VERTEX_POINT('',#395);
#126=VERTEX_POINT('',#399);
#127=VERTEX_POINT('',#402);
#128=VERTEX_POINT('',#406);
#129=VERTEX_POINT('',#409);
#130=VERTEX_POINT('',#413);
#131=VERTEX_POINT('',#416);
#132=VERTEX_POINT('',#420);
#133=VERTEX_POINT('',#423);
#134=VERTEX_POINT('',#427);
#135=VERTEX_POINT('',#430);
#136=VERTEX_POINT('',#434);
#137=VERTEX_POINT('',#438);
#138=EDGE_CURVE('',#120,#120,#102,.T.);
#139=EDGE_CURVE('',#120,#121,#82,.T.);
#140=EDGE_CURVE('',#121,#121,#103,.T.);
#141=EDGE_CURVE('',#122,#122,#104,.T.);
#142=EDGE_CURVE('',#123,#123,#105,.T.);
#143=EDGE_CURVE('',#123,#122,#83,.T.);
#144=EDGE_CURVE('',#124,#124,#106,.T.);
#145=EDGE_CURVE('',#125,#125,#107,.T.);
#146=EDGE_CURVE('',#125,#124,#84,.T.);
#147=EDGE_CURVE('',#126,#126,#108,.T.);
#148=EDGE_CURVE('',#127,#127,#109,.T.);
#149=EDGE_CURVE('',#127,#126,#85,.T.);
#150=EDGE_CURVE('',#128,#128,#110,.T.);
#151=EDGE_CURVE('',#129,#129,#111,.T.);
#152=EDGE_CURVE('',#129,#128,#86,.T.);
#153=EDGE_CURVE('',#130,#130,#112,.T.);
#154=EDGE_CURVE('',#131,#131,#113,.T.);
#155=EDGE_CURVE('',#131,#130,#87,.T.);
#156=EDGE_CURVE('',#132,#132,#114,.T.);
#157=EDGE_CURVE('',#133,#133,#115,.T.);
#158=EDGE_CURVE('',#133,#132,#88,.T.);
#159=EDGE_CURVE('',#134,#134,#116,.T.);
#160=EDGE_CURVE('',#134,#135,#89,.T.);
#161=EDGE_CURVE('',#135,#135,#117,.T.);
#162=EDGE_CURVE('',#135,#136,#90,.T.);
#163=EDGE_CURVE('',#136,#136,#118,.T.);
#164=EDGE_CURVE('',#136,#137,#91,.T.);
#165=EDGE_CURVE('',#137,#137,#119,.T.);
#166=ORIENTED_EDGE('',*,*,#138,.F.);
#167=ORIENTED_EDGE('',*,*,#139,.T.);
#168=ORIENTED_EDGE('',*,*,#140,.T.);
#169=ORIENTED_EDGE('',*,*,#139,.F.);
#170=ORIENTED_EDGE('',*,*,#141,.F.);
#171=ORIENTED_EDGE('',*,*,#138,.T.);
#172=ORIENTED_EDGE('',*,*,#142,.F.);
#173=ORIENTED_EDGE('',*,*,#143,.T.);
#174=ORIENTED_EDGE('',*,*,#141,.T.);
#175=ORIENTED_EDGE('',*,*,#143,.F.);
#176=ORIENTED_EDGE('',*,*,#142,.T.);
#177=ORIENTED_EDGE('',*,*,#144,.F.);
#178=ORIENTED_EDGE('',*,*,#145,.F.);
#179=ORIENTED_EDGE('',*,*,#146,.T.);
#180=ORIENTED_EDGE('',*,*,#144,.T.);
#181=ORIENTED_EDGE('',*,*,#146,.F.);
#182=ORIENTED_EDGE('',*,*,#147,.F.);
#183=ORIENTED_EDGE('',*,*,#145,.T.);
#184=ORIENTED_EDGE('',*,*,#148,.F.);
#185=ORIENTED_EDGE('',*,*,#149,.T.);
#186=ORIENTED_EDGE('',*,*,#147,.T.);
#187=ORIENTED_EDGE('',*,*,#149,.F.);
#188=ORIENTED_EDGE('',*,*,#148,.T.);
#189=ORIENTED_EDGE('',*,*,#150,.F.);
#190=ORIENTED_EDGE('',*,*,#151,.F.);
#191=ORIENTED_EDGE('',*,*,#152,.T.);
#192=ORIENTED_EDGE('',*,*,#150,.T.);
#193=ORIENTED_EDGE('',*,*,#152,.F.);
#194=ORIENTED_EDGE('',*,*,#153,.F.);
#195=ORIENTED_EDGE('',*,*,#151,.T.);
#196=ORIENTED_EDGE('',*,*,#154,.F.);
#197=ORIENTED_EDGE('',*,*,#155,.T.);
#198=ORIENTED_EDGE('',*,*,#153,.T.);
#199=ORIENTED_EDGE('',*,*,#155,.F.);
#200=ORIENTED_EDGE('',*,*,#154,.T.);
#201=ORIENTED_EDGE('',*,*,#156,.F.);
#202=ORIENTED_EDGE('',*,*,#157,.F.);
#203=ORIENTED_EDGE('',*,*,#158,.T.);
#204=ORIENTED_EDGE('',*,*,#156,.T.);
#205=ORIENTED_EDGE('',*,*,#158,.F.);
#206=ORIENTED_EDGE('',*,*,#157,.T.);
#207=ORIENTED_EDGE('',*,*,#159,.F.);
#208=ORIENTED_EDGE('',*,*,#159,.T.);
#209=ORIENTED_EDGE('',*,*,#160,.T.);
#210=ORIENTED_EDGE('',*,*,#161,.F.);
#211=ORIENTED_EDGE('',*,*,#160,.F.);
#212=ORIENTED_EDGE('',*,*,#161,.T.);
#213=ORIENTED_EDGE('',*,*,#162,.T.);
#214=ORIENTED_EDGE('',*,*,#163,.F.);
#215=ORIENTED_EDGE('',*,*,#162,.F.);
#216=ORIENTED_EDGE('',*,*,#163,.T.);
#217=ORIENTED_EDGE('',*,*,#164,.T.);
#218=ORIENTED_EDGE('',*,*,#165,.F.);
#219=ORIENTED_EDGE('',*,*,#164,.F.);
#220=ORIENTED_EDGE('',*,*,#140,.F.);
#221=ORIENTED_EDGE('',*,*,#165,.T.);
#222=CONICAL_SURFACE('',#257,14.4495259589279,0.26179938779915);
#223=CONICAL_SURFACE('',#286,17.2500000000213,0.785398163397378);
#224=CONICAL_SURFACE('',#290,12.2700000000001,0.261799387799089);
#225=ADVANCED_FACE('',(#38),#222,.T.);
#226=ADVANCED_FACE('',(#39,#22),#30,.T.);
#227=ADVANCED_FACE('',(#40),#15,.T.);
#228=ADVANCED_FACE('',(#41,#23),#31,.T.);
#229=ADVANCED_FACE('',(#42),#16,.T.);
#230=ADVANCED_FACE('',(#43,#24),#32,.T.);
#231=ADVANCED_FACE('',(#44),#17,.T.);
#232=ADVANCED_FACE('',(#45,#25),#33,.T.);
#233=ADVANCED_FACE('',(#46),#18,.T.);
#234=ADVANCED_FACE('',(#47,#26),#34,.T.);
#235=ADVANCED_FACE('',(#48),#19,.T.);
#236=ADVANCED_FACE('',(#49,#27),#35,.T.);
#237=ADVANCED_FACE('',(#50),#20,.T.);
#238=ADVANCED_FACE('',(#51,#28),#36,.T.);
#239=ADVANCED_FACE('',(#52),#223,.F.);
#240=ADVANCED_FACE('',(#53),#21,.F.);
#241=ADVANCED_FACE('',(#54),#224,.F.);
#242=ADVANCED_FACE('',(#55,#29),#37,.T.);
#243=CLOSED_SHELL('',(#225,#226,#227,#228,#229,#230,#231,#232,#233,#234,
#235,#236,#237,#238,#239,#240,#241,#242));
#244=DERIVED_UNIT_ELEMENT(#246,1.);
#245=DERIVED_UNIT_ELEMENT(#447,-3.);
#246=(
MASS_UNIT()
NAMED_UNIT(*)
SI_UNIT(.KILO.,.GRAM.)
);
#247=DERIVED_UNIT((#244,#245));
#248=MEASURE_REPRESENTATION_ITEM('density measure',
POSITIVE_RATIO_MEASURE(8000.),#247);
#249=PROPERTY_DEFINITION_REPRESENTATION(#254,#251);
#250=PROPERTY_DEFINITION_REPRESENTATION(#255,#252);
#251=REPRESENTATION('material name',(#253),#444);
#252=REPRESENTATION('density',(#248),#444);
#253=DESCRIPTIVE_REPRESENTATION_ITEM('Acier inoxydable',
'Acier inoxydable');
#254=PROPERTY_DEFINITION('material property','material name',#454);
#255=PROPERTY_DEFINITION('material property','density of part',#454);
#256=AXIS2_PLACEMENT_3D('placement',#377,#293,#294);
#257=AXIS2_PLACEMENT_3D('',#378,#295,#296);
#258=AXIS2_PLACEMENT_3D('',#380,#297,#298);
#259=AXIS2_PLACEMENT_3D('',#383,#300,#301);
#260=AXIS2_PLACEMENT_3D('',#384,#302,#303);
#261=AXIS2_PLACEMENT_3D('',#386,#304,#305);
#262=AXIS2_PLACEMENT_3D('',#387,#306,#307);
#263=AXIS2_PLACEMENT_3D('',#389,#308,#309);
#264=AXIS2_PLACEMENT_3D('',#391,#311,#312);
#265=AXIS2_PLACEMENT_3D('',#393,#313,#314);
#266=AXIS2_PLACEMENT_3D('',#394,#315,#316);
#267=AXIS2_PLACEMENT_3D('',#396,#317,#318);
#268=AXIS2_PLACEMENT_3D('',#398,#320,#321);
#269=AXIS2_PLACEMENT_3D('',#400,#322,#323);
#270=AXIS2_PLACEMENT_3D('',#401,#324,#325);
#271=AXIS2_PLACEMENT_3D('',#403,#326,#327);
#272=AXIS2_PLACEMENT_3D('',#405,#329,#330);
#273=AXIS2_PLACEMENT_3D('',#407,#331,#332);
#274=AXIS2_PLACEMENT_3D('',#408,#333,#334);
#275=AXIS2_PLACEMENT_3D('',#410,#335,#336);
#276=AXIS2_PLACEMENT_3D('',#412,#338,#339);
#277=AXIS2_PLACEMENT_3D('',#414,#340,#341);
#278=AXIS2_PLACEMENT_3D('',#415,#342,#343);
#279=AXIS2_PLACEMENT_3D('',#417,#344,#345);
#280=AXIS2_PLACEMENT_3D('',#419,#347,#348);
#281=AXIS2_PLACEMENT_3D('',#421,#349,#350);
#282=AXIS2_PLACEMENT_3D('',#422,#351,#352);
#283=AXIS2_PLACEMENT_3D('',#424,#353,#354);
#284=AXIS2_PLACEMENT_3D('',#426,#356,#357);
#285=AXIS2_PLACEMENT_3D('',#428,#358,#359);
#286=AXIS2_PLACEMENT_3D('',#429,#360,#361);
#287=AXIS2_PLACEMENT_3D('',#432,#363,#364);
#288=AXIS2_PLACEMENT_3D('',#433,#365,#366);
#289=AXIS2_PLACEMENT_3D('',#436,#368,#369);
#290=AXIS2_PLACEMENT_3D('',#437,#370,#371);
#291=AXIS2_PLACEMENT_3D('',#440,#373,#374);
#292=AXIS2_PLACEMENT_3D('',#441,#375,#376);
#293=DIRECTION('axis',(0.,0.,1.));
#294=DIRECTION('refdir',(1.,0.,0.));
#295=DIRECTION('center_axis',(-1.,0.,0.));
#296=DIRECTION('ref_axis',(0.,1.,0.));
#297=DIRECTION('center_axis',(1.,0.,0.));
#298=DIRECTION('ref_axis',(0.,0.,-1.));
#299=DIRECTION('',(-0.965925826289068,-0.258819045102521,-3.16961915143177E-17));
#300=DIRECTION('center_axis',(1.,0.,0.));
#301=DIRECTION('ref_axis',(0.,0.,-1.));
#302=DIRECTION('center_axis',(-1.,0.,0.));
#303=DIRECTION('ref_axis',(0.,0.,1.));
#304=DIRECTION('center_axis',(1.,0.,0.));
#305=DIRECTION('ref_axis',(0.,0.,-1.));
#306=DIRECTION('center_axis',(1.,0.,0.));
#307=DIRECTION('ref_axis',(0.,1.,0.));
#308=DIRECTION('center_axis',(1.,0.,0.));
#309=DIRECTION('ref_axis',(0.,0.,-1.));
#310=DIRECTION('',(-1.,0.,0.));
#311=DIRECTION('center_axis',(1.,0.,0.));
#312=DIRECTION('ref_axis',(0.,0.,-1.));
#313=DIRECTION('center_axis',(1.,0.,0.));
#314=DIRECTION('ref_axis',(0.,0.,-1.));
#315=DIRECTION('center_axis',(1.,0.,0.));
#316=DIRECTION('ref_axis',(0.,1.,0.));
#317=DIRECTION('center_axis',(1.,0.,0.));
#318=DIRECTION('ref_axis',(0.,0.,-1.));
#319=DIRECTION('',(-1.,0.,0.));
#320=DIRECTION('center_axis',(-1.,0.,0.));
#321=DIRECTION('ref_axis',(0.,0.,1.));
#322=DIRECTION('center_axis',(1.,0.,0.));
#323=DIRECTION('ref_axis',(0.,0.,-1.));
#324=DIRECTION('center_axis',(1.,0.,0.));
#325=DIRECTION('ref_axis',(0.,1.,0.));
#326=DIRECTION('center_axis',(1.,0.,0.));
#327=DIRECTION('ref_axis',(0.,0.,-1.));
#328=DIRECTION('',(-1.,0.,0.));
#329=DIRECTION('center_axis',(1.,0.,0.));
#330=DIRECTION('ref_axis',(0.,0.,-1.));
#331=DIRECTION('center_axis',(1.,0.,0.));
#332=DIRECTION('ref_axis',(0.,0.,-1.));
#333=DIRECTION('center_axis',(1.,0.,0.));
#334=DIRECTION('ref_axis',(0.,1.,0.));
#335=DIRECTION('center_axis',(1.,0.,0.));
#336=DIRECTION('ref_axis',(0.,0.,-1.));
#337=DIRECTION('',(-1.,0.,0.));
#338=DIRECTION('center_axis',(-1.,0.,0.));
#339=DIRECTION('ref_axis',(0.,0.,1.));
#340=DIRECTION('center_axis',(1.,0.,0.));
#341=DIRECTION('ref_axis',(0.,0.,-1.));
#342=DIRECTION('center_axis',(1.,0.,0.));
#343=DIRECTION('ref_axis',(0.,1.,0.));
#344=DIRECTION('center_axis',(1.,0.,0.));
#345=DIRECTION('ref_axis',(0.,0.,-1.));
#346=DIRECTION('',(-1.,0.,0.));
#347=DIRECTION('center_axis',(1.,0.,0.));
#348=DIRECTION('ref_axis',(0.,0.,-1.));
#349=DIRECTION('center_axis',(1.,0.,0.));
#350=DIRECTION('ref_axis',(0.,0.,-1.));
#351=DIRECTION('center_axis',(1.,0.,0.));
#352=DIRECTION('ref_axis',(0.,1.,0.));
#353=DIRECTION('center_axis',(1.,0.,0.));
#354=DIRECTION('ref_axis',(0.,0.,-1.));
#355=DIRECTION('',(-1.,0.,0.));
#356=DIRECTION('center_axis',(1.,0.,0.));
#357=DIRECTION('ref_axis',(0.,0.,-1.));
#358=DIRECTION('center_axis',(1.,0.,0.));
#359=DIRECTION('ref_axis',(0.,0.,-1.));
#360=DIRECTION('center_axis',(1.,0.,0.));
#361=DIRECTION('ref_axis',(0.,1.,0.));
#362=DIRECTION('',(-0.707106781186598,0.707106781186498,8.65956056235432E-17));
#363=DIRECTION('center_axis',(1.,0.,0.));
#364=DIRECTION('ref_axis',(0.,0.,-1.));
#365=DIRECTION('center_axis',(1.,0.,0.));
#366=DIRECTION('ref_axis',(0.,1.,0.));
#367=DIRECTION('',(-1.,0.,0.));
#368=DIRECTION('center_axis',(1.,0.,0.));
#369=DIRECTION('ref_axis',(0.,0.,-1.));
#370=DIRECTION('center_axis',(-1.,0.,0.));
#371=DIRECTION('ref_axis',(0.,1.,0.));
#372=DIRECTION('',(-0.965925826289084,-0.258819045102462,-3.16961915143105E-17));
#373=DIRECTION('center_axis',(1.,0.,0.));
#374=DIRECTION('ref_axis',(0.,0.,-1.));
#375=DIRECTION('center_axis',(-1.,0.,0.));
#376=DIRECTION('ref_axis',(0.,0.,1.));
#377=CARTESIAN_POINT('',(0.,0.,0.));
#378=CARTESIAN_POINT('Origin',(-18.0648950540002,0.,0.));
#379=CARTESIAN_POINT('',(0.,-9.60905191785553,-1.17676946740425E-15));
#380=CARTESIAN_POINT('Origin',(0.,0.,0.));
#381=CARTESIAN_POINT('',(-36.1297901080003,-19.2900000000002,-2.36234367555527E-15));
#382=CARTESIAN_POINT('',(-18.0648950540002,-14.4495259589279,-1.76955657147976E-15));
#383=CARTESIAN_POINT('Origin',(-36.1297901080003,0.,0.));
#384=CARTESIAN_POINT('Origin',(0.,30.00002,0.));
#385=CARTESIAN_POINT('',(5.77315972805081E-14,-30.00002,-3.67394284673566E-15));
#386=CARTESIAN_POINT('Origin',(5.77315972805081E-14,0.,0.));
#387=CARTESIAN_POINT('Origin',(1.50000000000006,0.,0.));
#388=CARTESIAN_POINT('',(3.00000000000006,-30.00002,-3.67394284673566E-15));
#389=CARTESIAN_POINT('Origin',(3.00000000000006,0.,0.));
#390=CARTESIAN_POINT('',(1.50000000000006,-30.00002,-3.67394284673566E-15));
#391=CARTESIAN_POINT('Origin',(3.00000000000019,27.9999900000124,0.));
#392=CARTESIAN_POINT('',(3.00000000000019,-27.9999900000124,-3.42900981296731E-15));
#393=CARTESIAN_POINT('Origin',(3.00000000000019,0.,0.));
#394=CARTESIAN_POINT('Origin',(4.58500000000019,0.,0.));
#395=CARTESIAN_POINT('',(6.17000000000019,-27.9999900000124,-3.42900981296731E-15));
#396=CARTESIAN_POINT('Origin',(6.17000000000019,0.,0.));
#397=CARTESIAN_POINT('',(4.58500000000019,-27.9999900000124,-3.42900981296731E-15));
#398=CARTESIAN_POINT('Origin',(6.1700000000008,30.00001,0.));
#399=CARTESIAN_POINT('',(6.1700000000008,-30.00001,-3.67394162208886E-15));
#400=CARTESIAN_POINT('Origin',(6.1700000000008,0.,0.));
#401=CARTESIAN_POINT('Origin',(7.6700000000008,0.,0.));
#402=CARTESIAN_POINT('',(9.1700000000008,-30.00001,-3.67394162208886E-15));
#403=CARTESIAN_POINT('Origin',(9.1700000000008,0.,0.));
#404=CARTESIAN_POINT('',(7.6700000000008,-30.00001,-3.67394162208886E-15));
#405=CARTESIAN_POINT('Origin',(9.17000000000122,28.0000000000125,0.));
#406=CARTESIAN_POINT('',(9.17000000000122,-28.0000000000062,-3.42901103761335E-15));
#407=CARTESIAN_POINT('Origin',(9.17000000000122,0.,0.));
#408=CARTESIAN_POINT('Origin',(10.7550000000012,0.,0.));
#409=CARTESIAN_POINT('',(12.3400000000012,-28.0000000000062,-3.42901103761335E-15));
#410=CARTESIAN_POINT('Origin',(12.3400000000012,0.,0.));
#411=CARTESIAN_POINT('',(10.7550000000012,-28.0000000000062,-3.42901103761335E-15));
#412=CARTESIAN_POINT('Origin',(12.3400000000015,30.,0.));
#413=CARTESIAN_POINT('',(12.3400000000015,-30.,-3.67394039744206E-15));
#414=CARTESIAN_POINT('Origin',(12.3400000000015,0.,0.));
#415=CARTESIAN_POINT('Origin',(13.8400000000015,0.,0.));
#416=CARTESIAN_POINT('',(15.3400000000015,-30.,-3.67394039744206E-15));
#417=CARTESIAN_POINT('Origin',(15.3400000000015,0.,0.));
#418=CARTESIAN_POINT('',(13.8400000000015,-30.,-3.67394039744206E-15));
#419=CARTESIAN_POINT('Origin',(15.3400000000015,29.,0.));
#420=CARTESIAN_POINT('',(15.3400000000015,-29.0000000000624,-3.55147571753497E-15));
#421=CARTESIAN_POINT('Origin',(15.3400000000015,0.,0.));
#422=CARTESIAN_POINT('Origin',(19.3400000000013,0.,0.));
#423=CARTESIAN_POINT('',(23.3400000000011,-29.0000000000624,-3.55147571753497E-15));
#424=CARTESIAN_POINT('Origin',(23.3400000000011,0.,0.));
#425=CARTESIAN_POINT('',(19.3400000000013,-29.0000000000624,-3.55147571753497E-15));
#426=CARTESIAN_POINT('Origin',(23.3400000000466,27.2500000000427,0.));
#427=CARTESIAN_POINT('',(23.3400000000466,-27.2500000000427,-3.33716252768176E-15));
#428=CARTESIAN_POINT('Origin',(23.3400000000466,0.,0.));
#429=CARTESIAN_POINT('Origin',(13.3400000000239,0.,0.));
#430=CARTESIAN_POINT('',(3.34000000000111,-7.25,-8.87868929381831E-16));
#431=CARTESIAN_POINT('',(13.3400000000239,-17.2500000000213,-2.1125157285318E-15));
#432=CARTESIAN_POINT('Origin',(3.34000000000111,0.,0.));
#433=CARTESIAN_POINT('Origin',(2.34000000000111,0.,0.));
#434=CARTESIAN_POINT('',(1.34000000000111,-7.25,-8.87868929381831E-16));
#435=CARTESIAN_POINT('',(2.34000000000111,-7.25,-8.87868929381831E-16));
#436=CARTESIAN_POINT('Origin',(1.34000000000111,0.,0.));
#437=CARTESIAN_POINT('Origin',(-17.3948950539996,0.,0.));
#438=CARTESIAN_POINT('',(-36.1297901080003,-17.2900000000002,-2.1174143157258E-15));
#439=CARTESIAN_POINT('',(-17.3948950539996,-12.2700000000001,-1.50264162255381E-15));
#440=CARTESIAN_POINT('Origin',(-36.1297901080003,0.,0.));
#441=CARTESIAN_POINT('Origin',(-36.1297901080003,19.2900000000002,0.));
#442=UNCERTAINTY_MEASURE_WITH_UNIT(LENGTH_MEASURE(0.01),#446,
'DISTANCE_ACCURACY_VALUE',
'Maximum model space distance between geometric entities at asserted c
onnectivities');
#443=UNCERTAINTY_MEASURE_WITH_UNIT(LENGTH_MEASURE(0.01),#446,
'DISTANCE_ACCURACY_VALUE',
'Maximum model space distance between geometric entities at asserted c
onnectivities');
#444=(
GEOMETRIC_REPRESENTATION_CONTEXT(3)
GLOBAL_UNCERTAINTY_ASSIGNED_CONTEXT((#442))
GLOBAL_UNIT_ASSIGNED_CONTEXT((#446,#448,#449))
REPRESENTATION_CONTEXT('','3D')
);
#445=(
GEOMETRIC_REPRESENTATION_CONTEXT(3)
GLOBAL_UNCERTAINTY_ASSIGNED_CONTEXT((#443))
GLOBAL_UNIT_ASSIGNED_CONTEXT((#446,#448,#449))
REPRESENTATION_CONTEXT('','3D')
);
#446=(
LENGTH_UNIT()
NAMED_UNIT(*)
SI_UNIT(.MILLI.,.METRE.)
);
#447=(
LENGTH_UNIT()
NAMED_UNIT(*)
SI_UNIT($,.METRE.)
);
#448=(
NAMED_UNIT(*)
PLANE_ANGLE_UNIT()
SI_UNIT($,.RADIAN.)
);
#449=(
NAMED_UNIT(*)
SI_UNIT($,.STERADIAN.)
SOLID_ANGLE_UNIT()
);
#450=SHAPE_DEFINITION_REPRESENTATION(#451,#452);
#451=PRODUCT_DEFINITION_SHAPE('',$,#454);
#452=SHAPE_REPRESENTATION('',(#256),#444);
#453=PRODUCT_DEFINITION_CONTEXT('part definition',#458,'design');
#454=PRODUCT_DEFINITION('FusionComponent','FusionComponent',#455,#453);
#455=PRODUCT_DEFINITION_FORMATION('',$,#460);
#456=PRODUCT_RELATED_PRODUCT_CATEGORY('FusionComponent',
'FusionComponent',(#460));
#457=APPLICATION_PROTOCOL_DEFINITION('international standard',
'automotive_design',2009,#458);
#458=APPLICATION_CONTEXT(
'Core Data for Automotive Mechanical Design Process');
#459=PRODUCT_CONTEXT('part definition',#458,'mechanical');
#460=PRODUCT('FusionComponent','FusionComponent',$,(#459));
#461=PRESENTATION_STYLE_ASSIGNMENT((#462));
#462=SURFACE_STYLE_USAGE(.BOTH.,#463);
#463=SURFACE_SIDE_STYLE('',(#464));
#464=SURFACE_STYLE_FILL_AREA(#465);
#465=FILL_AREA_STYLE('Acier inoxydable - Satin\X\E9',(#466));
#466=FILL_AREA_STYLE_COLOUR('Acier inoxydable - Satin\X\E9',#467);
#467=COLOUR_RGB('Acier inoxydable - Satin\X\E9',0.796078431372549,0.796078431372549,
0.796078431372549);
ENDSEC;
END-ISO-10303-21;
