ISO-10303-21;
HEADER;
/* Generated by software containing ST-Developer
 * from STEP Tools, Inc. (www.steptools.com) 
 */

FILE_DESCRIPTION(
/* description */ (''),
/* implementation_level */ '2;1');

FILE_NAME(
/* name */ 'Rotule Bronze.step',
/* time_stamp */ '2023-02-14T00:00:14+01:00',
/* author */ (''),
/* organization */ (''),
/* preprocessor_version */ 'ST-DEVELOPER v19.2',
/* originating_system */ 'Autodesk Translation Framework v11.17.0.187',

/* authorisation */ '');

FILE_SCHEMA (('AUTOMOTIVE_DESIGN { 1 0 10303 214 3 1 1 }'));
ENDSEC;

DATA;
#10=MECHANICAL_DESIGN_GEOMETRIC_PRESENTATION_REPRESENTATION('',(#13),#116);
#11=SHAPE_REPRESENTATION_RELATIONSHIP('SRR','None',#123,#12);
#12=ADVANCED_BREP_SHAPE_REPRESENTATION('',(#14),#115);
#13=STYLED_ITEM('',(#132),#14);
#14=MANIFOLD_SOLID_BREP('Corps1',#58);
#15=FACE_BOUND('',#28,.T.);
#16=PLANE('',#78);
#17=PLANE('',#79);
#18=LINE('',#109,#19);
#19=VECTOR('',#92,10.95);
#20=CYLINDRICAL_SURFACE('',#75,10.95);
#21=FACE_OUTER_BOUND('',#25,.T.);
#22=FACE_OUTER_BOUND('',#26,.T.);
#23=FACE_OUTER_BOUND('',#27,.T.);
#24=FACE_OUTER_BOUND('',#29,.T.);
#25=EDGE_LOOP('',(#43,#44,#45));
#26=EDGE_LOOP('',(#46,#47,#48,#49));
#27=EDGE_LOOP('',(#50));
#28=EDGE_LOOP('',(#51));
#29=EDGE_LOOP('',(#52));
#30=CIRCLE('',#73,10.);
#31=CIRCLE('',#74,10.);
#32=CIRCLE('',#76,10.95);
#33=CIRCLE('',#77,10.95);
#34=VERTEX_POINT('',#101);
#35=VERTEX_POINT('',#103);
#36=VERTEX_POINT('',#106);
#37=VERTEX_POINT('',#108);
#38=EDGE_CURVE('',#34,#34,#30,.T.);
#39=EDGE_CURVE('',#35,#34,#31,.T.);
#40=EDGE_CURVE('',#36,#36,#32,.T.);
#41=EDGE_CURVE('',#36,#37,#18,.T.);
#42=EDGE_CURVE('',#37,#37,#33,.T.);
#43=ORIENTED_EDGE('',*,*,#38,.F.);
#44=ORIENTED_EDGE('',*,*,#39,.F.);
#45=ORIENTED_EDGE('',*,*,#39,.T.);
#46=ORIENTED_EDGE('',*,*,#40,.F.);
#47=ORIENTED_EDGE('',*,*,#41,.T.);
#48=ORIENTED_EDGE('',*,*,#42,.T.);
#49=ORIENTED_EDGE('',*,*,#41,.F.);
#50=ORIENTED_EDGE('',*,*,#40,.T.);
#51=ORIENTED_EDGE('',*,*,#38,.T.);
#52=ORIENTED_EDGE('',*,*,#42,.F.);
#53=SPHERICAL_SURFACE('',#72,10.);
#54=ADVANCED_FACE('',(#21),#53,.F.);
#55=ADVANCED_FACE('',(#22),#20,.T.);
#56=ADVANCED_FACE('',(#23,#15),#16,.T.);
#57=ADVANCED_FACE('',(#24),#17,.F.);
#58=CLOSED_SHELL('',(#54,#55,#56,#57));
#59=DERIVED_UNIT_ELEMENT(#61,1.);
#60=DERIVED_UNIT_ELEMENT(#118,-3.);
#61=(
MASS_UNIT()
NAMED_UNIT(*)
SI_UNIT(.KILO.,.GRAM.)
);
#62=DERIVED_UNIT((#59,#60));
#63=MEASURE_REPRESENTATION_ITEM('density measure',
POSITIVE_RATIO_MEASURE(7850.),#62);
#64=PROPERTY_DEFINITION_REPRESENTATION(#69,#66);
#65=PROPERTY_DEFINITION_REPRESENTATION(#70,#67);
#66=REPRESENTATION('material name',(#68),#115);
#67=REPRESENTATION('density',(#63),#115);
#68=DESCRIPTIVE_REPRESENTATION_ITEM('Acier','Acier');
#69=PROPERTY_DEFINITION('material property','material name',#125);
#70=PROPERTY_DEFINITION('material property','density of part',#125);
#71=AXIS2_PLACEMENT_3D('placement',#99,#80,#81);
#72=AXIS2_PLACEMENT_3D('',#100,#82,#83);
#73=AXIS2_PLACEMENT_3D('',#102,#84,#85);
#74=AXIS2_PLACEMENT_3D('',#104,#86,#87);
#75=AXIS2_PLACEMENT_3D('',#105,#88,#89);
#76=AXIS2_PLACEMENT_3D('',#107,#90,#91);
#77=AXIS2_PLACEMENT_3D('',#110,#93,#94);
#78=AXIS2_PLACEMENT_3D('',#111,#95,#96);
#79=AXIS2_PLACEMENT_3D('',#112,#97,#98);
#80=DIRECTION('axis',(0.,0.,1.));
#81=DIRECTION('refdir',(1.,0.,0.));
#82=DIRECTION('center_axis',(0.,0.,1.));
#83=DIRECTION('ref_axis',(1.,0.,0.));
#84=DIRECTION('center_axis',(0.,0.,-1.));
#85=DIRECTION('ref_axis',(0.,1.,0.));
#86=DIRECTION('center_axis',(-2.22044604925031E-16,1.,0.));
#87=DIRECTION('ref_axis',(-1.,-2.22044604925031E-16,0.));
#88=DIRECTION('center_axis',(0.,0.,1.));
#89=DIRECTION('ref_axis',(1.,0.,0.));
#90=DIRECTION('center_axis',(0.,0.,1.));
#91=DIRECTION('ref_axis',(1.,0.,0.));
#92=DIRECTION('',(0.,0.,-1.));
#93=DIRECTION('center_axis',(0.,0.,1.));
#94=DIRECTION('ref_axis',(1.,0.,0.));
#95=DIRECTION('center_axis',(0.,0.,1.));
#96=DIRECTION('ref_axis',(1.,0.,0.));
#97=DIRECTION('center_axis',(0.,0.,1.));
#98=DIRECTION('ref_axis',(1.,0.,0.));
#99=CARTESIAN_POINT('',(0.,0.,0.));
#100=CARTESIAN_POINT('Origin',(-114.157907778887,12.5200248314604,2209.));
#101=CARTESIAN_POINT('',(-124.157907778887,12.5200248314604,2209.));
#102=CARTESIAN_POINT('Origin',(-114.157907778887,12.5200248314604,2209.));
#103=CARTESIAN_POINT('',(-114.157907778887,12.5200248314604,2199.));
#104=CARTESIAN_POINT('Origin',(-114.157907778887,12.5200248314604,2209.));
#105=CARTESIAN_POINT('Origin',(-114.157907778887,12.5200248314604,2195.));
#106=CARTESIAN_POINT('',(-125.107907778887,12.5200248314604,2209.));
#107=CARTESIAN_POINT('Origin',(-114.157907778887,12.5200248314604,2209.));
#108=CARTESIAN_POINT('',(-125.107907778887,12.5200248314604,2195.));
#109=CARTESIAN_POINT('',(-125.107907778887,12.5200248314604,2195.));
#110=CARTESIAN_POINT('Origin',(-114.157907778887,12.5200248314604,2195.));
#111=CARTESIAN_POINT('Origin',(-114.157907778887,12.5200248314604,2209.));
#112=CARTESIAN_POINT('Origin',(-114.157907778887,12.5200248314604,2195.));
#113=UNCERTAINTY_MEASURE_WITH_UNIT(LENGTH_MEASURE(0.01),#117,
'DISTANCE_ACCURACY_VALUE',
'Maximum model space distance between geometric entities at asserted c
onnectivities');
#114=UNCERTAINTY_MEASURE_WITH_UNIT(LENGTH_MEASURE(0.01),#117,
'DISTANCE_ACCURACY_VALUE',
'Maximum model space distance between geometric entities at asserted c
onnectivities');
#115=(
GEOMETRIC_REPRESENTATION_CONTEXT(3)
GLOBAL_UNCERTAINTY_ASSIGNED_CONTEXT((#113))
GLOBAL_UNIT_ASSIGNED_CONTEXT((#117,#119,#120))
REPRESENTATION_CONTEXT('','3D')
);
#116=(
GEOMETRIC_REPRESENTATION_CONTEXT(3)
GLOBAL_UNCERTAINTY_ASSIGNED_CONTEXT((#114))
GLOBAL_UNIT_ASSIGNED_CONTEXT((#117,#119,#120))
REPRESENTATION_CONTEXT('','3D')
);
#117=(
LENGTH_UNIT()
NAMED_UNIT(*)
SI_UNIT(.MILLI.,.METRE.)
);
#118=(
LENGTH_UNIT()
NAMED_UNIT(*)
SI_UNIT($,.METRE.)
);
#119=(
NAMED_UNIT(*)
PLANE_ANGLE_UNIT()
SI_UNIT($,.RADIAN.)
);
#120=(
NAMED_UNIT(*)
SI_UNIT($,.STERADIAN.)
SOLID_ANGLE_UNIT()
);
#121=SHAPE_DEFINITION_REPRESENTATION(#122,#123);
#122=PRODUCT_DEFINITION_SHAPE('',$,#125);
#123=SHAPE_REPRESENTATION('',(#71),#115);
#124=PRODUCT_DEFINITION_CONTEXT('part definition',#129,'design');
#125=PRODUCT_DEFINITION('FusionComponent','FusionComponent',#126,#124);
#126=PRODUCT_DEFINITION_FORMATION('',$,#131);
#127=PRODUCT_RELATED_PRODUCT_CATEGORY('FusionComponent',
'FusionComponent',(#131));
#128=APPLICATION_PROTOCOL_DEFINITION('international standard',
'automotive_design',2009,#129);
#129=APPLICATION_CONTEXT(
'Core Data for Automotive Mechanical Design Process');
#130=PRODUCT_CONTEXT('part definition',#129,'mechanical');
#131=PRODUCT('FusionComponent','FusionComponent',$,(#130));
#132=PRESENTATION_STYLE_ASSIGNMENT((#133));
#133=SURFACE_STYLE_USAGE(.BOTH.,#134);
#134=SURFACE_SIDE_STYLE('',(#135));
#135=SURFACE_STYLE_FILL_AREA(#136);
#136=FILL_AREA_STYLE('Acier - Satin\X\E9',(#137));
#137=FILL_AREA_STYLE_COLOUR('Acier - Satin\X\E9',#138);
#138=COLOUR_RGB('Acier - Satin\X\E9',0.627450980392157,0.627450980392157,
0.627450980392157);
ENDSEC;
END-ISO-10303-21;
