  0
SECTION
  2
HEADER
  9
$ACADVER
  1
AC1015
  9
$ACADMAINTVER
 70
     6
  9
$DWGCODEPAGE
  3
ANSI_1252
  9
$INSBASE
 10
0.0
 20
0.0
 30
0.0
  9
$EXTMIN
 10
-72.3039353223
 20
-175.5681983085
 30
0.0
  9
$EXTMAX
 10
74.4765372177
 20
12.2500057711
 30
0.0
  9
$LIMMIN
 10
0.0
 20
0.0
  9
$LIMMAX
 10
420.0
 20
297.0
  9
$ORTHOMODE
 70
     0
  9
$REGENMODE
 70
     1
  9
$FILLMODE
 70
     1
  9
$QTEXTMODE
 70
     0
  9
$MIRRTEXT
 70
     1
  9
$LTSCALE
 40
1.0
  9
$ATTMODE
 70
     1
  9
$TEXTSIZE
 40
3.5
  9
$TRACEWID
 40
1.0
  9
$TEXTSTYLE
  7
Standard
  9
$CLAYER
  8
0
  9
$CELTYPE
  6
ByLayer
  9
$CECOLOR
 62
   256
  9
$CELTSCALE
 40
1.0
  9
$DISPSILH
 70
     0
  9
$DIMSCALE
 40
1.0
  9
$DIMASZ
 40
3.302
  9
$DIMEXO
 40
0.0
  9
$DIMDLI
 40
3.75
  9
$DIMRND
 40
0.0
  9
$DIMDLE
 40
0.0
  9
$DIMEXE
 40
1.0
  9
$DIMTP
 40
0.0
  9
$DIMTM
 40
0.0
  9
$DIMTXT
 40
3.5
  9
$DIMCEN
 40
2.5
  9
$DIMTSZ
 40
0.0
  9
$DIMTOL
 70
     0
  9
$DIMLIM
 70
     0
  9
$DIMTIH
 70
     1
  9
$DIMTOH
 70
     1
  9
$DIMSE1
 70
     0
  9
$DIMSE2
 70
     0
  9
$DIMTAD
 70
     1
  9
$DIMZIN
 70
     1
  9
$DIMBLK
  1

  9
$DIMASO
 70
     1
  9
$DIMSHO
 70
     1
  9
$DIMPOST
  1

  9
$DIMAPOST
  1

  9
$DIMALT
 70
     0
  9
$DIMALTD
 70
     3
  9
$DIMALTF
 40
0.0393700787
  9
$DIMLFAC
 40
1.0
  9
$DIMTOFL
 70
     1
  9
$DIMTVP
 40
0.0
  9
$DIMTIX
 70
     0
  9
$DIMSOXD
 70
     0
  9
$DIMSAH
 70
     0
  9
$DIMBLK1
  1

  9
$DIMBLK2
  1

  9
$DIMSTYLE
  2
ISO-25
  9
$DIMCLRD
 70
     0
  9
$DIMCLRE
 70
     0
  9
$DIMCLRT
 70
     0
  9
$DIMTFAC
 40
1.0
  9
$DIMGAP
 40
1.524
  9
$DIMJUST
 70
     0
  9
$DIMSD1
 70
     0
  9
$DIMSD2
 70
     0
  9
$DIMTOLJ
 70
     0
  9
$DIMTZIN
 70
     1
  9
$DIMALTZ
 70
     0
  9
$DIMALTTZ
 70
     0
  9
$DIMUPT
 70
     0
  9
$DIMDEC
 70
     2
  9
$DIMTDEC
 70
     2
  9
$DIMALTU
 70
     2
  9
$DIMALTTD
 70
     3
  9
$DIMTXSTY
  7
Standard
  9
$DIMAUNIT
 70
     0
  9
$DIMADEC
 70
     2
  9
$DIMALTRND
 40
0.0
  9
$DIMAZIN
 70
     0
  9
$DIMDSEP
 70
    44
  9
$DIMATFIT
 70
     3
  9
$DIMFRAC
 70
     0
  9
$DIMLDRBLK
  1

  9
$DIMLUNIT
 70
     2
  9
$DIMLWD
 70
    -2
  9
$DIMLWE
 70
    -2
  9
$DIMTMOVE
 70
     0
  9
$LUNITS
 70
     2
  9
$LUPREC
 70
     6
  9
$SKETCHINC
 40
1.0
  9
$FILLETRAD
 40
0.0
  9
$AUNITS
 70
     0
  9
$AUPREC
 70
     2
  9
$MENU
  1
.
  9
$ELEVATION
 40
0.0
  9
$PELEVATION
 40
0.0
  9
$THICKNESS
 40
0.0
  9
$LIMCHECK
 70
     0
  9
$CHAMFERA
 40
0.0
  9
$CHAMFERB
 40
0.0
  9
$CHAMFERC
 40
0.0
  9
$CHAMFERD
 40
0.0
  9
$SKPOLY
 70
     0
  9
$TDCREATE
 40
2459958.689447049
  9
$TDUCREATE
 40
2459958.647780382
  9
$TDUPDATE
 40
2459958.689489572
  9
$TDUUPDATE
 40
2459958.647822905
  9
$TDINDWG
 40
0.0000000116
  9
$TDUSRTIMER
 40
0.0000000116
  9
$USRTIMER
 70
     1
  9
$ANGBASE
 50
0.0
  9
$ANGDIR
 70
     0
  9
$PDMODE
 70
     0
  9
$PDSIZE
 40
-1.0
  9
$PLINEWID
 40
0.0
  9
$SPLFRAME
 70
     0
  9
$SPLINETYPE
 70
     6
  9
$SPLINESEGS
 70
     8
  9
$HANDSEED
  5
12B
  9
$SURFTAB1
 70
     6
  9
$SURFTAB2
 70
     6
  9
$SURFTYPE
 70
     6
  9
$SURFU
 70
     6
  9
$SURFV
 70
     6
  9
$UCSBASE
  2

  9
$UCSNAME
  2

  9
$UCSORG
 10
0.0
 20
0.0
 30
0.0
  9
$UCSXDIR
 10
1.0
 20
0.0
 30
0.0
  9
$UCSYDIR
 10
0.0
 20
1.0
 30
0.0
  9
$UCSORTHOREF
  2

  9
$UCSORTHOVIEW
 70
     0
  9
$UCSORGTOP
 10
0.0
 20
0.0
 30
0.0
  9
$UCSORGBOTTOM
 10
0.0
 20
0.0
 30
0.0
  9
$UCSORGLEFT
 10
0.0
 20
0.0
 30
0.0
  9
$UCSORGRIGHT
 10
0.0
 20
0.0
 30
0.0
  9
$UCSORGFRONT
 10
0.0
 20
0.0
 30
0.0
  9
$UCSORGBACK
 10
0.0
 20
0.0
 30
0.0
  9
$PUCSBASE
  2

  9
$PUCSNAME
  2

  9
$PUCSORG
 10
0.0
 20
0.0
 30
0.0
  9
$PUCSXDIR
 10
1.0
 20
0.0
 30
0.0
  9
$PUCSYDIR
 10
0.0
 20
1.0
 30
0.0
  9
$PUCSORTHOREF
  2

  9
$PUCSORTHOVIEW
 70
     0
  9
$PUCSORGTOP
 10
0.0
 20
0.0
 30
0.0
  9
$PUCSORGBOTTOM
 10
0.0
 20
0.0
 30
0.0
  9
$PUCSORGLEFT
 10
0.0
 20
0.0
 30
0.0
  9
$PUCSORGRIGHT
 10
0.0
 20
0.0
 30
0.0
  9
$PUCSORGFRONT
 10
0.0
 20
0.0
 30
0.0
  9
$PUCSORGBACK
 10
0.0
 20
0.0
 30
0.0
  9
$USERI1
 70
     0
  9
$USERI2
 70
     0
  9
$USERI3
 70
     0
  9
$USERI4
 70
     0
  9
$USERI5
 70
     0
  9
$USERR1
 40
0.0
  9
$USERR2
 40
0.0
  9
$USERR3
 40
0.0
  9
$USERR4
 40
0.0
  9
$USERR5
 40
0.0
  9
$WORLDVIEW
 70
     1
  9
$SHADEDGE
 70
     3
  9
$SHADEDIF
 70
    70
  9
$TILEMODE
 70
     1
  9
$MAXACTVP
 70
    64
  9
$PINSBASE
 10
0.0
 20
0.0
 30
0.0
  9
$PLIMCHECK
 70
     0
  9
$PEXTMIN
 10
1.0000000000E+20
 20
1.0000000000E+20
 30
1.0000000000E+20
  9
$PEXTMAX
 10
-1.0000000000E+20
 20
-1.0000000000E+20
 30
-1.0000000000E+20
  9
$PLIMMIN
 10
0.0
 20
0.0
  9
$PLIMMAX
 10
420.0
 20
297.0
  9
$UNITMODE
 70
     0
  9
$VISRETAIN
 70
     1
  9
$PLINEGEN
 70
     0
  9
$PSLTSCALE
 70
     1
  9
$TREEDEPTH
 70
  3020
  9
$CMLSTYLE
  2
Standard
  9
$CMLJUST
 70
     0
  9
$CMLSCALE
 40
20.0
  9
$PROXYGRAPHICS
 70
     1
  9
$MEASUREMENT
 70
     1
  9
$CELWEIGHT
370
    -1
  9
$ENDCAPS
280
     0
  9
$JOINSTYLE
280
     0
  9
$LWDISPLAY
290
     1
  9
$INSUNITS
 70
     4
  9
$HYPERLINKBASE
  1

  9
$STYLESHEET
  1

  9
$XEDIT
290
     1
  9
$CEPSNTYPE
380
     0
  9
$PSTYLEMODE
290
     1
  9
$FINGERPRINTGUID
  2
{7f94f7ea-2943-4a5c-8519-3eddeb857ef6}
  9
$VERSIONGUID
  2
{FAEB1C32-E019-11D5-929B-00C0DF256EC4}
  9
$EXTNAMES
290
     1
  9
$PSVPSCALE
 40
0.0
  9
$OLESTARTUP
290
     0
  0
ENDSEC
  0
SECTION
  2
CLASSES
  0
CLASS
  1
ACDBDICTIONARYWDFLT
  2
AcDbDictionaryWithDefault
  3
ObjectDBX Classes
 90
        0
280
     0
281
     0
  0
CLASS
  1
VISUALSTYLE
  2
AcDbVisualStyle
  3
ObjectDBX Classes
 90
     4095
280
     0
281
     0
  0
CLASS
  1
MATERIAL
  2
AcDbMaterial
  3
ObjectDBX Classes
 90
     1153
280
     0
281
     0
  0
CLASS
  1
SCALE
  2
AcDbScale
  3
ObjectDBX Classes
 90
     1153
280
     0
281
     0
  0
CLASS
  1
TABLESTYLE
  2
AcDbTableStyle
  3
ObjectDBX Classes
 90
     4095
280
     0
281
     0
  0
CLASS
  1
MLEADERSTYLE
  2
AcDbMLeaderStyle
  3
ACDB_MLEADERSTYLE_CLASS
 90
     4095
280
     0
281
     0
  0
CLASS
  1
SUN
  2
AcDbSun
  3
SCENEOE
 90
     1153
280
     0
281
     0
  0
CLASS
  1
ACDBPLACEHOLDER
  2
AcDbPlaceHolder
  3
ObjectDBX Classes
 90
        0
280
     0
281
     0
  0
CLASS
  1
LAYOUT
  2
AcDbLayout
  3
ObjectDBX Classes
 90
        0
280
     0
281
     0
  0
ENDSEC
  0
SECTION
  2
TABLES
  0
TABLE
  2
VPORT
  5
8
330
0
100
AcDbSymbolTable
 70
     1
  0
VPORT
  5
29
330
8
100
AcDbSymbolTableRecord
100
AcDbViewportTableRecord
  2
*Active
 70
     0
 10
0.0
 20
0.0
 11
1.0
 21
1.0
 12
1.0863009477
 22
-81.6590962687
 13
0.0
 23
0.0
 14
10.0
 24
10.0
 15
10.0
 25
10.0
 16
0.0
 26
0.0
 36
1.0
 17
0.0
 27
0.0
 37
0.0
 40
191.5745681613
 41
0.7815029073
 42
50.0
 43
0.0
 44
0.0
 50
0.0
 51
0.0
 71
     0
 72
   100
 73
     1
 74
     3
 75
     0
 76
     0
 77
     0
 78
     0
281
     0
 65
     1
110
0.0
120
0.0
130
0.0
111
1.0
121
0.0
131
0.0
112
0.0
122
1.0
132
0.0
 79
     0
146
0.0
  0
ENDTAB
  0
TABLE
  2
LTYPE
  5
5
330
0
100
AcDbSymbolTable
 70
     6
  0
LTYPE
  5
14
330
5
100
AcDbSymbolTableRecord
100
AcDbLinetypeTableRecord
  2
ByBlock
 70
     0
  3

 72
    65
 73
     0
 40
0.0
  0
LTYPE
  5
15
330
5
100
AcDbSymbolTableRecord
100
AcDbLinetypeTableRecord
  2
ByLayer
 70
     0
  3

 72
    65
 73
     0
 40
0.0
  0
LTYPE
  5
16
330
5
100
AcDbSymbolTableRecord
100
AcDbLinetypeTableRecord
  2
Continuous
 70
     0
  3
Solid line
 72
    65
 73
     0
 40
0.0
  0
LTYPE
  5
5E
330
5
100
AcDbSymbolTableRecord
100
AcDbLinetypeTableRecord
  2
HIDDEN
 70
     0
  3
Hidden __ __ __ __ __ __ __ __ __ __ __ __ __ __
 72
    65
 73
     2
 40
1.905
 49
1.27
 74
     0
 49
-0.635
 74
     0
  0
LTYPE
  5
5F
330
5
100
AcDbSymbolTableRecord
100
AcDbLinetypeTableRecord
  2
PHANTOM
 70
     0
  3
Phantom ______  __  __  ______  __  __  ______
 72
    65
 73
     6
 40
12.7
 49
6.35
 74
     0
 49
-1.27
 74
     0
 49
1.27
 74
     0
 49
-1.27
 74
     0
 49
1.27
 74
     0
 49
-1.27
 74
     0
  0
LTYPE
  5
60
330
5
100
AcDbSymbolTableRecord
100
AcDbLinetypeTableRecord
  2
CENTER
 70
     0
  3
Center ____ _ ____ _ ____ _ ____ _ ____ _ ____
 72
    65
 73
     4
 40
10.16
 49
6.35
 74
     0
 49
-1.27
 74
     0
 49
1.27
 74
     0
 49
-1.27
 74
     0
  0
LTYPE
  5
61
330
5
100
AcDbSymbolTableRecord
100
AcDbLinetypeTableRecord
  2
CENTERX2
 70
     0
  3
Center (2x) ________  __  ________  __  _____
 72
    65
 73
     4
 40
20.32
 49
12.7
 74
     0
 49
-2.54
 74
     0
 49
2.54
 74
     0
 49
-2.54
 74
     0
  0
LTYPE
  5
62
330
5
100
AcDbSymbolTableRecord
100
AcDbLinetypeTableRecord
  2
DOT2
 70
     0
  3
Dot (.5x) ........................................
 72
    65
 73
     2
 40
0.635
 49
0.0
 74
     0
 49
-0.635
 74
     0
  0
ENDTAB
  0
TABLE
  2
LAYER
  5
2
330
0
100
AcDbSymbolTable
 70
     1
  0
LAYER
  5
10
330
2
100
AcDbSymbolTableRecord
100
AcDbLayerTableRecord
  2
0
 70
     0
 62
     7
  6
Continuous
370
    -3
390
F
  0
ENDTAB
  0
TABLE
  2
STYLE
  5
3
330
0
100
AcDbSymbolTable
 70
     2
  0
STYLE
  5
11
330
3
100
AcDbSymbolTableRecord
100
AcDbTextStyleTableRecord
  2
Standard
 70
     0
 40
0.0
 41
1.0
 50
0.0
 71
     0
 42
3.5
  3
txt
  4

  0
STYLE
  5
128
330
3
100
AcDbSymbolTableRecord
100
AcDbTextStyleTableRecord
  2
SLDTEXTSTYLE0
 70
     0
 40
0.0
 41
0.7
 50
0.0
 71
     0
 42
3.5
  3
TXT
  4
bigfont
  0
ENDTAB
  0
TABLE
  2
VIEW
  5
6
330
0
100
AcDbSymbolTable
 70
     0
  0
ENDTAB
  0
TABLE
  2
UCS
  5
7
330
0
100
AcDbSymbolTable
 70
     0
  0
ENDTAB
  0
TABLE
  2
APPID
  5
9
330
0
100
AcDbSymbolTable
 70
     1
  0
APPID
  5
12
330
9
100
AcDbSymbolTableRecord
100
AcDbRegAppTableRecord
  2
ACAD
 70
     0
  0
ENDTAB
  0
TABLE
  2
DIMSTYLE
  5
A
330
0
100
AcDbSymbolTable
 70
     1
100
AcDbDimStyleTable
  0
DIMSTYLE
105
27
330
A
100
AcDbSymbolTableRecord
100
AcDbDimStyleTableRecord
  2
ISO-25
 70
     0
 41
2.5
 42
0.625
 43
3.75
 44
1.25
 73
     0
 74
     0
 77
     1
 78
     8
140
2.5
141
2.5
143
0.0393700787
147
0.625
171
     3
172
     1
178
     0
271
     2
272
     2
274
     3
278
    44
283
     0
284
     8
340
11
  0
ENDTAB
  0
TABLE
  2
BLOCK_RECORD
  5
1
330
0
100
AcDbSymbolTable
 70
     1
  0
BLOCK_RECORD
  5
1F
330
1
100
AcDbSymbolTableRecord
100
AcDbBlockTableRecord
  2
*Model_Space
340
22
  0
BLOCK_RECORD
  5
1B
330
1
100
AcDbSymbolTableRecord
100
AcDbBlockTableRecord
  2
*Paper_Space
340
1E
  0
BLOCK_RECORD
  5
23
330
1
100
AcDbSymbolTableRecord
100
AcDbBlockTableRecord
  2
*Paper_Space0
340
26
  0
ENDTAB
  0
ENDSEC
  0
SECTION
  2
BLOCKS
  0
BLOCK
  5
20
330
1F
100
AcDbEntity
  8
0
100
AcDbBlockBegin
  2
*Model_Space
 70
     0
 10
0.0
 20
0.0
 30
0.0
  3
*Model_Space
  1

  0
ENDBLK
  5
21
330
1F
100
AcDbEntity
  8
0
100
AcDbBlockEnd
  0
BLOCK
  5
1C
330
1B
100
AcDbEntity
 67
     1
  8
0
100
AcDbBlockBegin
  2
*Paper_Space
 70
     0
 10
0.0
 20
0.0
 30
0.0
  3
*Paper_Space
  1

  0
ENDBLK
  5
1D
330
1B
100
AcDbEntity
 67
     1
  8
0
100
AcDbBlockEnd
  0
BLOCK
  5
24
330
23
100
AcDbEntity
  8
0
100
AcDbBlockBegin
  2
*Paper_Space0
 70
     0
 10
0.0
 20
0.0
 30
0.0
  3
*Paper_Space0
  1

  0
ENDBLK
  5
25
330
23
100
AcDbEntity
  8
0
100
AcDbBlockEnd
  0
ENDSEC
  0
SECTION
  2
ENTITIES
  0
SPLINE
  5
63
330
1F
100
AcDbEntity
  8
0
  6
Continuous
 62
     7
370
    25
100
AcDbSpline
210
0.0
220
0.0
230
1.0
 70
     8
 71
     3
 72
    11
 73
     7
 74
     0
 42
0.00000001
 43
0.00000001
 40
0.0
 40
0.0
 40
0.0
 40
0.0
 40
0.2239421576716922
 40
0.4606607144328563
 40
0.705777043741279
 40
1.0
 40
1.0
 40
1.0
 40
1.0
 10
9.568818736967012
 20
-124.2839059664235
 30
0.0
 10
9.543628507688732
 20
-124.280168493386
 30
0.0
 10
9.491810890422261
 20
-124.2724803161462
 30
0.0
 10
9.412199857520402
 20
-124.259869466291
 30
0.0
 10
9.329210256573152
 20
-124.2288179647539
 30
0.0
 10
9.271448279570992
 20
-124.2082051846598
 30
0.0
 10
9.239937688579916
 20
-124.1969604019074
 30
0.0
  0
CIRCLE
  5
7E
330
1F
100
AcDbEntity
  8
0
  6
Continuous
 62
     7
370
    25
100
AcDbCircle
 10
-6.3743572182
 20
0.0
 30
0.0
 40
3.099999999999999
  0
CIRCLE
  5
7F
330
1F
100
AcDbEntity
  8
0
  6
Continuous
 62
     7
370
    25
100
AcDbCircle
 10
59.6256427818
 20
0.0
 30
0.0
 40
3.09999999999998
  0
CIRCLE
  5
93
330
1F
100
AcDbEntity
  8
0
  6
Continuous
 62
     7
370
    25
100
AcDbCircle
 10
6.4335594072
 20
-162.4956555596
 30
0.0
 40
3.100000000000045
  0
CIRCLE
  5
94
330
1F
100
AcDbEntity
  8
0
  6
Continuous
 62
     7
370
    25
100
AcDbCircle
 10
-32.304251315
 20
2.2500057711
 30
0.0
 40
3.000000000000004
  0
CIRCLE
  5
95
330
1F
100
AcDbEntity
  8
0
  6
Continuous
 62
     7
370
    25
100
AcDbCircle
 10
17.4117284481
 20
-155.5329115236
 30
0.0
 40
2.5
  0
SPLINE
  5
AA
330
1F
100
AcDbEntity
  8
0
  6
Continuous
 62
     7
370
    25
100
AcDbSpline
210
0.0
220
0.0
230
1.0
 70
     8
 71
     3
 72
    15
 73
    11
 74
     0
 42
0.00000001
 43
0.00000001
 40
0.0
 40
0.0
 40
0.0
 40
0.0
 40
0.1373108358954918
 40
0.2665965831540958
 40
0.3898501451517477
 40
0.5103686296218168
 40
0.6286606609674815
 40
0.7467563272272096
 40
0.8704371125578569
 40
1.0
 40
1.0
 40
1.0
 40
1.0
 10
11.14895986599927
 20
-123.5391983051332
 30
0.0
 10
11.09713004190008
 20
-123.6055776906205
 30
0.0
 10
10.99649957147721
 20
-123.7344569392782
 30
0.0
 10
10.83126083378419
 20
-123.9087774034892
 30
0.0
 10
10.64583096544112
 20
-124.044065209587
 30
0.0
 10
10.45387366800358
 20
-124.1574333346551
 30
0.0
 10
10.2465879512211
 20
-124.2308500541767
 30
0.0
 10
10.03143238318203
 20
-124.2824834695813
 30
0.0
 10
9.803225393356358
 20
-124.301375630116
 30
0.0
 10
9.648154898866666
 20
-124.2898186656975
 30
0.0
 10
9.568818736967012
 20
-124.2839059664235
 30
0.0
  0
SPLINE
  5
AB
330
1F
100
AcDbEntity
  8
0
  6
Continuous
 62
     7
370
    25
100
AcDbSpline
210
0.0
220
0.0
230
1.0
 70
     8
 71
     3
 72
    11
 73
     7
 74
     0
 42
0.00000001
 43
0.00000001
 40
0.0
 40
0.0
 40
0.0
 40
0.0
 40
0.3494960151487198
 40
0.6319551528065793
 40
0.8493527656920994
 40
0.9999999999999999
 40
0.9999999999999999
 40
0.9999999999999999
 40
0.9999999999999999
 10
14.54739736599927
 20
-122.6773031438429
 30
0.0
 10
14.65329147568609
 20
-122.7073542784711
 30
0.0
 10
14.84476813169307
 20
-122.7616924355681
 30
0.0
 10
15.10149026516912
 20
-122.8372386618812
 30
0.0
 10
15.30152697088814
 20
-122.8821703501853
 30
0.0
 10
15.41554594238332
 20
-122.9031079966138
 30
0.0
 10
15.46221591438637
 20
-122.9116781438429
 30
0.0
  0
SPLINE
  5
AC
330
1F
100
AcDbEntity
  8
0
  6
Continuous
 62
     7
370
    25
100
AcDbSpline
210
0.0
220
0.0
230
1.0
 70
     8
 71
     3
 72
    11
 73
     7
 74
     0
 42
0.00000001
 43
0.00000001
 40
0.0
 40
0.0
 40
0.0
 40
0.0
 40
0.2203032718615756
 40
0.4591204412400599
 40
0.7191913332855744
 40
1.0
 40
1.0
 40
1.0
 40
1.0
 10
6.892407446644431
 20
-110.7922224986816
 30
0.0
 10
6.998526963215383
 20
-110.8057618282798
 30
0.0
 10
7.219684092932691
 20
-110.8339783088011
 30
0.0
 10
7.560549931904696
 20
-110.9104599316786
 30
0.0
 10
7.927998684391595
 20
-111.001630237965
 30
0.0
 10
8.176963014919586
 20
-111.085250739953
 30
0.0
 10
8.306217930515398
 20
-111.1286640309397
 30
0.0
  0
SPLINE
  5
AF
330
1F
100
AcDbEntity
  8
0
  6
Continuous
 62
     7
370
    25
100
AcDbSpline
210
0.0
220
0.0
230
1.0
 70
     8
 71
     3
 72
    11
 73
     7
 74
     0
 42
0.00000001
 43
0.00000001
 40
0.0
 40
0.0
 40
0.0
 40
0.0
 40
0.3404244161821741
 40
0.6200177865607769
 40
0.8423390219824919
 40
1.0
 40
1.0
 40
1.0
 40
1.0
 10
7.122331600395006
 20
-135.1380075497861
 30
0.0
 10
7.20921617412822
 20
-135.1659117404117
 30
0.0
 10
7.367459762224784
 20
-135.2167338720951
 30
0.0
 10
7.583269710171795
 20
-135.2833131776326
 30
0.0
 10
7.755215556823613
 20
-135.3252701126757
 30
0.0
 10
7.855621211224095
 20
-135.3425368429038
 30
0.0
 10
7.897281197169201
 20
-135.3497010981732
 30
0.0
  0
SPLINE
  5
B1
330
1F
100
AcDbEntity
  8
0
  6
Continuous
 62
     7
370
    25
100
AcDbSpline
210
0.0
220
0.0
230
1.0
 70
     8
 71
     3
 72
    15
 73
    11
 74
     0
 42
0.00000001
 43
0.00000001
 40
0.0
 40
0.0
 40
0.0
 40
0.0
 40
0.1108370922544137
 40
0.206791544504815
 40
0.2906884812880719
 40
0.3733800970977694
 40
0.4777540181144137
 40
0.6150189247645895
 40
0.7900228084759898
 40
1.0
 40
1.0
 40
1.0
 40
1.0
 10
13.88518442297565
 20
-137.3418885981732
 30
0.0
 10
13.95838297294887
 20
-137.3467847588818
 30
0.0
 10
14.09495134457063
 20
-137.3559196487863
 30
0.0
 10
14.28525497248725
 20
-137.31538475499
 30
0.0
 10
14.43929454744453
 20
-137.2294533890861
 30
0.0
 10
14.55542077033236
 20
-137.0885770309343
 30
0.0
 10
14.63264567772397
 20
-136.8873287208401
 30
0.0
 10
14.70890797396014
 20
-136.6234685331218
 30
0.0
 10
14.76932636007314
 20
-136.2836885170963
 30
0.0
 10
14.79896070957932
 20
-136.03156802721
 30
0.0
 10
14.81512393910468
 20
-135.8940559368829
 30
0.0
  0
SPLINE
  5
B2
330
1F
100
AcDbEntity
  8
0
  6
Continuous
 62
     7
370
    25
100
AcDbSpline
210
0.0
220
0.0
230
1.0
 70
     8
 71
     3
 72
    15
 73
    11
 74
     0
 42
0.00000001
 43
0.00000001
 40
0.0
 40
0.0
 40
0.0
 40
0.0
 40
0.117693751965615
 40
0.2181610866487268
 40
0.3064415952656885
 40
0.3910577465559647
 40
0.4920432799111677
 40
0.6270718290119589
 40
0.7952586216390566
 40
1.0
 40
1.0
 40
1.0
 40
1.0
 10
9.7698421638616
 20
-100.0137257540287
 30
0.0
 10
9.691697200144088
 20
-100.0076372500925
 30
0.0
 10
9.54684507404551
 20
-99.99635139495913
 30
0.0
 10
9.34366651148254
 20
-100.0321647715516
 30
0.0
 10
9.179330323657627
 20
-100.1171660228557
 30
0.0
 10
9.05586125219463
 20
-100.2559651166983
 30
0.0
 10
8.97163143091985
 20
-100.4534602731047
 30
0.0
 10
8.893298285309253
 20
-100.7103027774706
 30
0.0
 10
8.83238529927551
 20
-101.042841436098
 30
0.0
 10
8.803072362561423
 20
-101.288749793694
 30
0.0
 10
8.78697926063579
 20
-101.4237559959642
 30
0.0
  0
SPLINE
  5
B3
330
1F
100
AcDbEntity
  8
0
  6
Continuous
 62
     7
370
    25
100
AcDbSpline
210
0.0
220
0.0
230
1.0
 70
     8
 71
     3
 72
    15
 73
    11
 74
     0
 42
0.00000001
 43
0.00000001
 40
0.0
 40
0.0
 40
0.0
 40
0.0
 40
0.1159649748073696
 40
0.2355896175020438
 40
0.3622839163737891
 40
0.4984692480612516
 40
0.6354184020557577
 40
0.7641132609450395
 40
0.884181979124381
 40
0.9999999999999999
 40
0.9999999999999999
 40
0.9999999999999999
 40
0.9999999999999999
 10
14.41953974450676
 20
-110.946185431448
 30
0.0
 10
14.32503934295552
 20
-110.9124991467038
 30
0.0
 10
14.13305625933716
 20
-110.8440634923079
 30
0.0
 10
13.86171413836493
 20
-110.6844448288395
 30
0.0
 10
13.60416774487276
 20
-110.4764712604437
 30
0.0
 10
13.35977385805758
 20
-110.231600506384
 30
0.0
 10
13.14144691415568
 20
-109.9610710535251
 30
0.0
 10
12.95840520011251
 20
-109.6820955839322
 30
0.0
 10
12.81854674054256
 20
-109.3986211020537
 30
0.0
 10
12.75647027756425
 20
-109.2043654338252
 30
0.0
 10
12.72599135740999
 20
-109.1089878508029
 30
0.0
  0
SPLINE
  5
B4
330
1F
100
AcDbEntity
  8
0
  6
Continuous
 62
     7
370
    25
100
AcDbSpline
210
0.0
220
0.0
230
1.0
 70
     8
 71
     3
 72
    15
 73
    11
 74
     0
 42
0.00000001
 43
0.00000001
 40
0.0
 40
0.0
 40
0.0
 40
0.0
 40
0.1108370922544138
 40
0.2067915445048135
 40
0.2906884812880698
 40
0.3733800970977673
 40
0.4777540181144108
 40
0.6150189247645853
 40
0.7900228084759844
 40
1.0
 40
1.0
 40
1.0
 40
1.0
 10
17.03924740579708
 20
-108.4814676895126
 30
0.0
 10
17.11244595577031
 20
-108.4863638502212
 30
0.0
 10
17.24901432739206
 20
-108.4954987401256
 30
0.0
 10
17.43931795530867
 20
-108.4549638463294
 30
0.0
 10
17.59335753026596
 20
-108.3690324804254
 30
0.0
 10
17.70948375315379
 20
-108.2281561222737
 30
0.0
 10
17.7867086605454
 20
-108.0269078121794
 30
0.0
 10
17.86297095678157
 20
-107.7630476244612
 30
0.0
 10
17.92338934289457
 20
-107.4232676084356
 30
0.0
 10
17.95302369240076
 20
-107.1711471185493
 30
0.0
 10
17.96918692192611
 20
-107.0336350282222
 30
0.0
  0
SPLINE
  5
B6
330
1F
100
AcDbEntity
  8
0
  6
Continuous
 62
     7
370
    25
100
AcDbSpline
210
0.0
220
0.0
230
1.0
 70
     8
 71
     3
 72
    15
 73
    11
 74
     0
 42
0.00000001
 43
0.00000001
 40
0.0
 40
0.0
 40
0.0
 40
0.0
 40
0.157178932783326
 40
0.2878818265423497
 40
0.3981816266497581
 40
0.4961327590588315
 40
0.5939890082046834
 40
0.7037752760474467
 40
0.8351103733747063
 40
1.0
 40
1.0
 40
1.0
 40
1.0
 10
16.66433284987024
 20
-118.9499845954558
 30
0.0
 10
16.6788318821788
 20
-118.7913730670736
 30
0.0
 10
16.7053876541908
 20
-118.5008673632063
 30
0.0
 10
16.69815558035619
 20
-118.0968484267656
 30
0.0
 10
16.6404958268034
 20
-117.7558065223067
 30
0.0
 10
16.50644769928349
 20
-117.471318511659
 30
0.0
 10
16.29663540991217
 20
-117.2386990798148
 30
0.0
 10
16.0111499461918
 20
-117.0442920941418
 30
0.0
 10
15.63813091383629
 20
-116.8682423678373
 30
0.0
 10
15.35270008355108
 20
-116.7752082968846
 30
0.0
 10
15.19381873696701
 20
-116.7234220954558
 30
0.0
  0
SPLINE
  5
B7
330
1F
100
AcDbEntity
  8
0
  6
Continuous
 62
     7
370
    25
100
AcDbSpline
210
0.0
220
0.0
230
1.0
 70
     8
 71
     3
 72
    15
 73
    11
 74
     0
 42
0.00000001
 43
0.00000001
 40
0.0
 40
0.0
 40
0.0
 40
0.0
 40
0.1183780103606522
 40
0.227149988837566
 40
0.3288253479738468
 40
0.4346142274688142
 40
0.548652728903991
 40
0.6811406849796426
 40
0.8300014391591568
 40
1.0
 40
1.0
 40
1.0
 40
1.0
 10
9.474312688579916
 20
-120.9194906438429
 30
0.0
 10
9.52234828393025
 20
-120.923494206591
 30
0.0
 10
9.614521525517864
 20
-120.9311764545927
 30
0.0
 10
9.745513720129608
 20
-120.8984282187665
 30
0.0
 10
9.861080987488439
 20
-120.8405385077225
 30
0.0
 10
9.956245023836777
 20
-120.7496426279692
 30
0.0
 10
10.0385226525241
 20
-120.6320753008251
 30
0.0
 10
10.0993355478489
 20
-120.4832005032651
 30
0.0
 10
10.15034423798835
 20
-120.3073064398106
 30
0.0
 10
10.16555036252896
 20
-120.1789510364828
 30
0.0
 10
10.17365744664443
 20
-120.1105188696494
 30
0.0
  0
SPLINE
  5
B8
330
1F
100
AcDbEntity
  8
0
  6
Continuous
 62
     7
370
    25
100
AcDbSpline
210
0.0
220
0.0
230
1.0
 70
     8
 71
     3
 72
    19
 73
    15
 74
     0
 42
0.00000001
 43
0.00000001
 40
0.0
 40
0.0
 40
0.0
 40
0.0
 40
0.0891810200220089
 40
0.1694254417021338
 40
0.2407198675410781
 40
0.3019831194347389
 40
0.4064842681556541
 40
0.4998258006102597
 40
0.5921743993148645
 40
0.6968772085896671
 40
0.757820812826366
 40
0.8290823563086508
 40
0.9098604852067409
 40
1.0
 40
1.0
 40
1.0
 40
1.0
 10
12.83872801116056
 20
-120.3448938696493
 30
0.0
 10
12.82971127701525
 20
-120.4343307678494
 30
0.0
 10
12.81258135222966
 20
-120.6042423250201
 30
0.0
 10
12.79126099229574
 20
-120.8460963475155
 30
0.0
 10
12.78692070334126
 20
-121.060592278201
 30
0.0
 10
12.7764506087305
 20
-121.2995196152652
 30
0.0
 10
12.8069378313345
 20
-121.560567829915
 30
0.0
 10
12.9019405279573
 20
-121.8417950309162
 30
0.0
 10
13.09509043247957
 20
-122.0709318225909
 30
0.0
 10
13.31981256441128
 20
-122.2065437369298
 30
0.0
 10
13.53502020385366
 20
-122.310054747654
 30
0.0
 10
13.73671775122297
 20
-122.3842550834564
 30
0.0
 10
13.96156453443912
 20
-122.4795365779494
 30
0.0
 10
14.12484438273468
 20
-122.5347677549118
 30
0.0
 10
14.21095583374121
 20
-122.5638958857784
 30
0.0
  0
SPLINE
  5
B9
330
1F
100
AcDbEntity
  8
0
  6
Continuous
 62
     7
370
    25
100
AcDbSpline
210
0.0
220
0.0
230
1.0
 70
     8
 71
     3
 72
    15
 73
    11
 74
     0
 42
0.00000001
 43
0.00000001
 40
0.0
 40
0.0
 40
0.0
 40
0.0
 40
0.1571789327833257
 40
0.2878818265423492
 40
0.3981816266497573
 40
0.4961327590588305
 40
0.5939890082046829
 40
0.703775276047446
 40
0.8351103733747055
 40
1.0
 40
1.0
 40
1.0
 40
1.0
 10
18.24136434128095
 20
-104.5197741411255
 30
0.0
 10
18.25586337358951
 20
-104.3611626127433
 30
0.0
 10
18.28241914560152
 20
-104.0706569088759
 30
0.0
 10
18.27518707176691
 20
-103.6666379724353
 30
0.0
 10
18.21752731821411
 20
-103.3255960679763
 30
0.0
 10
18.08347919069422
 20
-103.0411080573287
 30
0.0
 10
17.87366690132288
 20
-102.8084886254845
 30
0.0
 10
17.58818143760251
 20
-102.6140816398115
 30
0.0
 10
17.215162405247
 20
-102.4380319135069
 30
0.0
 10
16.9297315749618
 20
-102.3449978425543
 30
0.0
 10
16.77085022837773
 20
-102.2932116411255
 30
0.0
  0
SPLINE
  5
BA
330
1F
100
AcDbEntity
  8
0
  6
Continuous
 62
     7
370
    25
100
AcDbSpline
210
0.0
220
0.0
230
1.0
 70
     8
 71
     3
 72
    11
 73
     7
 74
     0
 42
0.00000001
 43
0.00000001
 40
0.0
 40
0.0
 40
0.0
 40
0.0
 40
0.2930129117846777
 40
0.5579375394945231
 40
0.7930503083351084
 40
1.0
 40
1.0
 40
1.0
 40
1.0
 10
9.054705833741206
 20
-114.6442890309397
 30
0.0
 10
8.971592475261208
 20
-114.6201835455594
 30
0.0
 10
8.813333023665665
 20
-114.5742833320861
 30
0.0
 10
8.587580227309754
 20
-114.5115758009368
 30
0.0
 10
8.38280811281585
 20
-114.4695856377027
 30
0.0
 10
8.253394918168253
 20
-114.4521150097517
 30
0.0
 10
8.192810672450884
 20
-114.443936208359
 30
0.0
  0
SPLINE
  5
BB
330
1F
100
AcDbEntity
  8
0
  6
Continuous
 62
     7
370
    25
100
AcDbSpline
210
0.0
220
0.0
230
1.0
 70
     8
 71
     3
 72
    19
 73
    15
 74
     0
 42
0.00000001
 43
0.00000001
 40
0.0
 40
0.0
 40
0.0
 40
0.0
 40
0.0891810200220089
 40
0.1694254417021337
 40
0.240719867541078
 40
0.3019831194347433
 40
0.406484268155654
 40
0.4998258006102595
 40
0.5921743993148678
 40
0.6968772085896673
 40
0.7578208128263668
 40
0.8290823563086509
 40
0.9098604852067415
 40
1.0
 40
1.0
 40
1.0
 40
1.0
 10
14.41575950257127
 20
-105.914683415319
 30
0.0
 10
14.40674276842597
 20
-106.0041203135191
 30
0.0
 10
14.38961284364037
 20
-106.1740318706897
 30
0.0
 10
14.36829248370647
 20
-106.4158858931853
 30
0.0
 10
14.36395219475197
 20
-106.6303818238707
 30
0.0
 10
14.35348210014122
 20
-106.8693091609348
 30
0.0
 10
14.38396932274521
 20
-107.1303573755847
 30
0.0
 10
14.47897201936802
 20
-107.4115845765859
 30
0.0
 10
14.67212192389027
 20
-107.6407213682605
 30
0.0
 10
14.896844055822
 20
-107.7763332825995
 30
0.0
 10
15.11205169526437
 20
-107.8798442933236
 30
0.0
 10
15.31374924263368
 20
-107.954044629126
 30
0.0
 10
15.53859602584984
 20
-108.0493261236191
 30
0.0
 10
15.70187587414539
 20
-108.1045573005814
 30
0.0
 10
15.78798732515192
 20
-108.133685431448
 30
0.0
  0
SPLINE
  5
BC
330
1F
100
AcDbEntity
  8
0
  6
Continuous
 62
     7
370
    25
100
AcDbSpline
210
0.0
220
0.0
230
1.0
 70
     8
 71
     3
 72
    23
 73
    19
 74
     0
 42
0.00000001
 43
0.00000001
 40
0.0
 40
0.0
 40
0.0
 40
0.0
 40
0.1019513975203952
 40
0.1952214168914051
 40
0.2810477270808456
 40
0.3594220455400869
 40
0.4305054929322202
 40
0.4942243435503302
 40
0.5506437541116882
 40
0.6007385464181774
 40
0.6463636925710332
 40
0.6909671529755459
 40
0.735773297341965
 40
0.7818367024404224
 40
0.8307295858655285
 40
0.8827002502306165
 40
0.9386498706590497
 40
1.0
 40
1.0
 40
1.0
 40
1.0
 10
18.86065341438637
 20
-123.5127366115848
 30
0.0
 10
18.84345776129966
 20
-123.6564343413554
 30
0.0
 10
18.81053070152798
 20
-123.9315936338436
 30
0.0
 10
18.75607322253454
 20
-124.3269541686528
 30
0.0
 10
18.68707800447381
 20
-124.6859878630647
 30
0.0
 10
18.61301927519398
 20
-125.0118433162457
 30
0.0
 10
18.52855759637237
 20
-125.3024771023566
 30
0.0
 10
18.44551053337264
 20
-125.5612103946242
 30
0.0
 10
18.34601957461043
 20
-125.7819807356608
 30
0.0
 10
18.24008355483886
 20
-125.9704242261022
 30
0.0
 10
18.1218323879454
 20
-126.1319948929649
 30
0.0
 10
17.97862264104554
 20
-126.2610950361985
 30
0.0
 10
17.81813941367929
 20
-126.3680324554761
 30
0.0
 10
17.6378848522846
 20
-126.4530452690784
 30
0.0
 10
17.43590481065913
 20
-126.5087517359883
 30
0.0
 10
17.21468786509509
 20
-126.5372624498453
 30
0.0
 10
16.97405385950845
 20
-126.5451160512003
 30
0.0
 10
16.80792514125696
 20
-126.5322950669185
 30
0.0
 10
16.72103647890249
 20
-126.5255894341655
 30
0.0
  0
SPLINE
  5
BD
330
1F
100
AcDbEntity
  8
0
  6
Continuous
 62
     7
370
    25
100
AcDbSpline
210
0.0
220
0.0
230
1.0
 70
     8
 71
     3
 72
    11
 73
     7
 74
     0
 42
0.00000001
 43
0.00000001
 40
0.0
 40
0.0
 40
0.0
 40
0.0
 40
0.3494960151487205
 40
0.6319551528065789
 40
0.849352765692101
 40
1.0
 40
1.0
 40
1.0
 40
1.0
 10
16.12442885740999
 20
-108.2470926895126
 30
0.0
 10
16.2303229670968
 20
-108.2771438241408
 30
0.0
 10
16.4217996231038
 20
-108.3314819812379
 30
0.0
 10
16.67852175657983
 20
-108.4070282075508
 30
0.0
 10
16.87855846229885
 20
-108.4519598958549
 30
0.0
 10
16.99257743379404
 20
-108.4728975422834
 30
0.0
 10
17.03924740579708
 20
-108.4814676895126
 30
0.0
  0
SPLINE
  5
BE
330
1F
100
AcDbEntity
  8
0
  6
Continuous
 62
     7
370
    25
100
AcDbSpline
210
0.0
220
0.0
230
1.0
 70
     8
 71
     3
 72
    15
 73
    11
 74
     0
 42
0.00000001
 43
0.00000001
 40
0.0
 40
0.0
 40
0.0
 40
0.0
 40
0.1176937519656153
 40
0.2181610866487288
 40
0.3064415952656939
 40
0.3910577465559663
 40
0.4920432799111698
 40
0.6270718290119625
 40
0.7952586216390618
 40
1.0
 40
1.0
 40
1.0
 40
1.0
 10
8.192810672450884
 20
-114.443936208359
 30
0.0
 10
8.114665708733373
 20
-114.4378477044228
 30
0.0
 10
7.969813582634799
 20
-114.4265618492895
 30
0.0
 10
7.766635020071821
 20
-114.4623752258819
 30
0.0
 10
7.602298832246922
 20
-114.547376477186
 30
0.0
 10
7.478829760783907
 20
-114.6861755710287
 30
0.0
 10
7.39459993950914
 20
-114.8836707274351
 30
0.0
 10
7.316266793898534
 20
-115.1405132318009
 30
0.0
 10
7.255353807864794
 20
-115.4730518904284
 30
0.0
 10
7.226040871150706
 20
-115.7189602480243
 30
0.0
 10
7.209947769225076
 20
-115.8539664502945
 30
0.0
  0
SPLINE
  5
BF
330
1F
100
AcDbEntity
  8
0
  6
Continuous
 62
     7
370
    25
100
AcDbSpline
210
0.0
220
0.0
230
1.0
 70
     8
 71
     3
 72
    23
 73
    19
 74
     0
 42
0.00000001
 43
0.00000001
 40
0.0
 40
0.0
 40
0.0
 40
0.0
 40
0.1019513975203922
 40
0.1952214168914056
 40
0.2810477270808461
 40
0.3594220455400813
 40
0.4305054929322213
 40
0.4942243435503253
 40
0.5506437541116835
 40
0.6007385464181724
 40
0.6463636925710289
 40
0.690967152975546
 40
0.7357732973419615
 40
0.7818367024404218
 40
0.8307295858655274
 40
0.8827002502306163
 40
0.9386498706590488
 40
1.0
 40
1.0
 40
1.0
 40
1.0
 10
17.28362192297565
 20
-137.9429470659152
 30
0.0
 10
17.26642626988894
 20
-138.0866447956858
 30
0.0
 10
17.23349921011726
 20
-138.361804088174
 30
0.0
 10
17.17904173112382
 20
-138.7571646229832
 30
0.0
 10
17.1100465130631
 20
-139.116198317395
 30
0.0
 10
17.03598778378327
 20
-139.4420537705761
 30
0.0
 10
16.95152610496167
 20
-139.732687556687
 30
0.0
 10
16.86847904196192
 20
-139.9914208489545
 30
0.0
 10
16.76898808319971
 20
-140.2121911899912
 30
0.0
 10
16.66305206342815
 20
-140.4006346804325
 30
0.0
 10
16.54480089653467
 20
-140.5622053472952
 30
0.0
 10
16.40159114963484
 20
-140.6913054905289
 30
0.0
 10
16.24110792226855
 20
-140.7982429098063
 30
0.0
 10
16.0608533608739
 20
-140.8832557234088
 30
0.0
 10
15.8588733192484
 20
-140.9389621903185
 30
0.0
 10
15.63765637368438
 20
-140.9674729041757
 30
0.0
 10
15.39702236809773
 20
-140.9753265055306
 30
0.0
 10
15.23089364984624
 20
-140.9625055212487
 30
0.0
 10
15.14400498749178
 20
-140.9557998884958
 30
0.0
  0
SPLINE
  5
C0
330
1F
100
AcDbEntity
  8
0
  6
Continuous
 62
     7
370
    25
100
AcDbSpline
210
0.0
220
0.0
230
1.0
 70
     8
 71
     3
 72
    15
 73
    11
 74
     0
 42
0.00000001
 43
0.00000001
 40
0.0
 40
0.0
 40
0.0
 40
0.0
 40
0.1183780103606507
 40
0.227149988837562
 40
0.328825347973843
 40
0.4346142274688093
 40
0.5486527289039944
 40
0.6811406849796239
 40
0.830001439159147
 40
1.0
 40
1.0
 40
1.0
 40
1.0
 10
7.897281197169201
 20
-135.3497010981732
 30
0.0
 10
7.945316792519532
 20
-135.3537046609213
 30
0.0
 10
8.03749003410715
 20
-135.361386908923
 30
0.0
 10
8.168482228718894
 20
-135.3286386730969
 30
0.0
 10
8.28404949607772
 20
-135.2707489620528
 30
0.0
 10
8.379213532426068
 20
-135.1798530822996
 30
0.0
 10
8.46149116111337
 20
-135.0622857551554
 30
0.0
 10
8.522304056438191
 20
-134.9134109575955
 30
0.0
 10
8.573312746577628
 20
-134.7375168941409
 30
0.0
 10
8.588518871118245
 20
-134.6091614908132
 30
0.0
 10
8.596625955233716
 20
-134.5407293239797
 30
0.0
  0
SPLINE
  5
C1
330
1F
100
AcDbEntity
  8
0
  6
Continuous
 62
     7
370
    25
100
AcDbSpline
210
0.0
220
0.0
230
1.0
 70
     8
 71
     3
 72
    23
 73
    19
 74
     0
 42
0.00000001
 43
0.00000001
 40
0.0
 40
0.0
 40
0.0
 40
0.0
 40
0.1020984147564916
 40
0.1956339673327069
 40
0.2814230046658351
 40
0.3590447853935638
 40
0.4293764415633463
 40
0.4926399688503328
 40
0.5487829792458871
 40
0.5981801782429305
 40
0.6438711173426926
 40
0.6885388973899822
 40
0.733673033493983
 40
0.7798028635230224
 40
0.8285316858880426
 40
0.8815847699553037
 40
0.9385035530001481
 40
1.0
 40
1.0
 40
1.0
 40
1.0
 10
6.318481276764824
 20
-99.35218341531902
 30
0.0
 10
6.335037167603669
 20
-99.20838335573795
 30
0.0
 10
6.366760428099492
 20
-98.93284356184778
 30
0.0
 10
6.429590308881352
 20
-98.53886502275226
 30
0.0
 10
6.489950990672719
 20
-98.17952332765644
 30
0.0
 10
6.567089065712645
 20
-97.8571286551703
 30
0.0
 10
6.648528652327401
 20
-97.5687775661752
 30
0.0
 10
6.740487427720661
 20
-97.31600342222214
 30
0.0
 10
6.830912736168563
 20
-97.09391502409373
 30
0.0
 10
6.940424771938513
 20
-96.90901652638902
 30
0.0
 10
7.057382025046151
 20
-96.74839602898159
 30
0.0
 10
7.199804512004276
 20
-96.61705258928149
 30
0.0
 10
7.36559202654472
 20
-96.51797937152898
 30
0.0
 10
7.544050993322868
 20
-96.42897368474839
 30
0.0
 10
7.749364135823072
 20
-96.38102699539287
 30
0.0
 10
7.971495122535073
 20
-96.34498932937055
 30
0.0
 10
8.215398563126216
 20
-96.33823805849899
 30
0.0
 10
8.382604216100045
 20
-96.35388574768751
 30
0.0
 10
8.469438938055147
 20
-96.36201204435127
 30
0.0
  0
SPLINE
  5
C2
330
1F
100
AcDbEntity
  8
0
  6
Continuous
 62
     7
370
    25
100
AcDbSpline
210
0.0
220
0.0
230
1.0
 70
     8
 71
     3
 72
    11
 73
     7
 74
     0
 42
0.00000001
 43
0.00000001
 40
0.0
 40
0.0
 40
0.0
 40
0.0
 40
0.221412787053328
 40
0.4588802233139309
 40
0.7202609125459243
 40
1.0
 40
1.0
 40
1.0
 40
1.0
 10
16.72103647890249
 20
-126.5255894341655
 30
0.0
 10
16.61489750156117
 20
-126.5121406971873
 30
0.0
 10
16.39492340578787
 20
-126.4842680548256
 30
0.0
 10
16.05556089330805
 20
-126.406696849338
 30
0.0
 10
15.69027785230384
 20
-126.316849406598
 30
0.0
 10
15.44274954141044
 20
-126.2326670791366
 30
0.0
 10
15.3147864789025
 20
-126.1891479019074
 30
0.0
  0
SPLINE
  5
C3
330
1F
100
AcDbEntity
  8
0
  6
Continuous
 62
     7
370
    25
100
AcDbSpline
210
0.0
220
0.0
230
1.0
 70
     8
 71
     3
 72
    11
 73
     7
 74
     0
 42
0.00000001
 43
0.00000001
 40
0.0
 40
0.0
 40
0.0
 40
0.0
 40
0.2214127870533248
 40
0.458880223313926
 40
0.7202609125459236
 40
0.9999999999999999
 40
0.9999999999999999
 40
0.9999999999999999
 40
0.9999999999999999
 10
15.14400498749178
 20
-140.9557998884958
 30
0.0
 10
15.03786601015045
 20
-140.9423511515176
 30
0.0
 10
14.81789191437715
 20
-140.9144785091559
 30
0.0
 10
14.47852940189734
 20
-140.8369073036684
 30
0.0
 10
14.11324636089311
 20
-140.7470598609283
 30
0.0
 10
13.86571804999972
 20
-140.6628775334669
 30
0.0
 10
13.73775498749178
 20
-140.6193583562377
 30
0.0
  0
SPLINE
  5
C4
330
1F
100
AcDbEntity
  8
0
  6
Continuous
 62
     7
370
    25
100
AcDbSpline
210
0.0
220
0.0
230
1.0
 70
     8
 71
     3
 72
    15
 73
    11
 74
     0
 42
0.00000001
 43
0.00000001
 40
0.0
 40
0.0
 40
0.0
 40
0.0
 40
0.1373108358954871
 40
0.2665965831540963
 40
0.3898501451517441
 40
0.5103686296218175
 40
0.6286606609674799
 40
0.7467563272272102
 40
0.8704371125578567
 40
1.0
 40
1.0
 40
1.0
 40
1.0
 10
9.571928374588555
 20
-137.9694087594636
 30
0.0
 10
9.520098550489367
 20
-138.0357881449508
 30
0.0
 10
9.419468080066485
 20
-138.1646673936085
 30
0.0
 10
9.254229342373486
 20
-138.3389878578196
 30
0.0
 10
9.068799474030401
 20
-138.4742756639174
 30
0.0
 10
8.87684217659287
 20
-138.5876437889855
 30
0.0
 10
8.669556459810378
 20
-138.661060508507
 30
0.0
 10
8.454400891771321
 20
-138.7126939239117
 30
0.0
 10
8.22619390194564
 20
-138.7315860844463
 30
0.0
 10
8.07112340745595
 20
-138.7200291200278
 30
0.0
 10
7.991787245556296
 20
-138.7141164207539
 30
0.0
  0
SPLINE
  5
C5
330
1F
100
AcDbEntity
  8
0
  6
Continuous
 62
     7
370
    25
100
AcDbSpline
210
0.0
220
0.0
230
1.0
 70
     8
 71
     3
 72
    15
 73
    11
 74
     0
 42
0.00000001
 43
0.00000001
 40
0.0
 40
0.0
 40
0.0
 40
0.0
 40
0.1159649748073651
 40
0.2355896175020394
 40
0.3622839163737887
 40
0.4984692480612469
 40
0.6354184020557577
 40
0.7641132609450392
 40
0.884181979124381
 40
1.0
 40
1.0
 40
1.0
 40
1.0
 10
12.84250825309604
 20
-125.3763958857784
 30
0.0
 10
12.74800785154481
 20
-125.3427096010342
 30
0.0
 10
12.55602476792644
 20
-125.2742739466382
 30
0.0
 10
12.28468264695422
 20
-125.1146552831699
 30
0.0
 10
12.02713625346205
 20
-124.9066817147739
 30
0.0
 10
11.78274236664687
 20
-124.6618109607144
 30
0.0
 10
11.56441542274496
 20
-124.3912815078555
 30
0.0
 10
11.3813737087018
 20
-124.1123060382626
 30
0.0
 10
11.24151524913184
 20
-123.828831556384
 30
0.0
 10
11.17943878615354
 20
-123.6345758881556
 30
0.0
 10
11.14895986599927
 20
-123.5391983051332
 30
0.0
  0
SPLINE
  5
C6
330
1F
100
AcDbEntity
  8
0
  6
Continuous
 62
     7
370
    25
100
AcDbSpline
210
0.0
220
0.0
230
1.0
 70
     8
 71
     3
 72
    11
 73
     7
 74
     0
 42
0.00000001
 43
0.00000001
 40
0.0
 40
0.0
 40
0.0
 40
0.0
 40
0.2203032718615736
 40
0.4591204412400623
 40
0.7191913332855744
 40
0.9999999999999999
 40
0.9999999999999999
 40
0.9999999999999999
 40
0.9999999999999999
 10
5.315375955233716
 20
-125.2224329530119
 30
0.0
 10
5.421495471804668
 20
-125.2359722826102
 30
0.0
 10
5.642652601521981
 20
-125.2641887631314
 30
0.0
 10
5.983518440493977
 20
-125.340670386009
 30
0.0
 10
6.350967192980884
 20
-125.4318406922954
 30
0.0
 10
6.599931523508874
 20
-125.5154611942833
 30
0.0
 10
6.729186439104683
 20
-125.55887448527
 30
0.0
  0
SPLINE
  5
C7
330
1F
100
AcDbEntity
  8
0
  6
Continuous
 62
     7
370
    25
100
AcDbSpline
210
0.0
220
0.0
230
1.0
 70
     8
 71
     3
 72
    11
 73
     7
 74
     0
 42
0.00000001
 43
0.00000001
 40
0.0
 40
0.0
 40
0.0
 40
0.0
 40
0.2214127870533267
 40
0.4588802233139294
 40
0.7202609125459231
 40
1.0
 40
1.0
 40
1.0
 40
1.0
 10
18.29806797031321
 20
-112.0953789798351
 30
0.0
 10
18.19192899297189
 20
-112.081930242857
 30
0.0
 10
17.97195489719859
 20
-112.0540576004953
 30
0.0
 10
17.63259238471878
 20
-111.9764863950077
 30
0.0
 10
17.26730934371455
 20
-111.8866389522677
 30
0.0
 10
17.01978103282116
 20
-111.8024566248063
 30
0.0
 10
16.89181797031321
 20
-111.7589374475771
 30
0.0
  0
SPLINE
  5
C8
330
1F
100
AcDbEntity
  8
0
  6
Continuous
 62
     7
370
    25
100
AcDbSpline
210
0.0
220
0.0
230
1.0
 70
     8
 71
     3
 72
    19
 73
    15
 74
     0
 42
0.00000001
 43
0.00000001
 40
0.0
 40
0.0
 40
0.0
 40
0.0
 40
0.0917177327498656
 40
0.1735245359971761
 40
0.2466217855409879
 40
0.308731894463953
 40
0.4138280382630915
 40
0.5069573895518996
 40
0.5990863965648594
 40
0.7031191456178084
 40
0.7630795449044991
 40
0.8336274814131608
 40
0.9121799219618123
 40
1.0
 40
1.0
 40
1.0
 40
1.0
 10
6.933990107934755
 20
-118.3905087890042
 30
0.0
 10
6.924914251822285
 20
-118.4849876846634
 30
0.0
 10
6.907743267831778
 20
-118.6637361778854
 30
0.0
 10
6.88723522309802
 20
-118.9181969144522
 30
0.0
 10
6.879819274957925
 20
-119.1427109070311
 30
0.0
 10
6.881475978789895
 20
-119.3915617583587
 30
0.0
 10
6.924652890203242
 20
-119.6596140877361
 30
0.0
 10
7.050518921068757
 20
-119.9392684984084
 30
0.0
 10
7.2707517075148
 20
-120.1489084662911
 30
0.0
 10
7.495103898418958
 20
-120.2925923129707
 30
0.0
 10
7.718745796241069
 20
-120.3878294842654
 30
0.0
 10
7.920288008442373
 20
-120.4663906488681
 30
0.0
 10
8.152246674482194
 20
-120.5461845848053
 30
0.0
 10
8.317352676297261
 20
-120.5950551185993
 30
0.0
 10
8.40450422083798
 20
-120.6208515309397
 30
0.0
  0
SPLINE
  5
C9
330
1F
100
AcDbEntity
  8
0
  6
Continuous
 62
     7
370
    25
100
AcDbSpline
210
0.0
220
0.0
230
1.0
 70
     8
 71
     3
 72
    19
 73
    15
 74
     0
 42
0.00000001
 43
0.00000001
 40
0.0
 40
0.0
 40
0.0
 40
0.0
 40
0.0917177327498656
 40
0.1735245359971761
 40
0.246621785540988
 40
0.3087318944639532
 40
0.413828038263096
 40
0.5069573895518963
 40
0.5990863965648594
 40
0.703119145617808
 40
0.7630795449044993
 40
0.8336274814131627
 40
0.9121799219618126
 40
1.0
 40
1.0
 40
1.0
 40
1.0
 10
8.511021599345469
 20
-103.9602983346739
 30
0.0
 10
8.501945743232998
 20
-104.054777230333
 30
0.0
 10
8.484774759242494
 20
-104.233525723555
 30
0.0
 10
8.464266714508735
 20
-104.4879864601219
 30
0.0
 10
8.456850766368639
 20
-104.7125004527007
 30
0.0
 10
8.458507470200612
 20
-104.9613513040284
 30
0.0
 10
8.501684381613941
 20
-105.2294036334058
 30
0.0
 10
8.627550412479488
 20
-105.5090580440781
 30
0.0
 10
8.847783198925509
 20
-105.7186980119608
 30
0.0
 10
9.072135389829675
 20
-105.8623818586404
 30
0.0
 10
9.295777287651786
 20
-105.9576190299351
 30
0.0
 10
9.497319499853083
 20
-106.0361801945378
 30
0.0
 10
9.729278165892913
 20
-106.115974130475
 30
0.0
 10
9.894384167707978
 20
-106.164844664269
 30
0.0
 10
9.981535712248693
 20
-106.1906410766093
 30
0.0
  0
SPLINE
  5
CA
330
1F
100
AcDbEntity
  8
0
  6
Continuous
 62
     7
370
    25
100
AcDbSpline
210
0.0
220
0.0
230
1.0
 70
     8
 71
     3
 72
    11
 73
     7
 74
     0
 42
0.00000001
 43
0.00000001
 40
0.0
 40
0.0
 40
0.0
 40
0.0
 40
0.2930129117846731
 40
0.5579375394945232
 40
0.7930503083351121
 40
0.9999999999999999
 40
0.9999999999999999
 40
0.9999999999999999
 40
0.9999999999999999
 10
7.47767434233049
 20
-129.07449948527
 30
0.0
 10
7.394560983850491
 20
-129.0503939998898
 30
0.0
 10
7.236301532254944
 20
-129.0044937864165
 30
0.0
 10
7.01054873589904
 20
-128.9417862552671
 30
0.0
 10
6.805776621405136
 20
-128.8997960920329
 30
0.0
 10
6.676363426757536
 20
-128.882325464082
 30
0.0
 10
6.615779181040168
 20
-128.8741466626894
 30
0.0
  0
SPLINE
  5
CB
330
1F
100
AcDbEntity
  8
0
  6
Continuous
 62
     7
370
    25
100
AcDbSpline
210
0.0
220
0.0
230
1.0
 70
     8
 71
     3
 72
    11
 73
     7
 74
     0
 42
0.00000001
 43
0.00000001
 40
0.0
 40
0.0
 40
0.0
 40
0.0
 40
0.2239421576716913
 40
0.4606607144328544
 40
0.7057770437412939
 40
1.0
 40
1.0
 40
1.0
 40
1.0
 10
11.14585022837773
 20
-109.8536955120932
 30
0.0
 10
11.12065999909945
 20
-109.8499580390557
 30
0.0
 10
11.06884238183298
 20
-109.8422698618159
 30
0.0
 10
10.98923134893112
 20
-109.8296590119607
 30
0.0
 10
10.90624174798387
 20
-109.7986075104235
 30
0.0
 10
10.8484797709817
 20
-109.7779947303294
 30
0.0
 10
10.81696917999063
 20
-109.7667499475771
 30
0.0
  0
SPLINE
  5
CC
330
1F
100
AcDbEntity
  8
0
  6
Continuous
 62
     7
370
    25
100
AcDbSpline
210
0.0
220
0.0
230
1.0
 70
     8
 71
     3
 72
    15
 73
    11
 74
     0
 42
0.00000001
 43
0.00000001
 40
0.0
 40
0.0
 40
0.0
 40
0.0
 40
0.1373108358954923
 40
0.2665965831540955
 40
0.3898501451517472
 40
0.5103686296218171
 40
0.6286606609674807
 40
0.7467563272272114
 40
0.8704371125578572
 40
1.0
 40
1.0
 40
1.0
 40
1.0
 10
12.72599135740999
 20
-109.1089878508029
 30
0.0
 10
12.6741615333108
 20
-109.1753672362901
 30
0.0
 10
12.57353106288792
 20
-109.3042464849478
 30
0.0
 10
12.40829232519491
 20
-109.478566949159
 30
0.0
 10
12.22286245685184
 20
-109.6138547552567
 30
0.0
 10
12.03090515941429
 20
-109.7272228803248
 30
0.0
 10
11.82361944263181
 20
-109.8006395998463
 30
0.0
 10
11.60846387459275
 20
-109.852273015251
 30
0.0
 10
11.38025688476707
 20
-109.8711651757857
 30
0.0
 10
11.22518639027738
 20
-109.8596082113672
 30
0.0
 10
11.14585022837773
 20
-109.8536955120932
 30
0.0
  0
SPLINE
  5
CD
330
1F
100
AcDbEntity
  8
0
  6
Continuous
 62
     7
370
    25
100
AcDbSpline
210
0.0
220
0.0
230
1.0
 70
     8
 71
     3
 72
    15
 73
    11
 74
     0
 42
0.00000001
 43
0.00000001
 40
0.0
 40
0.0
 40
0.0
 40
0.0
 40
0.1159649748073696
 40
0.2355896175020451
 40
0.3622839163737945
 40
0.4984692480612539
 40
0.6354184020557608
 40
0.7641132609450433
 40
0.8841819791243855
 40
1.0
 40
1.0
 40
1.0
 40
1.0
 10
11.26547676168533
 20
-139.8066063401087
 30
0.0
 10
11.17097636013409
 20
-139.7729200553645
 30
0.0
 10
10.97899327651572
 20
-139.7044844009685
 30
0.0
 10
10.7076511555435
 20
-139.5448657375003
 30
0.0
 10
10.45010476205134
 20
-139.3368921691043
 30
0.0
 10
10.20571087523615
 20
-139.0920214150448
 30
0.0
 10
9.987383931334243
 20
-138.8214919621858
 30
0.0
 10
9.804342217291088
 20
-138.542516492593
 30
0.0
 10
9.664483757721127
 20
-138.2590420107144
 30
0.0
 10
9.60240729474282
 20
-138.0647863424859
 30
0.0
 10
9.571928374588557
 20
-137.9694087594636
 30
0.0
  0
SPLINE
  5
CE
330
1F
100
AcDbEntity
  8
0
  6
Continuous
 62
     7
370
    25
100
AcDbSpline
210
0.0
220
0.0
230
1.0
 70
     8
 71
     3
 72
    11
 73
     7
 74
     0
 42
0.00000001
 43
0.00000001
 40
0.0
 40
0.0
 40
0.0
 40
0.0
 40
0.2930129117846739
 40
0.557937539494522
 40
0.7930503083351096
 40
0.9999999999999999
 40
0.9999999999999999
 40
0.9999999999999999
 40
0.9999999999999999
 10
10.63173732515192
 20
-100.2140785766093
 30
0.0
 10
10.54862396667192
 20
-100.1899730912291
 30
0.0
 10
10.39036451507637
 20
-100.1440728777558
 30
0.0
 10
10.16461171872047
 20
-100.0813653466064
 30
0.0
 10
9.959839604226564
 20
-100.0393751833723
 30
0.0
 10
9.830426409578967
 20
-100.0219045554214
 30
0.0
 10
9.769842163861599
 20
-100.0137257540287
 30
0.0
  0
SPLINE
  5
CF
330
1F
100
AcDbEntity
  8
0
  6
Continuous
 62
     7
370
    25
100
AcDbSpline
210
0.0
220
0.0
230
1.0
 70
     8
 71
     3
 72
    15
 73
    11
 74
     0
 42
0.00000001
 43
0.00000001
 40
0.0
 40
0.0
 40
0.0
 40
0.0
 40
0.1176937519656145
 40
0.2181610866487297
 40
0.3064415952656876
 40
0.3910577465559589
 40
0.4920432799111616
 40
0.6270718290119661
 40
0.7952586216390499
 40
1.0
 40
1.0
 40
1.0
 40
1.0
 10
6.615779181040168
 20
-128.8741466626894
 30
0.0
 10
6.537634217322656
 20
-128.8680581587532
 30
0.0
 10
6.392782091224077
 20
-128.8567723036198
 30
0.0
 10
6.189603528661119
 20
-128.8925856802123
 30
0.0
 10
6.0252673408362
 20
-128.9775869315163
 30
0.0
 10
5.901798269373196
 20
-129.1163860253591
 30
0.0
 10
5.817568448098414
 20
-129.3138811817653
 30
0.0
 10
5.73923530248783
 20
-129.5707236861312
 30
0.0
 10
5.678322316454071
 20
-129.9032623447587
 30
0.0
 10
5.649009379739988
 20
-130.1491707023547
 30
0.0
 10
5.63291627781436
 20
-130.2841769046248
 30
0.0
  0
SPLINE
  5
D0
330
1F
100
AcDbEntity
  8
0
  6
Continuous
 62
     7
370
    25
100
AcDbSpline
210
0.0
220
0.0
230
1.0
 70
     8
 71
     3
 72
    11
 73
     7
 74
     0
 42
0.00000001
 43
0.00000001
 40
0.0
 40
0.0
 40
0.0
 40
0.0
 40
0.3404244161821703
 40
0.6200177865607743
 40
0.8423390219824963
 40
0.9999999999999999
 40
0.9999999999999999
 40
0.9999999999999999
 40
0.9999999999999999
 10
8.69936309180572
 20
-120.7077970954558
 30
0.0
 10
8.786247665538937
 20
-120.7357012860814
 30
0.0
 10
8.944491253635501
 20
-120.7865234177648
 30
0.0
 10
9.16030120158252
 20
-120.8531027233023
 30
0.0
 10
9.332247048234322
 20
-120.8950596583453
 30
0.0
 10
9.432652702634812
 20
-120.9123263885734
 30
0.0
 10
9.474312688579916
 20
-120.9194906438429
 30
0.0
  0
SPLINE
  5
D1
330
1F
100
AcDbEntity
  8
0
  6
Continuous
 62
     7
370
    25
100
AcDbSpline
210
0.0
220
0.0
230
1.0
 70
     8
 71
     3
 72
    15
 73
    11
 74
     0
 42
0.00000001
 43
0.00000001
 40
0.0
 40
0.0
 40
0.0
 40
0.0
 40
0.1571789327833212
 40
0.2878818265423448
 40
0.3981816266497575
 40
0.4961327590588308
 40
0.5939890082046795
 40
0.7037752760474484
 40
0.8351103733747038
 40
1.0
 40
1.0
 40
1.0
 40
1.0
 10
15.08730135845952
 20
-133.3801950497861
 30
0.0
 10
15.10180039076808
 20
-133.2215835214039
 30
0.0
 10
15.1283561627801
 20
-132.9310778175366
 30
0.0
 10
15.12112408894547
 20
-132.5270588810959
 30
0.0
 10
15.06346433539269
 20
-132.1860169766371
 30
0.0
 10
14.92941620787279
 20
-131.9015289659894
 30
0.0
 10
14.71960391850143
 20
-131.6689095341451
 30
0.0
 10
14.4341184547811
 20
-131.4745025484721
 30
0.0
 10
14.06109942242555
 20
-131.2984528221676
 30
0.0
 10
13.77566859214036
 20
-131.205418751215
 30
0.0
 10
13.6167872455563
 20
-131.1536325497862
 30
0.0
  0
SPLINE
  5
D2
330
1F
100
AcDbEntity
  8
0
  6
Continuous
 62
     7
370
    25
100
AcDbSpline
210
0.0
220
0.0
230
1.0
 70
     8
 71
     3
 72
    23
 73
    19
 74
     0
 42
0.00000001
 43
0.00000001
 40
0.0
 40
0.0
 40
0.0
 40
0.0
 40
0.0778090218102136
 40
0.1489112808697145
 40
0.2129051556856001
 40
0.2705777440735045
 40
0.3232620677493609
 40
0.3747751986281144
 40
0.4241979365785423
 40
0.4732849209677847
 40
0.5234974960121375
 40
0.5761421164959447
 40
0.6315246960238529
 40
0.6911037927245484
 40
0.7564875637367701
 40
0.8298710811458717
 40
0.9107936853109824
 40
1.0
 40
1.0
 40
1.0
 40
1.0
 10
5.270013052007909
 20
-137.8408805336571
 30
0.0
 10
5.119607610298288
 20
-137.7892320225616
 30
0.0
 10
4.831760951213122
 20
-137.6903868531544
 30
0.0
 10
4.427374942937122
 20
-137.5290352158741
 30
0.0
 10
4.070532970702936
 20
-137.361885239601
 30
0.0
 10
3.755576990391286
 20
-137.1942608669095
 30
0.0
 10
3.483520844816147
 20
-137.0045502827717
 30
0.0
 10
3.249473106270583
 20
-136.7939953785963
 30
0.0
 10
3.049869620623859
 20
-136.56019704654
 30
0.0
 10
2.884195647120613
 20
-136.3039807910587
 30
0.0
 10
2.757458515316878
 20
-136.0196847918544
 30
0.0
 10
2.652748002242856
 20
-135.7129506826245
 30
0.0
 10
2.588134894648273
 20
-135.3758212935631
 30
0.0
 10
2.544628526012437
 20
-135.0094242627796
 30
0.0
 10
2.538607245131273
 20
-134.603682163782
 30
0.0
 10
2.544975685335738
 20
-134.1547625427067
 30
0.0
 10
2.576328806576933
 20
-133.6578438193352
 30
0.0
 10
2.612459315281441
 20
-133.3120266968036
 30
0.0
 10
2.631404181040167
 20
-133.1306990820442
 30
0.0
  0
SPLINE
  5
D3
330
1F
100
AcDbEntity
  8
0
  6
Continuous
 62
     7
370
    25
100
AcDbSpline
210
0.0
220
0.0
230
1.0
 70
     8
 71
     3
 72
    23
 73
    19
 74
     0
 42
0.00000001
 43
0.00000001
 40
0.0
 40
0.0
 40
0.0
 40
0.0
 40
0.0821081209188959
 40
0.1562713445437228
 40
0.2236988884659331
 40
0.2840991400907185
 40
0.3392317474647079
 40
0.3917346838246204
 40
0.4421736471209865
 40
0.4919192076514676
 40
0.5419757735250047
 40
0.5938770385732942
 40
0.6483590412047517
 40
0.7058217056248394
 40
0.7684593677550527
 40
0.8383887585044608
 40
0.915741878836793
 40
0.9999999999999999
 40
0.9999999999999999
 40
0.9999999999999999
 40
0.9999999999999999
 10
18.2073421638616
 20
-99.43912897983513
 30
0.0
 10
18.36777901688526
 20
-99.49596071286926
 30
0.0
 10
18.67312862732314
 20
-99.60412506049528
 30
0.0
 10
19.10390451655385
 20
-99.77656866930467
 30
0.0
 10
19.48104722955219
 20
-99.95905850589561
 30
0.0
 10
19.81471672822305
 20
-100.1395583680095
 30
0.0
 10
20.10617203766559
 20
-100.33225710267
 30
0.0
 10
20.34839002025135
 20
-100.5545855534325
 30
0.0
 10
20.55616091246789
 20
-100.7942684241277
 30
0.0
 10
20.72503173251348
 20
-101.057676594011
 30
0.0
 10
20.85113171758433
 20
-101.3464171962627
 30
0.0
 10
20.95795104402398
 20
-101.6534971093233
 30
0.0
 10
21.01695302110653
 20
-101.9889568384917
 30
0.0
 10
21.05613168455773
 20
-102.3488845285026
 30
0.0
 10
21.06500397011486
 20
-102.743141033589
 30
0.0
 10
21.05183340302614
 20
-103.1781442067039
 30
0.0
 10
21.02185923887934
 20
-103.6572997879566
 30
0.0
 10
20.98823135369303
 20
-103.9906400968377
 30
0.0
 10
20.97069901870031
 20
-104.16443139919
 30
0.0
  0
SPLINE
  5
D4
330
1F
100
AcDbEntity
  8
0
  6
Continuous
 62
     7
370
    25
100
AcDbSpline
210
0.0
220
0.0
230
1.0
 70
     8
 71
     3
 72
    23
 73
    19
 74
     0
 42
0.00000001
 43
0.00000001
 40
0.0
 40
0.0
 40
0.0
 40
0.0
 40
0.0778090218102143
 40
0.1489112808697151
 40
0.2129051556855999
 40
0.2705777440735052
 40
0.3232620677493616
 40
0.374775198628115
 40
0.4241979365785428
 40
0.4732849209677852
 40
0.5234974960121379
 40
0.5761421164959452
 40
0.6315246960238532
 40
0.6911037927245488
 40
0.7564875637367704
 40
0.8298710811458719
 40
0.9107936853109825
 40
1.0
 40
1.0
 40
1.0
 40
1.0
 10
8.42407603482934
 20
-108.9804596249964
 30
0.0
 10
8.273670593119716
 20
-108.928811113901
 30
0.0
 10
7.985823934034553
 20
-108.8299659444938
 30
0.0
 10
7.581437925758557
 20
-108.6686143072134
 30
0.0
 10
7.224595953524361
 20
-108.5014643309404
 30
0.0
 10
6.90963997321272
 20
-108.3338399582488
 30
0.0
 10
6.637583827637577
 20
-108.1441293741111
 30
0.0
 10
6.403536089092014
 20
-107.9335744699357
 30
0.0
 10
6.20393260344529
 20
-107.6997761378794
 30
0.0
 10
6.03825862994204
 20
-107.4435598823979
 30
0.0
 10
5.911521498138311
 20
-107.1592638831937
 30
0.0
 10
5.806810985064285
 20
-106.8525297739638
 30
0.0
 10
5.742197877469703
 20
-106.5154003849024
 30
0.0
 10
5.69869150883387
 20
-106.149003354119
 30
0.0
 10
5.692670227952703
 20
-105.7432612551213
 30
0.0
 10
5.699038668157169
 20
-105.294341634046
 30
0.0
 10
5.730391789398364
 20
-104.7974229106746
 30
0.0
 10
5.766522298102872
 20
-104.4516057881429
 30
0.0
 10
5.785467163861598
 20
-104.2702781733835
 30
0.0
  0
SPLINE
  5
D5
330
1F
100
AcDbEntity
  8
0
  6
Continuous
 62
     7
370
    25
100
AcDbSpline
210
0.0
220
0.0
230
1.0
 70
     8
 71
     3
 72
    23
 73
    19
 74
     0
 42
0.00000001
 43
0.00000001
 40
0.0
 40
0.0
 40
0.0
 40
0.0
 40
0.1020984147564949
 40
0.195633967332707
 40
0.2814230046658351
 40
0.3590447853935639
 40
0.4293764415633463
 40
0.492639968850333
 40
0.5487829792458874
 40
0.5981801782429306
 40
0.6438711173426928
 40
0.6885388973899824
 40
0.7336730334939832
 40
0.7798028635230225
 40
0.8285316858880428
 40
0.8815847699553039
 40
0.9385035530001484
 40
1.0
 40
1.0
 40
1.0
 40
1.0
 10
4.741449785354109
 20
-113.7823938696494
 30
0.0
 10
4.758005676192954
 20
-113.6385938100683
 30
0.0
 10
4.789728936688774
 20
-113.3630540161781
 30
0.0
 10
4.852558817470638
 20
-112.9690754770826
 30
0.0
 10
4.912919499262003
 20
-112.6097337819868
 30
0.0
 10
4.990057574301933
 20
-112.2873391095006
 30
0.0
 10
5.071497160916685
 20
-111.9989880205056
 30
0.0
 10
5.163455936309943
 20
-111.7462138765524
 30
0.0
 10
5.253881244757848
 20
-111.5241254784241
 30
0.0
 10
5.3633932805278
 20
-111.3392269807194
 30
0.0
 10
5.480350533635436
 20
-111.1786064833119
 30
0.0
 10
5.622773020593559
 20
-111.0472630436118
 30
0.0
 10
5.788560535134006
 20
-110.9481898258593
 30
0.0
 10
5.967019501912154
 20
-110.8591841390787
 30
0.0
 10
6.172332644412357
 20
-110.8112374497232
 30
0.0
 10
6.394463631124358
 20
-110.7751997837009
 30
0.0
 10
6.638367071715499
 20
-110.7684485128293
 30
0.0
 10
6.805572724689329
 20
-110.7840962020178
 30
0.0
 10
6.892407446644431
 20
-110.7922224986816
 30
0.0
  0
SPLINE
  5
D6
330
1F
100
AcDbEntity
  8
0
  6
Continuous
 62
     7
370
    25
100
AcDbSpline
210
0.0
220
0.0
230
1.0
 70
     8
 71
     3
 72
    15
 73
    11
 74
     0
 42
0.00000001
 43
0.00000001
 40
0.0
 40
0.0
 40
0.0
 40
0.0
 40
0.1183780103606492
 40
0.227149988837562
 40
0.3288253479738429
 40
0.4346142274688093
 40
0.5486527289039842
 40
0.6811406849796344
 40
0.8300014391591471
 40
1.0
 40
1.0
 40
1.0
 40
1.0
 10
11.05134417999063
 20
-106.4892801895126
 30
0.0
 10
11.09937977534096
 20
-106.4932837522607
 30
0.0
 10
11.19155301692858
 20
-106.5009660002624
 30
0.0
 10
11.32254521154032
 20
-106.4682177644362
 30
0.0
 10
11.43811247889916
 20
-106.4103280533922
 30
0.0
 10
11.53327651524749
 20
-106.3194321736389
 30
0.0
 10
11.61555414393481
 20
-106.2018648464948
 30
0.0
 10
11.67636703925961
 20
-106.0529900489348
 30
0.0
 10
11.72737572939906
 20
-105.8770959854803
 30
0.0
 10
11.74258185393968
 20
-105.7487405821525
 30
0.0
 10
11.75068893805515
 20
-105.680308415319
 30
0.0
  0
SPLINE
  5
D7
330
1F
100
AcDbEntity
  8
0
  6
Continuous
 62
     7
370
    25
100
AcDbSpline
210
0.0
220
0.0
230
1.0
 70
     8
 71
     3
 72
    11
 73
     7
 74
     0
 42
0.00000001
 43
0.00000001
 40
0.0
 40
0.0
 40
0.0
 40
0.0
 40
0.220303271861575
 40
0.4591204412400586
 40
0.7191913332855744
 40
1.0
 40
1.0
 40
1.0
 40
1.0
 10
8.469438938055148
 20
-96.36201204435129
 30
0.0
 10
8.5755584546261
 20
-96.37555137394953
 30
0.0
 10
8.796715584343408
 20
-96.4037678544708
 30
0.0
 10
9.137581423315414
 20
-96.48024947734832
 30
0.0
 10
9.505030175802306
 20
-96.57141978363464
 30
0.0
 10
9.7539945063303
 20
-96.65504028562259
 30
0.0
 10
9.883249421926115
 20
-96.69845357660934
 30
0.0
  0
SPLINE
  5
D8
330
1F
100
AcDbEntity
  8
0
  6
Continuous
 62
     7
370
    25
100
AcDbSpline
210
0.0
220
0.0
230
1.0
 70
     8
 71
     3
 72
    11
 73
     7
 74
     0
 42
0.00000001
 43
0.00000001
 40
0.0
 40
0.0
 40
0.0
 40
0.0
 40
0.3494960151487183
 40
0.6319551528065844
 40
0.8493527656921002
 40
1.0
 40
1.0
 40
1.0
 40
1.0
 10
12.97036587458856
 20
-137.1075135981732
 30
0.0
 10
13.07625998427537
 20
-137.1375647328014
 30
0.0
 10
13.26773664028237
 20
-137.1919028898986
 30
0.0
 10
13.52445877375839
 20
-137.2674491162115
 30
0.0
 10
13.72449547947743
 20
-137.3123808045157
 30
0.0
 10
13.83851445097261
 20
-137.3333184509441
 30
0.0
 10
13.88518442297565
 20
-137.3418885981732
 30
0.0
  0
SPLINE
  5
D9
330
1F
100
AcDbEntity
  8
0
  6
Continuous
 62
     7
370
    25
100
AcDbSpline
210
0.0
220
0.0
230
1.0
 70
     8
 71
     3
 72
    23
 73
    19
 74
     0
 42
0.00000001
 43
0.00000001
 40
0.0
 40
0.0
 40
0.0
 40
0.0
 40
0.0821081209188964
 40
0.1562713445437233
 40
0.2236988884659336
 40
0.284099140090719
 40
0.3392317474647084
 40
0.3917346838246208
 40
0.4421736471209866
 40
0.4919192076514676
 40
0.541975773525005
 40
0.5938770385732942
 40
0.6483590412047519
 40
0.7058217056248395
 40
0.7684593677550527
 40
0.8383887585044586
 40
0.915741878836793
 40
1.0
 40
1.0
 40
1.0
 40
1.0
 10
16.63031067245088
 20
-113.8693394341655
 30
0.0
 10
16.79074752547454
 20
-113.9261711671996
 30
0.0
 10
17.09609713591242
 20
-114.0343355148256
 30
0.0
 10
17.52687302514313
 20
-114.206779123635
 30
0.0
 10
17.90401573814149
 20
-114.389268960226
 30
0.0
 10
18.23768523681234
 20
-114.5697688223398
 30
0.0
 10
18.52914054625487
 20
-114.7624675570003
 30
0.0
 10
18.77135852884064
 20
-114.9847960077629
 30
0.0
 10
18.97912942105717
 20
-115.224478878458
 30
0.0
 10
19.14800024110275
 20
-115.4878870483413
 30
0.0
 10
19.27410022617362
 20
-115.7766276505931
 30
0.0
 10
19.38091955261326
 20
-116.0837075636537
 30
0.0
 10
19.4399215296958
 20
-116.419167292822
 30
0.0
 10
19.47910019314702
 20
-116.779094982833
 30
0.0
 10
19.48797247870414
 20
-117.1733514879194
 30
0.0
 10
19.47480191161542
 20
-117.6083546610342
 30
0.0
 10
19.44482774746863
 20
-118.087510242287
 30
0.0
 10
19.41119986228232
 20
-118.420850551168
 30
0.0
 10
19.39366752728959
 20
-118.5946418535203
 30
0.0
  0
SPLINE
  5
DA
330
1F
100
AcDbEntity
  8
0
  6
Continuous
 62
     7
370
    25
100
AcDbSpline
210
0.0
220
0.0
230
1.0
 70
     8
 71
     3
 72
    15
 73
    11
 74
     0
 42
0.00000001
 43
0.00000001
 40
0.0
 40
0.0
 40
0.0
 40
0.0
 40
0.110837092254414
 40
0.2067915445048155
 40
0.2906884812880685
 40
0.3733800970977661
 40
0.4777540181144163
 40
0.6150189247645776
 40
0.7900228084759839
 40
1.0
 40
1.0
 40
1.0
 40
1.0
 10
15.46221591438637
 20
-122.9116781438429
 30
0.0
 10
15.53541446435959
 20
-122.9165743045515
 30
0.0
 10
15.67198283598136
 20
-122.925709194456
 30
0.0
 10
15.86228646389796
 20
-122.8851743006597
 30
0.0
 10
16.01632603885525
 20
-122.7992429347557
 30
0.0
 10
16.13245226174308
 20
-122.6583665766041
 30
0.0
 10
16.20967716913468
 20
-122.4571182665097
 30
0.0
 10
16.28593946537086
 20
-122.1932580787915
 30
0.0
 10
16.34635785148385
 20
-121.8534780627659
 30
0.0
 10
16.37599220099004
 20
-121.6013575728796
 30
0.0
 10
16.3921554305154
 20
-121.4638454825526
 30
0.0
  0
SPLINE
  5
DB
330
1F
100
AcDbEntity
  8
0
  6
Continuous
 62
     7
370
    25
100
AcDbSpline
210
0.0
220
0.0
230
1.0
 70
     8
 71
     3
 72
    23
 73
    19
 74
     0
 42
0.00000001
 43
0.00000001
 40
0.0
 40
0.0
 40
0.0
 40
0.0
 40
0.0778090218102143
 40
0.1489112808697151
 40
0.2129051556855999
 40
0.2705777440735052
 40
0.3232620677493629
 40
0.3747751986281149
 40
0.424197936578541
 40
0.4732849209677852
 40
0.5234974960121379
 40
0.5761421164959473
 40
0.6315246960238531
 40
0.6911037927245486
 40
0.7564875637367703
 40
0.8298710811458718
 40
0.9107936853109825
 40
1.0
 40
1.0
 40
1.0
 40
1.0
 10
6.847044543418625
 20
-123.4106700793268
 30
0.0
 10
6.696639101709003
 20
-123.3590215682313
 30
0.0
 10
6.408792442623839
 20
-123.2601763988241
 30
0.0
 10
6.004406434347843
 20
-123.0988247615437
 30
0.0
 10
5.647564462113645
 20
-122.9316747852707
 30
0.0
 10
5.332608481802002
 20
-122.7640504125792
 30
0.0
 10
5.060552336226871
 20
-122.5743398284414
 30
0.0
 10
4.826504597681299
 20
-122.363784924266
 30
0.0
 10
4.626901112034566
 20
-122.1299865922097
 30
0.0
 10
4.461227138531334
 20
-121.8737703367284
 30
0.0
 10
4.334490006727591
 20
-121.5894743375241
 30
0.0
 10
4.229779493653578
 20
-121.2827402282941
 30
0.0
 10
4.165166386058984
 20
-120.9456108392327
 30
0.0
 10
4.121660017423155
 20
-120.5792138084493
 30
0.0
 10
4.115638736541989
 20
-120.1734717094516
 30
0.0
 10
4.122007176746456
 20
-119.7245520883764
 30
0.0
 10
4.153360297987648
 20
-119.2276333650049
 30
0.0
 10
4.189490806692157
 20
-118.8818162424732
 30
0.0
 10
4.208435672450883
 20
-118.7004886277139
 30
0.0
  0
SPLINE
  5
DC
330
1F
100
AcDbEntity
  8
0
  6
Continuous
 62
     7
370
    25
100
AcDbSpline
210
0.0
220
0.0
230
1.0
 70
     8
 71
     3
 72
    23
 73
    19
 74
     0
 42
0.00000001
 43
0.00000001
 40
0.0
 40
0.0
 40
0.0
 40
0.0
 40
0.1019513975203951
 40
0.1952214168914049
 40
0.2810477270808451
 40
0.3594220455400833
 40
0.4305054929322199
 40
0.4942243435503267
 40
0.5506437541116848
 40
0.6007385464181763
 40
0.6463636925710327
 40
0.6909671529755452
 40
0.7357732973419624
 40
0.7818367024404226
 40
0.8307295858655279
 40
0.8827002502306162
 40
0.9386498706590488
 40
1.0
 40
1.0
 40
1.0
 40
1.0
 10
20.43768490579708
 20
-109.0825261572545
 30
0.0
 10
20.42048925271037
 20
-109.2262238870251
 30
0.0
 10
20.38756219293869
 20
-109.5013831795133
 30
0.0
 10
20.33310471394526
 20
-109.8967437143226
 30
0.0
 10
20.26410949588452
 20
-110.2557774087343
 30
0.0
 10
20.19005076660471
 20
-110.5816328619154
 30
0.0
 10
20.10558908778308
 20
-110.8722666480263
 30
0.0
 10
20.02254202478336
 20
-111.1309999402938
 30
0.0
 10
19.92305106602113
 20
-111.3517702813305
 30
0.0
 10
19.81711504624958
 20
-111.5402137717719
 30
0.0
 10
19.69886387935611
 20
-111.7017844386346
 30
0.0
 10
19.55565413245625
 20
-111.8308845818681
 30
0.0
 10
19.39517090509
 20
-111.9378220011457
 30
0.0
 10
19.21491634369533
 20
-112.0228348147481
 30
0.0
 10
19.01293630206984
 20
-112.0785412816579
 30
0.0
 10
18.79171935650581
 20
-112.107051995515
 30
0.0
 10
18.55108535091916
 20
-112.11490559687
 30
0.0
 10
18.38495663266767
 20
-112.1020846125881
 30
0.0
 10
18.29806797031321
 20
-112.0953789798351
 30
0.0
  0
SPLINE
  5
DD
330
1F
100
AcDbEntity
  8
0
  6
Continuous
 62
     7
370
    25
100
AcDbSpline
210
0.0
220
0.0
230
1.0
 70
     8
 71
     3
 72
    23
 73
    19
 74
     0
 42
0.00000001
 43
0.00000001
 40
0.0
 40
0.0
 40
0.0
 40
0.0
 40
0.1020984147564917
 40
0.195633967332707
 40
0.2814230046658351
 40
0.3590447853935608
 40
0.4293764415633463
 40
0.492639968850333
 40
0.5487829792458844
 40
0.5981801782429276
 40
0.6438711173426898
 40
0.688538897389984
 40
0.7336730334939829
 40
0.7798028635230237
 40
0.8285316858880424
 40
0.8815847699553031
 40
0.938503553000148
 40
1.0
 40
1.0
 40
1.0
 40
1.0
 10
3.164418293943393
 20
-128.2126043239797
 30
0.0
 10
3.180974184782239
 20
-128.0688042643986
 30
0.0
 10
3.212697445278062
 20
-127.7932644705085
 30
0.0
 10
3.275527326059921
 20
-127.3992859314129
 30
0.0
 10
3.335888007851286
 20
-127.0399442363171
 30
0.0
 10
3.413026082891221
 20
-126.717549563831
 30
0.0
 10
3.494465669505966
 20
-126.4291984748359
 30
0.0
 10
3.586424444899226
 20
-126.1764243308828
 30
0.0
 10
3.676849753347135
 20
-125.9543359327544
 30
0.0
 10
3.786361789117083
 20
-125.7694374350497
 30
0.0
 10
3.903319042224729
 20
-125.6088169376422
 30
0.0
 10
4.04574152918283
 20
-125.4774734979421
 30
0.0
 10
4.2115290437233
 20
-125.3784002801898
 30
0.0
 10
4.389988010501429
 20
-125.289394593409
 30
0.0
 10
4.595301153001647
 20
-125.2414479040536
 30
0.0
 10
4.817432139713643
 20
-125.2054102380312
 30
0.0
 10
5.061335580304783
 20
-125.1986589671596
 30
0.0
 10
5.228541233278612
 20
-125.2143066563481
 30
0.0
 10
5.315375955233716
 20
-125.2224329530119
 30
0.0
  0
SPLINE
  5
DE
330
1F
100
AcDbEntity
  8
0
  6
Continuous
 62
     7
370
    25
100
AcDbSpline
210
0.0
220
0.0
230
1.0
 70
     8
 71
     3
 72
    11
 73
     7
 74
     0
 42
0.00000001
 43
0.00000001
 40
0.0
 40
0.0
 40
0.0
 40
0.0
 40
0.223942157671686
 40
0.4606607144328575
 40
0.7057770437412978
 40
1.0
 40
1.0
 40
1.0
 40
1.0
 10
7.991787245556296
 20
-138.7141164207539
 30
0.0
 10
7.966597016278016
 20
-138.7103789477164
 30
0.0
 10
7.914779399011545
 20
-138.7026907704766
 30
0.0
 10
7.835168366109684
 20
-138.6900799206212
 30
0.0
 10
7.752178765162446
 20
-138.6590284190843
 30
0.0
 10
7.694416788160278
 20
-138.6384156389901
 30
0.0
 10
7.6629061971692
 20
-138.6271708562377
 30
0.0
  0
SPLINE
  5
DF
330
1F
100
AcDbEntity
  8
0
  6
Continuous
 62
     7
370
    25
100
AcDbSpline
210
0.0
220
0.0
230
1.0
 70
     8
 71
     3
 72
    11
 73
     7
 74
     0
 42
0.00000001
 43
0.00000001
 40
0.0
 40
0.0
 40
0.0
 40
0.0
 40
0.3404244161821693
 40
0.6200177865607704
 40
0.8423390219824918
 40
1.0
 40
1.0
 40
1.0
 40
1.0
 10
10.27639458321644
 20
-106.2775866411255
 30
0.0
 10
10.36327915694965
 20
-106.3054908317511
 30
0.0
 10
10.52152274504622
 20
-106.3563129634344
 30
0.0
 10
10.73733269299323
 20
-106.422892268972
 30
0.0
 10
10.90927853964504
 20
-106.464849204015
 30
0.0
 10
11.00968419404552
 20
-106.4821159342431
 30
0.0
 10
11.05134417999063
 20
-106.4892801895126
 30
0.0
  0
SPLINE
  5
E0
330
1F
100
AcDbEntity
  8
0
  6
Continuous
 62
     7
370
    25
100
AcDbSpline
210
0.0
220
0.0
230
1.0
 70
     8
 71
     3
 72
    23
 73
    19
 74
     0
 42
0.00000001
 43
0.00000001
 40
0.0
 40
0.0
 40
0.0
 40
0.0
 40
0.0821081209188945
 40
0.1562713445437218
 40
0.223698888465932
 40
0.2840991400907174
 40
0.3392317474647054
 40
0.3917346838246207
 40
0.4421736471209833
 40
0.4919192076514662
 40
0.5419757735250033
 40
0.5938770385732925
 40
0.6483590412047501
 40
0.7058217056248398
 40
0.7684593677550488
 40
0.8383887585044589
 40
0.9157418788367888
 40
0.9999999999999999
 40
0.9999999999999999
 40
0.9999999999999999
 40
0.9999999999999999
 10
15.05327918104017
 20
-128.2995498884958
 30
0.0
 10
15.21371603406383
 20
-128.3563816215299
 30
0.0
 10
15.51906564450172
 20
-128.464545969156
 30
0.0
 10
15.94984153373241
 20
-128.6369895779653
 30
0.0
 10
16.32698424673077
 20
-128.8194794145563
 30
0.0
 10
16.6606537454016
 20
-128.9999792766701
 30
0.0
 10
16.95210905484417
 20
-129.1926780113306
 30
0.0
 10
17.19432703742991
 20
-129.4150064620933
 30
0.0
 10
17.40209792964647
 20
-129.6546893327883
 30
0.0
 10
17.57096874969204
 20
-129.9180975026717
 30
0.0
 10
17.6970687347629
 20
-130.2068381049234
 30
0.0
 10
17.80388806120255
 20
-130.513918017984
 30
0.0
 10
17.86289003828509
 20
-130.8493777471524
 30
0.0
 10
17.90206870173629
 20
-131.2093054371633
 30
0.0
 10
17.91094098729343
 20
-131.6035619422497
 30
0.0
 10
17.8977704202047
 20
-132.0385651153645
 30
0.0
 10
17.8677962560579
 20
-132.5177206966173
 30
0.0
 10
17.8341683708716
 20
-132.8510610054984
 30
0.0
 10
17.81663603587888
 20
-133.0248523078507
 30
0.0
  0
SPLINE
  5
E1
330
1F
100
AcDbEntity
  8
0
  6
Continuous
 62
     7
370
    25
100
AcDbSpline
210
0.0
220
0.0
230
1.0
 70
     8
 71
     3
 72
    19
 73
    15
 74
     0
 42
0.00000001
 43
0.00000001
 40
0.0
 40
0.0
 40
0.0
 40
0.0
 40
0.0917177327498656
 40
0.1735245359971715
 40
0.2466217855409878
 40
0.3087318944639529
 40
0.4138280382630958
 40
0.506957389551896
 40
0.5990863965648588
 40
0.7031191456178101
 40
0.763079544904499
 40
0.8336274814131623
 40
0.9121799219618109
 40
1.0
 40
1.0
 40
1.0
 40
1.0
 10
5.356958616524038
 20
-132.8207192433345
 30
0.0
 10
5.347882760411569
 20
-132.9151981389937
 30
0.0
 10
5.330711776421064
 20
-133.0939466322157
 30
0.0
 10
5.310203731687302
 20
-133.3484073687826
 30
0.0
 10
5.30278778354721
 20
-133.5729213613614
 30
0.0
 10
5.304444487379181
 20
-133.821772212689
 30
0.0
 10
5.347621398792512
 20
-134.0898245420665
 30
0.0
 10
5.473487429658055
 20
-134.3694789527388
 30
0.0
 10
5.693720216104086
 20
-134.5791189206215
 30
0.0
 10
5.918072407008235
 20
-134.722802767301
 30
0.0
 10
6.141714304830362
 20
-134.8180399385957
 30
0.0
 10
6.343256517031644
 20
-134.8966011031984
 30
0.0
 10
6.575215183071491
 20
-134.9763950391357
 30
0.0
 10
6.740321184886549
 20
-135.0252655729297
 30
0.0
 10
6.827472729427265
 20
-135.05106198527
 30
0.0
  0
SPLINE
  5
E2
330
1F
100
AcDbEntity
  8
0
  6
Continuous
 62
     7
370
    25
100
AcDbSpline
210
0.0
220
0.0
230
1.0
 70
     8
 71
     3
 72
    19
 73
    15
 74
     0
 42
0.00000001
 43
0.00000001
 40
0.0
 40
0.0
 40
0.0
 40
0.0
 40
0.0891810200220132
 40
0.1694254417021379
 40
0.240719867541082
 40
0.3019831194347426
 40
0.406484268155653
 40
0.4998258006102626
 40
0.592174399314867
 40
0.6968772085896642
 40
0.757820812826365
 40
0.8290823563086512
 40
0.9098604852067411
 40
1.0
 40
1.0
 40
1.0
 40
1.0
 10
11.26169651974985
 20
-134.7751043239797
 30
0.0
 10
11.25267978560454
 20
-134.8645412221797
 30
0.0
 10
11.23554986081895
 20
-135.0344527793504
 30
0.0
 10
11.21422950088504
 20
-135.2763068018459
 30
0.0
 10
11.20988921193054
 20
-135.4908027325314
 30
0.0
 10
11.19941911731979
 20
-135.7297300695955
 30
0.0
 10
11.22990633992378
 20
-135.9907782842453
 30
0.0
 10
11.32490903654658
 20
-136.2720054852466
 30
0.0
 10
11.51805894106885
 20
-136.5011422769213
 30
0.0
 10
11.74278107300058
 20
-136.6367541912601
 30
0.0
 10
11.95798871244294
 20
-136.7402652019843
 30
0.0
 10
12.15968625981225
 20
-136.8144655377867
 30
0.0
 10
12.38453304302841
 20
-136.9097470322797
 30
0.0
 10
12.54781289132396
 20
-136.9649782092422
 30
0.0
 10
12.63392434233049
 20
-136.9941063401087
 30
0.0
  0
LINE
  5
E3
330
1F
100
AcDbEntity
  8
0
  6
Continuous
 62
     7
370
    25
100
AcDbLine
 10
15.3147864789
 20
-126.1891479019
 30
0.0
 11
12.8425082531
 21
-125.3763958858
 31
0.0
  0
LINE
  5
E4
330
1F
100
AcDbEntity
  8
0
  6
Continuous
 62
     7
370
    25
100
AcDbLine
 10
19.3936675273
 20
-118.5946418535
 30
0.0
 11
18.8606534144
 21
-123.5127366116
 31
0.0
  0
LINE
  5
E5
330
1F
100
AcDbEntity
  8
0
  6
Continuous
 62
     7
370
    25
100
AcDbLine
 10
15.5378207531
 20
-113.5404583858
 30
0.0
 11
16.6303106725
 21
-113.8693394342
 31
0.0
  0
LINE
  5
E6
330
1F
100
AcDbEntity
  8
0
  6
Continuous
 62
     7
370
    25
100
AcDbLine
 10
15.193818737
 20
-116.7234220955
 30
0.0
 11
15.5378207531
 21
-113.5404583858
 31
0.0
  0
LINE
  5
E7
330
1F
100
AcDbEntity
  8
0
  6
Continuous
 62
     7
370
    25
100
AcDbLine
 10
16.3921554305
 20
-121.4638454826
 30
0.0
 11
16.6643328499
 21
-118.9499845955
 31
0.0
  0
LINE
  5
E8
330
1F
100
AcDbEntity
  8
0
  6
Continuous
 62
     7
370
    25
100
AcDbLine
 10
13.1146856725
 20
-117.8083515309
 30
0.0
 11
12.8387280112
 21
-120.3448938696
 31
0.0
  0
LINE
  5
E9
330
1F
100
AcDbEntity
  8
0
  6
Continuous
 62
     7
370
    25
100
AcDbLine
 10
10.5176594628
 20
-116.9502366116
 30
0.0
 11
13.1146856725
 21
-117.8083515309
 31
0.0
  0
LINE
  5
EA
330
1F
100
AcDbEntity
  8
0
  6
Continuous
 62
     7
370
    25
100
AcDbLine
 10
10.1736574466
 20
-120.1105188696
 30
0.0
 11
10.5176594628
 21
-116.9502366116
 31
0.0
  0
LINE
  5
EB
330
1F
100
AcDbEntity
  8
0
  6
Continuous
 62
     7
370
    25
100
AcDbLine
 10
8.4045042208
 20
-120.6208515309
 30
0.0
 11
8.6993630918
 21
-120.7077970955
 31
0.0
  0
LINE
  5
EC
330
1F
100
AcDbEntity
  8
0
  6
Continuous
 62
     7
370
    25
100
AcDbLine
 10
7.2099477692
 20
-115.8539664503
 30
0.0
 11
6.9339901079
 21
-118.390508789
 31
0.0
  0
LINE
  5
ED
330
1F
100
AcDbEntity
  8
0
  6
Continuous
 62
     7
370
    25
100
AcDbLine
 10
9.3987078499
 20
-111.4575450793
 30
0.0
 11
9.0547058337
 21
-114.6442890309
 31
0.0
  0
LINE
  5
EE
330
1F
100
AcDbEntity
  8
0
  6
Continuous
 62
     7
370
    25
100
AcDbLine
 10
8.3062179305
 20
-111.1286640309
 30
0.0
 11
9.3987078499
 21
-111.4575450793
 31
0.0
  0
LINE
  5
EF
330
1F
100
AcDbEntity
  8
0
  6
Continuous
 62
     7
370
    25
100
AcDbLine
 10
4.2084356725
 20
-118.7004886277
 30
0.0
 11
4.7414497854
 21
-113.7823938696
 31
0.0
  0
LINE
  5
F0
330
1F
100
AcDbEntity
  8
0
  6
Continuous
 62
     7
370
    25
100
AcDbLine
 10
9.2399376886
 20
-124.1969604019
 30
0.0
 11
6.8470445434
 21
-123.4106700793
 31
0.0
  0
LINE
  5
F1
330
1F
100
AcDbEntity
  8
0
  6
Continuous
 62
     7
370
    25
100
AcDbLine
 10
13.7377549875
 20
-140.6193583562
 30
0.0
 11
11.2654767617
 21
-139.8066063401
 31
0.0
  0
LINE
  5
F2
330
1F
100
AcDbEntity
  8
0
  6
Continuous
 62
     7
370
    25
100
AcDbLine
 10
17.8166360359
 20
-133.0248523079
 30
0.0
 11
17.283621923
 21
-137.9429470659
 31
0.0
  0
LINE
  5
F3
330
1F
100
AcDbEntity
  8
0
  6
Continuous
 62
     7
370
    25
100
AcDbLine
 10
13.9607892617
 20
-127.9706688401
 30
0.0
 11
15.053279181
 21
-128.2995498885
 31
0.0
  0
LINE
  5
F4
330
1F
100
AcDbEntity
  8
0
  6
Continuous
 62
     7
370
    25
100
AcDbLine
 10
14.8151239391
 20
-135.8940559369
 30
0.0
 11
15.0873013585
 21
-133.3801950498
 31
0.0
  0
LINE
  5
F5
330
1F
100
AcDbEntity
  8
0
  6
Continuous
 62
     7
370
    25
100
AcDbLine
 10
12.6339243423
 20
-136.9941063401
 30
0.0
 11
12.9703658746
 21
-137.1075135982
 31
0.0
  0
LINE
  5
F6
330
1F
100
AcDbEntity
  8
0
  6
Continuous
 62
     7
370
    25
100
AcDbLine
 10
11.537654181
 20
-132.2385619853
 30
0.0
 11
11.2616965197
 21
-134.775104324
 31
0.0
  0
LINE
  5
F7
330
1F
100
AcDbEntity
  8
0
  6
Continuous
 62
     7
370
    25
100
AcDbLine
 10
8.5966259552
 20
-134.540729324
 30
0.0
 11
8.9406279714
 21
-131.3804470659
 31
0.0
  0
LINE
  5
F8
330
1F
100
AcDbEntity
  8
0
  6
Continuous
 62
     7
370
    25
100
AcDbLine
 10
6.8274727294
 20
-135.0510619853
 30
0.0
 11
7.1223316004
 21
-135.1380075498
 31
0.0
  0
LINE
  5
F9
330
1F
100
AcDbEntity
  8
0
  6
Continuous
 62
     7
370
    25
100
AcDbLine
 10
5.6329162778
 20
-130.2841769046
 30
0.0
 11
5.3569586165
 21
-132.8207192433
 31
0.0
  0
LINE
  5
FA
330
1F
100
AcDbEntity
  8
0
  6
Continuous
 62
     7
370
    25
100
AcDbLine
 10
6.7291864391
 20
-125.5588744853
 30
0.0
 11
7.8216763585
 21
-125.8877555337
 31
0.0
  0
LINE
  5
FB
330
1F
100
AcDbEntity
  8
0
  6
Continuous
 62
     7
370
    25
100
AcDbLine
 10
2.631404181
 20
-133.130699082
 30
0.0
 11
3.1644182939
 21
-128.212604324
 31
0.0
  0
LINE
  5
FC
330
1F
100
AcDbEntity
  8
0
  6
Continuous
 62
     7
370
    25
100
AcDbLine
 10
7.6629061972
 20
-138.6271708562
 30
0.0
 11
5.270013052
 21
-137.8408805337
 31
0.0
  0
LINE
  5
FD
330
1F
100
AcDbEntity
  8
0
  6
Continuous
 62
     7
370
    25
100
AcDbLine
 10
2.4815946658
 20
-175.5681983085
 30
0.0
 11
12.4815946658
 21
-175.5681983085
 31
0.0
  0
LINE
  5
FE
330
1F
100
AcDbEntity
  8
0
  6
Continuous
 62
     7
370
    25
100
AcDbLine
 10
-16.1312912827
 20
-8.748494639
 30
0.0
 11
-7.5034094356
 21
-166.1156406294
 31
0.0
  0
LINE
  5
FF
330
1F
100
AcDbEntity
  8
0
  6
Continuous
 62
     7
370
    25
100
AcDbLine
 10
-41.3040406526
 20
-7.7499942289
 30
0.0
 11
-17.1860355147
 21
-7.7499942289
 31
0.0
  0
LINE
  5
100
330
1F
100
AcDbEntity
  8
0
  6
Continuous
 62
     7
370
    25
100
AcDbLine
 10
-62.3039353223
 20
-7.7499942289
 30
0.0
 11
-43.3040406526
 21
-7.7499942289
 31
0.0
  0
LINE
  5
101
330
1F
100
AcDbEntity
  8
0
  6
Continuous
 62
     7
370
    25
100
AcDbLine
 10
-43.3019318275
 20
12.2500057711
 30
0.0
 11
-62.3039353223
 21
12.2500057711
 31
0.0
  0
LINE
  5
102
330
1F
100
AcDbEntity
  8
0
  6
Continuous
 62
     7
370
    25
100
AcDbLine
 10
64.4765372177
 20
12.2500057711
 30
0.0
 11
-16.2825645002
 21
12.2500057711
 31
0.0
  0
LINE
  5
103
330
1F
100
AcDbEntity
  8
0
  6
Continuous
 62
     7
370
    25
100
AcDbLine
 10
12.4152297382
 20
-77.7499942289
 30
0.0
 11
25.5359041403
 21
-77.7499942289
 31
0.0
  0
LINE
  5
104
330
1F
100
AcDbEntity
  8
0
  6
Continuous
 62
     7
370
    25
100
AcDbLine
 10
44.1256427818
 20
-7.7499942289
 30
0.0
 11
9.1256427818
 21
-7.7499942289
 31
0.0
  0
LINE
  5
105
330
1F
100
AcDbEntity
  8
0
  6
Continuous
 62
     7
370
    25
100
AcDbLine
 10
4.1331407311
 20
-13.0237153893
 30
0.0
 11
7.4227276875
 21
-73.0237153893
 31
0.0
  0
LINE
  5
106
330
1F
100
AcDbEntity
  8
0
  6
Continuous
 62
     7
370
    25
100
AcDbLine
 10
16.8918179703
 20
-111.7589374476
 30
0.0
 11
14.4195397445
 21
-110.9461854314
 31
0.0
  0
LINE
  5
107
330
1F
100
AcDbEntity
  8
0
  6
Continuous
 62
     7
370
    25
100
AcDbLine
 10
17.1148522445
 20
-99.1102479314
 30
0.0
 11
18.2073421639
 21
-99.4391289798
 31
0.0
  0
LINE
  5
108
330
1F
100
AcDbEntity
  8
0
  6
Continuous
 62
     7
370
    25
100
AcDbLine
 10
17.9691869219
 20
-107.0336350282
 30
0.0
 11
18.2413643413
 21
-104.5197741411
 31
0.0
  0
LINE
  5
109
330
1F
100
AcDbEntity
  8
0
  6
Continuous
 62
     7
370
    25
100
AcDbLine
 10
15.7879873252
 20
-108.1336854314
 30
0.0
 11
16.1244288574
 21
-108.2470926895
 31
0.0
  0
LINE
  5
10A
330
1F
100
AcDbEntity
  8
0
  6
Continuous
 62
     7
370
    25
100
AcDbLine
 10
14.6917171639
 20
-103.3781410766
 30
0.0
 11
14.4157595026
 21
-105.9146834153
 31
0.0
  0
LINE
  5
10B
330
1F
100
AcDbEntity
  8
0
  6
Continuous
 62
     7
370
    25
100
AcDbLine
 10
12.0946909542
 20
-102.5200261573
 30
0.0
 11
14.6917171639
 21
-103.3781410766
 31
0.0
  0
LINE
  5
10C
330
1F
100
AcDbEntity
  8
0
  6
Continuous
 62
     7
370
    25
100
AcDbLine
 10
11.7506889381
 20
-105.6803084153
 30
0.0
 11
12.0946909542
 21
-102.5200261573
 31
0.0
  0
LINE
  5
10D
330
1F
100
AcDbEntity
  8
0
  6
Continuous
 62
     7
370
    25
100
AcDbLine
 10
9.9815357122
 20
-106.1906410766
 30
0.0
 11
10.2763945832
 21
-106.2775866411
 31
0.0
  0
LINE
  5
10E
330
1F
100
AcDbEntity
  8
0
  6
Continuous
 62
     7
370
    25
100
AcDbLine
 10
8.7869792606
 20
-101.423755996
 30
0.0
 11
8.5110215993
 21
-103.9602983347
 31
0.0
  0
LINE
  5
10F
330
1F
100
AcDbEntity
  8
0
  6
Continuous
 62
     7
370
    25
100
AcDbLine
 10
10.9757393413
 20
-97.027334625
 30
0.0
 11
10.6317373252
 21
-100.2140785766
 31
0.0
  0
LINE
  5
110
330
1F
100
AcDbEntity
  8
0
  6
Continuous
 62
     7
370
    25
100
AcDbLine
 10
9.8832494219
 20
-96.6984535766
 30
0.0
 11
10.9757393413
 21
-97.027334625
 31
0.0
  0
LINE
  5
111
330
1F
100
AcDbEntity
  8
0
  6
Continuous
 62
     7
370
    25
100
AcDbLine
 10
10.81696918
 20
-109.7667499476
 30
0.0
 11
8.4240760348
 21
-108.980459625
 31
0.0
  0
LINE
  5
112
330
1F
100
AcDbEntity
  8
0
  6
Continuous
 62
     7
370
    25
100
AcDbLine
 10
8.9406279714
 20
-131.3804470659
 30
0.0
 11
11.537654181
 21
-132.2385619853
 31
0.0
  0
LINE
  5
113
330
1F
100
AcDbEntity
  8
0
  6
Continuous
 62
     7
370
    25
100
AcDbLine
 10
30.3119217232
 20
-74.2297428724
 30
0.0
 11
48.9016603646
 21
-14.2297428724
 31
0.0
  0
LINE
  5
114
330
1F
100
AcDbEntity
  8
0
  6
Continuous
 62
     7
370
    25
100
AcDbLine
 10
7.8216763585
 20
-125.8877555337
 30
0.0
 11
7.4776743423
 21
-129.0744994853
 31
0.0
  0
LINE
  5
115
330
1F
100
AcDbEntity
  8
0
  6
Continuous
 62
     7
370
    25
100
AcDbLine
 10
22.0336298315
 20
-168.5276955956
 30
0.0
 11
74.0285723834
 21
-0.709491516
 31
0.0
  0
LINE
  5
116
330
1F
100
AcDbEntity
  8
0
  6
Continuous
 62
     7
370
    25
100
AcDbLine
 10
-18.2825645002
 20
12.2500057711
 30
0.0
 11
-41.3061494778
 21
12.2500057711
 31
0.0
  0
LINE
  5
117
330
1F
100
AcDbEntity
  8
0
  6
Continuous
 62
     7
370
    25
100
AcDbLine
 10
5.7854671639
 20
-104.2702781734
 30
0.0
 11
6.3184812768
 21
-99.3521834153
 31
0.0
  0
LINE
  5
118
330
1F
100
AcDbEntity
  8
0
  6
Continuous
 62
     7
370
    25
100
AcDbLine
 10
14.2109558337
 20
-122.5638958858
 30
0.0
 11
14.547397366
 21
-122.6773031438
 31
0.0
  0
LINE
  5
119
330
1F
100
AcDbEntity
  8
0
  6
Continuous
 62
     7
370
    25
100
AcDbLine
 10
13.6167872456
 20
-131.1536325498
 30
0.0
 11
13.9607892617
 21
-127.9706688401
 31
0.0
  0
LINE
  5
11A
330
1F
100
AcDbEntity
  8
0
  6
Continuous
 62
     7
370
    25
100
AcDbLine
 10
16.7708502284
 20
-102.2932116411
 30
0.0
 11
17.1148522445
 21
-99.1102479314
 31
0.0
  0
LINE
  5
11B
330
1F
100
AcDbEntity
  8
0
  6
Continuous
 62
     7
370
    25
100
AcDbLine
 10
20.9706990187
 20
-104.1644313992
 30
0.0
 11
20.4376849058
 21
-109.0825261573
 31
0.0
  0
ARC
  5
11C
330
1F
100
AcDbEntity
  8
0
  6
Continuous
 62
     7
370
    25
100
AcDbCircle
 10
12.4815946658
 20
-165.5681983085
 30
0.0
 40
10.00000000000003
100
AcDbArc
 50
270.0
 51
342.7855040055
  0
ARC
  5
11D
330
1F
100
AcDbEntity
  8
0
  6
Continuous
 62
     7
370
    25
100
AcDbCircle
 10
-16.1860355147
 20
-7.7499942289
 30
0.0
 40
1.000000000000004
100
AcDbArc
 50
273.1381822702
 51
180.0
  0
ARC
  5
11E
330
1F
100
AcDbEntity
  8
0
  6
Continuous
 62
     7
370
    25
100
AcDbCircle
 10
-62.3039353223
 20
2.2500057711
 30
0.0
 40
10.00000000000002
100
AcDbArc
 50
90.0
 51
270.0
  0
ARC
  5
11F
330
1F
100
AcDbEntity
  8
0
  6
Continuous
 62
     7
370
    25
100
AcDbCircle
 10
-42.3040406526
 20
12.314914963
 30
0.0
 40
0.9999999999999968
100
AcDbArc
 50
183.7216392105
 51
356.2783607896
  0
ARC
  5
120
330
1F
100
AcDbEntity
  8
0
  6
Continuous
 62
     7
370
    25
100
AcDbCircle
 10
-17.2825645002
 20
12.2500057711
 30
0.0
 40
1.000000000000007
100
AcDbArc
 50
180.0
 51
0.0
  0
ARC
  5
121
330
1F
100
AcDbEntity
  8
0
  6
Continuous
 62
     7
370
    25
100
AcDbCircle
 10
64.4765372177
 20
2.2500057711
 30
0.0
 40
10.0
100
AcDbArc
 50
342.7855040055
 51
90.0
  0
ARC
  5
122
330
1F
100
AcDbEntity
  8
0
  6
Continuous
 62
     7
370
    25
100
AcDbCircle
 10
25.5359041403
 20
-72.7499942289
 30
0.0
 40
5.000000000000028
100
AcDbArc
 50
270.0
 51
342.7855040055
  0
ARC
  5
123
330
1F
100
AcDbEntity
  8
0
  6
Continuous
 62
     7
370
    25
100
AcDbCircle
 10
44.1256427818
 20
-12.7499942289
 30
0.0
 40
5.00000000000002
100
AcDbArc
 50
342.7855040055
 51
90.0
  0
ARC
  5
124
330
1F
100
AcDbEntity
  8
0
  6
Continuous
 62
     7
370
    25
100
AcDbCircle
 10
9.1256427818
 20
-12.7499942289
 30
0.0
 40
5.000000000000018
100
AcDbArc
 50
90.0
 51
183.1381822702
  0
ARC
  5
125
330
1F
100
AcDbEntity
  8
0
  6
Continuous
 62
     7
370
    25
100
AcDbCircle
 10
12.4152297382
 20
-72.7499942289
 30
0.0
 40
5.000000000000001
100
AcDbArc
 50
183.1381822702
 51
270.0
  0
ARC
  5
126
330
1F
100
AcDbEntity
  8
0
  6
Continuous
 62
     7
370
    25
100
AcDbCircle
 10
-42.3040406526
 20
-7.7499942289
 30
0.0
 40
1.0
100
AcDbArc
 50
0.0
 51
180.0
  0
ARC
  5
127
330
1F
100
AcDbEntity
  8
0
  6
Continuous
 62
     7
370
    25
100
AcDbCircle
 10
2.4815946658
 20
-165.5681983085
 30
0.0
 40
9.999999999999973
100
AcDbArc
 50
183.1381822702
 51
270.0
  0
MTEXT
  5
129
330
1F
100
AcDbEntity
  8
0
  6
Continuous
 62
     7
100
AcDbMText
 10
-72.3039353223
 20
-176.5877647002
 30
0.0
 40
4.83362
 41
0.0
 71
     1
 72
     1
  1
Produit SOLIDWORKS Maker – Usage personnel uniquement.
  7
SLDTEXTSTYLE0
 73
     1
 44
1.0
  0
ENDSEC
  0
SECTION
  2
OBJECTS
  0
DICTIONARY
  5
C
330
0
100
AcDbDictionary
281
     1
  3
ACAD_GROUP
350
D
  3
ACAD_LAYOUT
350
1A
  3
ACAD_MLINESTYLE
350
17
  3
ACAD_PLOTSETTINGS
350
19
  3
ACAD_PLOTSTYLENAME
350
E
  3
ACAD_SCALELIST
350
47
  3
DWGPROPS
350
12A
  0
DICTIONARY
  5
D
102
{ACAD_REACTORS
330
C
102
}
330
C
100
AcDbDictionary
281
     1
  0
DICTIONARY
  5
1A
102
{ACAD_REACTORS
330
C
102
}
330
C
100
AcDbDictionary
281
     1
  3
Layout1
350
1E
  3
Layout2
350
26
  3
Model
350
22
  0
DICTIONARY
  5
17
102
{ACAD_REACTORS
330
C
102
}
330
C
100
AcDbDictionary
281
     1
  3
Standard
350
18
  0
DICTIONARY
  5
19
102
{ACAD_REACTORS
330
C
102
}
330
C
100
AcDbDictionary
281
     1
  0
ACDBDICTIONARYWDFLT
  5
E
102
{ACAD_REACTORS
330
C
102
}
330
C
100
AcDbDictionary
281
     1
  3
Normal
350
F
100
AcDbDictionaryWithDefault
340
F
  0
DICTIONARY
  5
47
102
{ACAD_REACTORS
330
C
102
}
330
C
100
AcDbDictionary
281
     1
  3
A0
350
48
  3
A1
350
49
  3
A2
350
4A
  3
A3
350
4B
  3
A4
350
4C
  3
A5
350
4D
  3
A6
350
4E
  3
A7
350
4F
  3
A8
350
50
  3
A9
350
51
  3
B0
350
52
  3
B1
350
53
  3
B2
350
54
  3
B3
350
55
  3
B4
350
56
  3
B5
350
57
  3
B6
350
58
  0
XRECORD
  5
12A
102
{ACAD_REACTORS
330
C
102
}
330
C
100
AcDbXrecord
280
     1
  1
DWGPROPS COOKIE
  2

  3

  4

  6

  7

  8
cyprien
  9

300
=
301
=
302
=
303
=
304
=
305
=
306
=
307
=
308
=
309
=
 40
0.0
 41
2459958.647780382
 42
2459958.647822905
  1

 90
        0
  0
LAYOUT
  5
1E
102
{ACAD_REACTORS
330
1A
102
}
330
1A
100
AcDbPlotSettings
  1

  2
none_device
  4

  6

 40
0.0
 41
0.0
 42
0.0
 43
0.0
 44
0.0
 45
0.0
 46
0.0
 47
0.0
 48
0.0
 49
0.0
140
0.0
141
0.0
142
1.0
143
1.0
 70
   688
 72
     1
 73
     0
 74
     5
  7

 75
    16
147
1.0
148
0.0
149
0.0
100
AcDbLayout
  1
Layout1
 70
     1
 71
     1
 10
0.0
 20
0.0
 11
420.0
 21
297.0
 12
0.0
 22
0.0
 32
0.0
 14
1.0000000000E+20
 24
1.0000000000E+20
 34
1.0000000000E+20
 15
-1.0000000000E+20
 25
-1.0000000000E+20
 35
-1.0000000000E+20
146
0.0
 13
0.0
 23
0.0
 33
0.0
 16
1.0
 26
0.0
 36
0.0
 17
0.0
 27
1.0
 37
0.0
 76
     0
330
1B
  0
LAYOUT
  5
26
102
{ACAD_REACTORS
330
1A
102
}
330
1A
100
AcDbPlotSettings
  1

  2
none_device
  4

  6

 40
0.0
 41
0.0
 42
0.0
 43
0.0
 44
0.0
 45
0.0
 46
0.0
 47
0.0
 48
0.0
 49
0.0
140
0.0
141
0.0
142
1.0
143
1.0
 70
   688
 72
     1
 73
     0
 74
     5
  7

 75
    16
147
1.0
148
0.0
149
0.0
100
AcDbLayout
  1
Layout2
 70
     1
 71
     2
 10
0.0
 20
0.0
 11
0.0
 21
0.0
 12
0.0
 22
0.0
 32
0.0
 14
0.0
 24
0.0
 34
0.0
 15
0.0
 25
0.0
 35
0.0
146
0.0
 13
0.0
 23
0.0
 33
0.0
 16
1.0
 26
0.0
 36
0.0
 17
0.0
 27
1.0
 37
0.0
 76
     0
330
23
  0
LAYOUT
  5
22
102
{ACAD_REACTORS
330
1A
102
}
330
1A
100
AcDbPlotSettings
  1

  2
none_device
  4
ANSI_A_(11.00_x_8.50_Inches)
  6

 40
6.35
 41
19.05
 42
6.35000508
 43
19.05000254
 44
279.4
 45
215.9
 46
132.1137645187
 47
181.8297388534
 48
0.0
 49
0.0
140
0.0
141
0.0
142
0.0448039637
143
1.0
 70
  1696
 72
     0
 73
     0
 74
     0
  7

 75
     0
147
0.0179189148
148
-1300.4909072572
149
0.0
100
AcDbLayout
  1
Model
 70
     1
 71
     0
 10
0.0
 20
0.0
 11
420.0
 21
297.0
 12
0.0
 22
0.0
 32
0.0
 14
-72.3039353223
 24
-175.5681983085
 34
0.0
 15
74.4765372177
 25
12.2500057711
 35
0.0
146
0.0
 13
0.0
 23
0.0
 33
0.0
 16
1.0
 26
0.0
 36
0.0
 17
0.0
 27
1.0
 37
0.0
 76
     0
330
1F
331
29
  0
MLINESTYLE
  5
18
102
{ACAD_REACTORS
330
17
102
}
330
17
100
AcDbMlineStyle
  2
Standard
 70
     0
  3

 62
   256
 51
90.0
 52
90.0
 71
     2
 49
0.5
 62
   256
  6
BYLAYER
 49
-0.5
 62
   256
  6
BYLAYER
  0
ACDBPLACEHOLDER
  5
F
102
{ACAD_REACTORS
330
E
102
}
330
E
  0
SCALE
  5
48
102
{ACAD_REACTORS
330
47
102
}
330
47
100
AcDbScale
 70
     0
300
1:1
140
1.0
141
1.0
290
     1
  0
SCALE
  5
49
102
{ACAD_REACTORS
330
47
102
}
330
47
100
AcDbScale
 70
     0
300
1:2
140
1.0
141
2.0
290
     0
  0
SCALE
  5
4A
102
{ACAD_REACTORS
330
47
102
}
330
47
100
AcDbScale
 70
     0
300
1:4
140
1.0
141
4.0
290
     0
  0
SCALE
  5
4B
102
{ACAD_REACTORS
330
47
102
}
330
47
100
AcDbScale
 70
     0
300
1:5
140
1.0
141
5.0
290
     0
  0
SCALE
  5
4C
102
{ACAD_REACTORS
330
47
102
}
330
47
100
AcDbScale
 70
     0
300
1:8
140
1.0
141
8.0
290
     0
  0
SCALE
  5
4D
102
{ACAD_REACTORS
330
47
102
}
330
47
100
AcDbScale
 70
     0
300
1:10
140
1.0
141
10.0
290
     0
  0
SCALE
  5
4E
102
{ACAD_REACTORS
330
47
102
}
330
47
100
AcDbScale
 70
     0
300
1:16
140
1.0
141
16.0
290
     0
  0
SCALE
  5
4F
102
{ACAD_REACTORS
330
47
102
}
330
47
100
AcDbScale
 70
     0
300
1:20
140
1.0
141
20.0
290
     0
  0
SCALE
  5
50
102
{ACAD_REACTORS
330
47
102
}
330
47
100
AcDbScale
 70
     0
300
1:30
140
1.0
141
30.0
290
     0
  0
SCALE
  5
51
102
{ACAD_REACTORS
330
47
102
}
330
47
100
AcDbScale
 70
     0
300
1:40
140
1.0
141
40.0
290
     0
  0
SCALE
  5
52
102
{ACAD_REACTORS
330
47
102
}
330
47
100
AcDbScale
 70
     0
300
1:50
140
1.0
141
50.0
290
     0
  0
SCALE
  5
53
102
{ACAD_REACTORS
330
47
102
}
330
47
100
AcDbScale
 70
     0
300
1:100
140
1.0
141
100.0
290
     0
  0
SCALE
  5
54
102
{ACAD_REACTORS
330
47
102
}
330
47
100
AcDbScale
 70
     0
300
2:1
140
2.0
141
1.0
290
     0
  0
SCALE
  5
55
102
{ACAD_REACTORS
330
47
102
}
330
47
100
AcDbScale
 70
     0
300
4:1
140
4.0
141
1.0
290
     0
  0
SCALE
  5
56
102
{ACAD_REACTORS
330
47
102
}
330
47
100
AcDbScale
 70
     0
300
8:1
140
8.0
141
1.0
290
     0
  0
SCALE
  5
57
102
{ACAD_REACTORS
330
47
102
}
330
47
100
AcDbScale
 70
     0
300
10:1
140
10.0
141
1.0
290
     0
  0
SCALE
  5
58
102
{ACAD_REACTORS
330
47
102
}
330
47
100
AcDbScale
 70
     0
300
100:1
140
100.0
141
1.0
290
     0
  0
ENDSEC
  0
EOF
