ISO-10303-21;
HEADER;
FILE_DESCRIPTION(('CATIA V5 STEP Exchange'),'2;1');

FILE_NAME('C:\\Documents and Settings\\MOI\\Bureau\\mitsu\\piece etrier.stp','2023-01-05T20:07:01+00:00',('none'),('none'),'CATIA Version 5 Release 19 SP 2 (IN-10)','CATIA V5 STEP AP203','none');

FILE_SCHEMA(('CONFIG_CONTROL_DESIGN'));

ENDSEC;
/* file written by CATIA V5R19 */
DATA;
#5=PRODUCT('Part2','','',(#2)) ;
#1=APPLICATION_CONTEXT('configuration controlled 3D design of mechanical parts and assemblies') ;
#14=PRODUCT_DEFINITION('',' ',#6,#3) ;
#16=SECURITY_CLASSIFICATION(' ',' ',#15) ;
#15=SECURITY_CLASSIFICATION_LEVEL('unclassified') ;
#47=CARTESIAN_POINT(' ',(0.,0.,0.)) ;
#52=CARTESIAN_POINT('Axis2P3D Location',(0.,27.5,2.5)) ;
#57=CARTESIAN_POINT('Line Origine',(5.,27.5,0.)) ;
#61=CARTESIAN_POINT('Vertex',(0.,27.5,0.)) ;
#63=CARTESIAN_POINT('Vertex',(10.,27.5,0.)) ;
#66=CARTESIAN_POINT('Line Origine',(0.,27.5,1.25)) ;
#70=CARTESIAN_POINT('Vertex',(0.,27.5,2.5)) ;
#73=CARTESIAN_POINT('Line Origine',(5.,27.5,2.5)) ;
#77=CARTESIAN_POINT('Vertex',(10.,27.5,2.5)) ;
#80=CARTESIAN_POINT('Line Origine',(10.,27.5,1.25)) ;
#92=CARTESIAN_POINT('Axis2P3D Location',(5.,30.,2.5)) ;
#97=CARTESIAN_POINT('Axis2P3D Location',(0.,30.,2.5)) ;
#101=CARTESIAN_POINT('Vertex',(0.,30.,5.)) ;
#104=CARTESIAN_POINT('Line Origine',(5.,30.,5.)) ;
#108=CARTESIAN_POINT('Vertex',(10.,30.,5.)) ;
#111=CARTESIAN_POINT('Axis2P3D Location',(10.,30.,2.5)) ;
#123=CARTESIAN_POINT('Axis2P3D Location',(0.,30.,7.)) ;
#128=CARTESIAN_POINT('Line Origine',(0.,30.,6.)) ;
#132=CARTESIAN_POINT('Vertex',(0.,30.,7.)) ;
#135=CARTESIAN_POINT('Line Origine',(5.,30.,7.)) ;
#139=CARTESIAN_POINT('Vertex',(10.,30.,7.)) ;
#142=CARTESIAN_POINT('Line Origine',(10.,30.,6.)) ;
#154=CARTESIAN_POINT('Axis2P3D Location',(0.,0.,5.)) ;
#159=CARTESIAN_POINT('Line Origine',(5.,0.,7.)) ;
#163=CARTESIAN_POINT('Vertex',(0.,-1.06581410364E-014,7.)) ;
#165=CARTESIAN_POINT('Vertex',(10.,-1.06581410364E-014,7.)) ;
#168=CARTESIAN_POINT('Line Origine',(0.,0.,6.)) ;
#172=CARTESIAN_POINT('Vertex',(0.,0.,5.)) ;
#175=CARTESIAN_POINT('Line Origine',(5.,0.,5.)) ;
#179=CARTESIAN_POINT('Vertex',(10.,0.,5.)) ;
#182=CARTESIAN_POINT('Line Origine',(10.,0.,6.)) ;
#194=CARTESIAN_POINT('Axis2P3D Location',(5.,0.,2.5)) ;
#199=CARTESIAN_POINT('Axis2P3D Location',(0.,0.,2.5)) ;
#203=CARTESIAN_POINT('Vertex',(0.,2.5,2.5)) ;
#206=CARTESIAN_POINT('Line Origine',(5.,2.5,2.5)) ;
#210=CARTESIAN_POINT('Vertex',(10.,2.5,2.5)) ;
#213=CARTESIAN_POINT('Axis2P3D Location',(10.,0.,2.5)) ;
#225=CARTESIAN_POINT('Axis2P3D Location',(0.,2.5,2.5)) ;
#230=CARTESIAN_POINT('Line Origine',(0.,2.5,1.25)) ;
#234=CARTESIAN_POINT('Vertex',(0.,2.5,0.)) ;
#237=CARTESIAN_POINT('Line Origine',(5.,2.5,0.)) ;
#241=CARTESIAN_POINT('Vertex',(10.,2.5,0.)) ;
#244=CARTESIAN_POINT('Line Origine',(10.,2.5,1.25)) ;
#256=CARTESIAN_POINT('Axis2P3D Location',(0.,0.,0.)) ;
#261=CARTESIAN_POINT('Line Origine',(0.,15.,7.)) ;
#266=CARTESIAN_POINT('Line Origine',(0.,15.,0.)) ;
#282=CARTESIAN_POINT('Axis2P3D Location',(10.,0.,0.)) ;
#287=CARTESIAN_POINT('Line Origine',(10.,15.,0.)) ;
#292=CARTESIAN_POINT('Line Origine',(10.,15.,7.)) ;
#308=CARTESIAN_POINT('Axis2P3D Location',(0.,2.5,0.)) ;
#319=CARTESIAN_POINT('Axis2P3D Location',(5.,15.,0.)) ;
#323=CARTESIAN_POINT('Vertex',(2.5,15.,0.)) ;
#325=CARTESIAN_POINT('Vertex',(7.5,15.,0.)) ;
#328=CARTESIAN_POINT('Axis2P3D Location',(5.,15.,0.)) ;
#338=CARTESIAN_POINT('Axis2P3D Location',(5.,15.,2.)) ;
#343=CARTESIAN_POINT('Axis2P3D Location',(5.,15.,4.)) ;
#347=CARTESIAN_POINT('Vertex',(7.5,15.,4.)) ;
#349=CARTESIAN_POINT('Vertex',(2.5,15.,4.)) ;
#352=CARTESIAN_POINT('Line Origine',(2.5,15.,2.)) ;
#357=CARTESIAN_POINT('Line Origine',(7.5,15.,2.)) ;
#369=CARTESIAN_POINT('Axis2P3D Location',(5.,15.,4.)) ;
#381=CARTESIAN_POINT('Axis2P3D Location',(0.,30.,7.)) ;
#392=CARTESIAN_POINT('Axis2P3D Location',(5.,15.,7.)) ;
#396=CARTESIAN_POINT('Vertex',(9.5,15.,7.)) ;
#398=CARTESIAN_POINT('Vertex',(0.5,15.,7.)) ;
#401=CARTESIAN_POINT('Axis2P3D Location',(5.,15.,7.)) ;
#411=CARTESIAN_POINT('Axis2P3D Location',(5.,15.,5.5)) ;
#416=CARTESIAN_POINT('Line Origine',(9.5,15.,5.5)) ;
#420=CARTESIAN_POINT('Vertex',(9.5,15.,4.)) ;
#423=CARTESIAN_POINT('Line Origine',(0.5,15.,5.5)) ;
#427=CARTESIAN_POINT('Vertex',(0.5,15.,4.)) ;
#430=CARTESIAN_POINT('Axis2P3D Location',(5.,15.,4.)) ;
#442=CARTESIAN_POINT('Axis2P3D Location',(5.,15.,4.)) ;
#454=CARTESIAN_POINT('Axis2P3D Location',(0.,0.,4.)) ;
#53=DIRECTION('Axis2P3D Direction',(0.,-1.,0.)) ;
#54=DIRECTION('Axis2P3D XDirection',(0.,0.,-1.)) ;
#58=DIRECTION('Vector Direction',(1.,0.,0.)) ;
#67=DIRECTION('Vector Direction',(0.,0.,-1.)) ;
#74=DIRECTION('Vector Direction',(1.,0.,0.)) ;
#81=DIRECTION('Vector Direction',(0.,0.,-1.)) ;
#93=DIRECTION('Axis2P3D Direction',(1.,0.,0.)) ;
#94=DIRECTION('Axis2P3D XDirection',(0.,6.12323399574E-017,1.)) ;
#98=DIRECTION('Axis2P3D Direction',(1.,0.,0.)) ;
#105=DIRECTION('Vector Direction',(1.,0.,0.)) ;
#112=DIRECTION('Axis2P3D Direction',(1.,0.,0.)) ;
#124=DIRECTION('Axis2P3D Direction',(0.,-1.,0.)) ;
#125=DIRECTION('Axis2P3D XDirection',(0.,0.,-1.)) ;
#129=DIRECTION('Vector Direction',(0.,0.,-1.)) ;
#136=DIRECTION('Vector Direction',(1.,0.,0.)) ;
#143=DIRECTION('Vector Direction',(0.,0.,-1.)) ;
#155=DIRECTION('Axis2P3D Direction',(0.,1.,0.)) ;
#156=DIRECTION('Axis2P3D XDirection',(0.,0.,1.)) ;
#160=DIRECTION('Vector Direction',(1.,0.,0.)) ;
#169=DIRECTION('Vector Direction',(0.,0.,1.)) ;
#176=DIRECTION('Vector Direction',(1.,0.,0.)) ;
#183=DIRECTION('Vector Direction',(0.,0.,1.)) ;
#195=DIRECTION('Axis2P3D Direction',(1.,0.,0.)) ;
#196=DIRECTION('Axis2P3D XDirection',(0.,1.,0.)) ;
#200=DIRECTION('Axis2P3D Direction',(1.,0.,0.)) ;
#207=DIRECTION('Vector Direction',(1.,0.,0.)) ;
#214=DIRECTION('Axis2P3D Direction',(1.,0.,0.)) ;
#226=DIRECTION('Axis2P3D Direction',(0.,-1.,0.)) ;
#227=DIRECTION('Axis2P3D XDirection',(0.,0.,-1.)) ;
#231=DIRECTION('Vector Direction',(0.,0.,-1.)) ;
#238=DIRECTION('Vector Direction',(1.,0.,0.)) ;
#245=DIRECTION('Vector Direction',(0.,0.,-1.)) ;
#257=DIRECTION('Axis2P3D Direction',(1.,0.,0.)) ;
#258=DIRECTION('Axis2P3D XDirection',(0.,1.,0.)) ;
#262=DIRECTION('Vector Direction',(0.,-1.,0.)) ;
#267=DIRECTION('Vector Direction',(0.,1.,0.)) ;
#283=DIRECTION('Axis2P3D Direction',(1.,0.,0.)) ;
#284=DIRECTION('Axis2P3D XDirection',(0.,1.,0.)) ;
#288=DIRECTION('Vector Direction',(0.,1.,0.)) ;
#293=DIRECTION('Vector Direction',(0.,-1.,0.)) ;
#309=DIRECTION('Axis2P3D Direction',(0.,0.,-1.)) ;
#310=DIRECTION('Axis2P3D XDirection',(0.,1.,0.)) ;
#320=DIRECTION('Axis2P3D Direction',(0.,0.,-1.)) ;
#329=DIRECTION('Axis2P3D Direction',(0.,0.,-1.)) ;
#339=DIRECTION('Axis2P3D Direction',(0.,0.,1.)) ;
#340=DIRECTION('Axis2P3D XDirection',(-1.,5.66553889765E-016,0.)) ;
#344=DIRECTION('Axis2P3D Direction',(0.,0.,1.)) ;
#353=DIRECTION('Vector Direction',(0.,0.,1.)) ;
#358=DIRECTION('Vector Direction',(0.,0.,1.)) ;
#370=DIRECTION('Axis2P3D Direction',(0.,0.,1.)) ;
#382=DIRECTION('Axis2P3D Direction',(-0.,0.,1.)) ;
#383=DIRECTION('Axis2P3D XDirection',(0.,-1.,0.)) ;
#393=DIRECTION('Axis2P3D Direction',(-0.,0.,1.)) ;
#402=DIRECTION('Axis2P3D Direction',(-0.,0.,1.)) ;
#412=DIRECTION('Axis2P3D Direction',(-0.,0.,1.)) ;
#413=DIRECTION('Axis2P3D XDirection',(-1.,5.66553889765E-016,-0.)) ;
#417=DIRECTION('Vector Direction',(0.,0.,1.)) ;
#424=DIRECTION('Vector Direction',(0.,0.,1.)) ;
#431=DIRECTION('Axis2P3D Direction',(-0.,0.,1.)) ;
#443=DIRECTION('Axis2P3D Direction',(-0.,0.,1.)) ;
#455=DIRECTION('Axis2P3D Direction',(0.,0.,1.)) ;
#456=DIRECTION('Axis2P3D XDirection',(1.,0.,0.)) ;
#48=AXIS2_PLACEMENT_3D(' ',#47,$,$) ;
#55=AXIS2_PLACEMENT_3D('Plane Axis2P3D',#52,#53,#54) ;
#95=AXIS2_PLACEMENT_3D('Cylinder Axis2P3D',#92,#93,#94) ;
#99=AXIS2_PLACEMENT_3D('Circle Axis2P3D',#97,#98,$) ;
#113=AXIS2_PLACEMENT_3D('Circle Axis2P3D',#111,#112,$) ;
#126=AXIS2_PLACEMENT_3D('Plane Axis2P3D',#123,#124,#125) ;
#157=AXIS2_PLACEMENT_3D('Plane Axis2P3D',#154,#155,#156) ;
#197=AXIS2_PLACEMENT_3D('Cylinder Axis2P3D',#194,#195,#196) ;
#201=AXIS2_PLACEMENT_3D('Circle Axis2P3D',#199,#200,$) ;
#215=AXIS2_PLACEMENT_3D('Circle Axis2P3D',#213,#214,$) ;
#228=AXIS2_PLACEMENT_3D('Plane Axis2P3D',#225,#226,#227) ;
#259=AXIS2_PLACEMENT_3D('Plane Axis2P3D',#256,#257,#258) ;
#285=AXIS2_PLACEMENT_3D('Plane Axis2P3D',#282,#283,#284) ;
#311=AXIS2_PLACEMENT_3D('Plane Axis2P3D',#308,#309,#310) ;
#321=AXIS2_PLACEMENT_3D('Circle Axis2P3D',#319,#320,$) ;
#330=AXIS2_PLACEMENT_3D('Circle Axis2P3D',#328,#329,$) ;
#341=AXIS2_PLACEMENT_3D('Cylinder Axis2P3D',#338,#339,#340) ;
#345=AXIS2_PLACEMENT_3D('Circle Axis2P3D',#343,#344,$) ;
#371=AXIS2_PLACEMENT_3D('Circle Axis2P3D',#369,#370,$) ;
#384=AXIS2_PLACEMENT_3D('Plane Axis2P3D',#381,#382,#383) ;
#394=AXIS2_PLACEMENT_3D('Circle Axis2P3D',#392,#393,$) ;
#403=AXIS2_PLACEMENT_3D('Circle Axis2P3D',#401,#402,$) ;
#414=AXIS2_PLACEMENT_3D('Cylinder Axis2P3D',#411,#412,#413) ;
#432=AXIS2_PLACEMENT_3D('Circle Axis2P3D',#430,#431,$) ;
#444=AXIS2_PLACEMENT_3D('Circle Axis2P3D',#442,#443,$) ;
#457=AXIS2_PLACEMENT_3D('Plane Axis2P3D',#454,#455,#456) ;
#40=PRODUCT_DEFINITION_SHAPE(' ',' ',#14) ;
#31=APPROVAL_PERSON_ORGANIZATION(#25,#21,#19) ;
#25=PERSON_AND_ORGANIZATION(#22,#23) ;
#22=PERSON(' ',' ',' ',$,$,$) ;
#23=ORGANIZATION(' ',' ',' ') ;
#21=APPROVAL(#20,' ') ;
#20=APPROVAL_STATUS('not_yet_approved') ;
#19=APPROVAL_ROLE('APPROVER') ;
#13=DATE_AND_TIME(#11,#12) ;
#12=LOCAL_TIME(21,7,1.,#10) ;
#10=COORDINATED_UNIVERSAL_TIME_OFFSET(0,0,.AHEAD.) ;
#86=ORIENTED_EDGE('',*,*,#65,.F.) ;
#87=ORIENTED_EDGE('',*,*,#72,.T.) ;
#88=ORIENTED_EDGE('',*,*,#79,.T.) ;
#89=ORIENTED_EDGE('',*,*,#84,.F.) ;
#117=ORIENTED_EDGE('',*,*,#79,.F.) ;
#118=ORIENTED_EDGE('',*,*,#103,.T.) ;
#119=ORIENTED_EDGE('',*,*,#110,.T.) ;
#120=ORIENTED_EDGE('',*,*,#115,.F.) ;
#148=ORIENTED_EDGE('',*,*,#110,.F.) ;
#149=ORIENTED_EDGE('',*,*,#134,.T.) ;
#150=ORIENTED_EDGE('',*,*,#141,.T.) ;
#151=ORIENTED_EDGE('',*,*,#146,.F.) ;
#188=ORIENTED_EDGE('',*,*,#167,.F.) ;
#189=ORIENTED_EDGE('',*,*,#174,.T.) ;
#190=ORIENTED_EDGE('',*,*,#181,.T.) ;
#191=ORIENTED_EDGE('',*,*,#186,.F.) ;
#219=ORIENTED_EDGE('',*,*,#181,.F.) ;
#220=ORIENTED_EDGE('',*,*,#205,.T.) ;
#221=ORIENTED_EDGE('',*,*,#212,.T.) ;
#222=ORIENTED_EDGE('',*,*,#217,.F.) ;
#250=ORIENTED_EDGE('',*,*,#212,.F.) ;
#251=ORIENTED_EDGE('',*,*,#236,.T.) ;
#252=ORIENTED_EDGE('',*,*,#243,.T.) ;
#253=ORIENTED_EDGE('',*,*,#248,.F.) ;
#272=ORIENTED_EDGE('',*,*,#236,.F.) ;
#273=ORIENTED_EDGE('',*,*,#205,.F.) ;
#274=ORIENTED_EDGE('',*,*,#174,.F.) ;
#275=ORIENTED_EDGE('',*,*,#265,.F.) ;
#276=ORIENTED_EDGE('',*,*,#134,.F.) ;
#277=ORIENTED_EDGE('',*,*,#103,.F.) ;
#278=ORIENTED_EDGE('',*,*,#72,.F.) ;
#279=ORIENTED_EDGE('',*,*,#270,.F.) ;
#298=ORIENTED_EDGE('',*,*,#291,.T.) ;
#299=ORIENTED_EDGE('',*,*,#84,.T.) ;
#300=ORIENTED_EDGE('',*,*,#115,.T.) ;
#301=ORIENTED_EDGE('',*,*,#146,.T.) ;
#302=ORIENTED_EDGE('',*,*,#296,.T.) ;
#303=ORIENTED_EDGE('',*,*,#186,.T.) ;
#304=ORIENTED_EDGE('',*,*,#217,.T.) ;
#305=ORIENTED_EDGE('',*,*,#248,.T.) ;
#314=ORIENTED_EDGE('',*,*,#243,.F.) ;
#315=ORIENTED_EDGE('',*,*,#270,.T.) ;
#316=ORIENTED_EDGE('',*,*,#65,.T.) ;
#317=ORIENTED_EDGE('',*,*,#291,.F.) ;
#334=ORIENTED_EDGE('',*,*,#327,.F.) ;
#335=ORIENTED_EDGE('',*,*,#332,.F.) ;
#363=ORIENTED_EDGE('',*,*,#351,.T.) ;
#364=ORIENTED_EDGE('',*,*,#356,.T.) ;
#365=ORIENTED_EDGE('',*,*,#327,.T.) ;
#366=ORIENTED_EDGE('',*,*,#361,.F.) ;
#375=ORIENTED_EDGE('',*,*,#373,.T.) ;
#376=ORIENTED_EDGE('',*,*,#361,.T.) ;
#377=ORIENTED_EDGE('',*,*,#332,.T.) ;
#378=ORIENTED_EDGE('',*,*,#356,.F.) ;
#387=ORIENTED_EDGE('',*,*,#141,.F.) ;
#388=ORIENTED_EDGE('',*,*,#265,.T.) ;
#389=ORIENTED_EDGE('',*,*,#167,.T.) ;
#390=ORIENTED_EDGE('',*,*,#296,.F.) ;
#407=ORIENTED_EDGE('',*,*,#400,.F.) ;
#408=ORIENTED_EDGE('',*,*,#405,.F.) ;
#436=ORIENTED_EDGE('',*,*,#422,.F.) ;
#437=ORIENTED_EDGE('',*,*,#400,.T.) ;
#438=ORIENTED_EDGE('',*,*,#429,.T.) ;
#439=ORIENTED_EDGE('',*,*,#434,.F.) ;
#448=ORIENTED_EDGE('',*,*,#429,.F.) ;
#449=ORIENTED_EDGE('',*,*,#405,.T.) ;
#450=ORIENTED_EDGE('',*,*,#422,.T.) ;
#451=ORIENTED_EDGE('',*,*,#446,.F.) ;
#460=ORIENTED_EDGE('',*,*,#434,.T.) ;
#461=ORIENTED_EDGE('',*,*,#446,.T.) ;
#464=ORIENTED_EDGE('',*,*,#373,.F.) ;
#465=ORIENTED_EDGE('',*,*,#351,.F.) ;
#336=FACE_BOUND('',#333,.T.) ;
#409=FACE_BOUND('',#406,.T.) ;
#466=FACE_BOUND('',#463,.T.) ;
#51=CLOSED_SHELL('Closed Shell',(#91,#122,#153,#193,#224,#255,#281,#307,#337,#368,#380,#410,#441,#453,#467)) ;
#59=VECTOR('Line Direction',#58,1.) ;
#68=VECTOR('Line Direction',#67,1.) ;
#75=VECTOR('Line Direction',#74,1.) ;
#82=VECTOR('Line Direction',#81,1.) ;
#106=VECTOR('Line Direction',#105,1.) ;
#130=VECTOR('Line Direction',#129,1.) ;
#137=VECTOR('Line Direction',#136,1.) ;
#144=VECTOR('Line Direction',#143,1.) ;
#161=VECTOR('Line Direction',#160,1.) ;
#170=VECTOR('Line Direction',#169,1.) ;
#177=VECTOR('Line Direction',#176,1.) ;
#184=VECTOR('Line Direction',#183,1.) ;
#208=VECTOR('Line Direction',#207,1.) ;
#232=VECTOR('Line Direction',#231,1.) ;
#239=VECTOR('Line Direction',#238,1.) ;
#246=VECTOR('Line Direction',#245,1.) ;
#263=VECTOR('Line Direction',#262,1.) ;
#268=VECTOR('Line Direction',#267,1.) ;
#289=VECTOR('Line Direction',#288,1.) ;
#294=VECTOR('Line Direction',#293,1.) ;
#354=VECTOR('Line Direction',#353,1.) ;
#359=VECTOR('Line Direction',#358,1.) ;
#418=VECTOR('Line Direction',#417,1.) ;
#425=VECTOR('Line Direction',#424,1.) ;
#469=ADVANCED_BREP_SHAPE_REPRESENTATION('NONE',(#468),#46) ;
#49=SHAPE_REPRESENTATION(' ',(#48),#46) ;
#91=ADVANCED_FACE('Corps principal',(#90),#56,.F.) ;
#122=ADVANCED_FACE('Corps principal',(#121),#96,.F.) ;
#153=ADVANCED_FACE('Corps principal',(#152),#127,.F.) ;
#193=ADVANCED_FACE('Corps principal',(#192),#158,.F.) ;
#224=ADVANCED_FACE('Corps principal',(#223),#198,.F.) ;
#255=ADVANCED_FACE('Corps principal',(#254),#229,.T.) ;
#281=ADVANCED_FACE('Corps principal',(#280),#260,.F.) ;
#307=ADVANCED_FACE('Corps principal',(#306),#286,.T.) ;
#337=ADVANCED_FACE('Corps principal',(#318,#336),#312,.T.) ;
#368=ADVANCED_FACE('Corps principal',(#367),#342,.F.) ;
#380=ADVANCED_FACE('Corps principal',(#379),#342,.F.) ;
#410=ADVANCED_FACE('Corps principal',(#391,#409),#385,.T.) ;
#441=ADVANCED_FACE('Corps principal',(#440),#415,.F.) ;
#453=ADVANCED_FACE('Corps principal',(#452),#415,.F.) ;
#467=ADVANCED_FACE('Corps principal',(#462,#466),#458,.T.) ;
#4=APPLICATION_PROTOCOL_DEFINITION('international standard','config_control_design',1994,#1) ;
#32=APPROVAL_DATE_TIME(#13,#21) ;
#468=MANIFOLD_SOLID_BREP('Corps principal',#51) ;
#11=CALENDAR_DATE(2023,5,1) ;
#30=CC_DESIGN_APPROVAL(#21,(#16,#6,#14)) ;
#18=CC_DESIGN_DATE_AND_TIME_ASSIGNMENT(#13,#17,(#16)) ;
#29=CC_DESIGN_DATE_AND_TIME_ASSIGNMENT(#13,#28,(#14)) ;
#17=DATE_TIME_ROLE('classification_date') ;
#28=DATE_TIME_ROLE('creation_date') ;
#27=CC_DESIGN_PERSON_AND_ORGANIZATION_ASSIGNMENT(#25,#26,(#16)) ;
#33=CC_DESIGN_PERSON_AND_ORGANIZATION_ASSIGNMENT(#25,#34,(#6)) ;
#35=CC_DESIGN_PERSON_AND_ORGANIZATION_ASSIGNMENT(#25,#36,(#6,#14)) ;
#37=CC_DESIGN_PERSON_AND_ORGANIZATION_ASSIGNMENT(#25,#38,(#5)) ;
#26=PERSON_AND_ORGANIZATION_ROLE('classification_officer') ;
#34=PERSON_AND_ORGANIZATION_ROLE('design_supplier') ;
#36=PERSON_AND_ORGANIZATION_ROLE('creator') ;
#38=PERSON_AND_ORGANIZATION_ROLE('design_owner') ;
#39=CC_DESIGN_SECURITY_CLASSIFICATION(#16,(#6)) ;
#100=CIRCLE('generated circle',#99,2.5) ;
#114=CIRCLE('generated circle',#113,2.5) ;
#202=CIRCLE('generated circle',#201,2.5) ;
#216=CIRCLE('generated circle',#215,2.5) ;
#322=CIRCLE('generated circle',#321,2.5) ;
#331=CIRCLE('generated circle',#330,2.5) ;
#346=CIRCLE('generated circle',#345,2.5) ;
#372=CIRCLE('generated circle',#371,2.5) ;
#395=CIRCLE('generated circle',#394,4.5) ;
#404=CIRCLE('generated circle',#403,4.5) ;
#433=CIRCLE('generated circle',#432,4.5) ;
#445=CIRCLE('generated circle',#444,4.5) ;
#470=SHAPE_REPRESENTATION_RELATIONSHIP(' ',' ',#49,#469) ;
#96=CYLINDRICAL_SURFACE('generated cylinder',#95,2.5) ;
#198=CYLINDRICAL_SURFACE('generated cylinder',#197,2.5) ;
#342=CYLINDRICAL_SURFACE('generated cylinder',#341,2.5) ;
#415=CYLINDRICAL_SURFACE('generated cylinder',#414,4.5) ;
#3=DESIGN_CONTEXT(' ',#1,'design') ;
#65=EDGE_CURVE('',#62,#64,#60,.T.) ;
#72=EDGE_CURVE('',#62,#71,#69,.F.) ;
#79=EDGE_CURVE('',#71,#78,#76,.T.) ;
#84=EDGE_CURVE('',#64,#78,#83,.F.) ;
#103=EDGE_CURVE('',#71,#102,#100,.F.) ;
#110=EDGE_CURVE('',#102,#109,#107,.T.) ;
#115=EDGE_CURVE('',#78,#109,#114,.F.) ;
#134=EDGE_CURVE('',#102,#133,#131,.F.) ;
#141=EDGE_CURVE('',#133,#140,#138,.T.) ;
#146=EDGE_CURVE('',#109,#140,#145,.F.) ;
#167=EDGE_CURVE('',#164,#166,#162,.T.) ;
#174=EDGE_CURVE('',#164,#173,#171,.F.) ;
#181=EDGE_CURVE('',#173,#180,#178,.T.) ;
#186=EDGE_CURVE('',#166,#180,#185,.F.) ;
#205=EDGE_CURVE('',#173,#204,#202,.F.) ;
#212=EDGE_CURVE('',#204,#211,#209,.T.) ;
#217=EDGE_CURVE('',#180,#211,#216,.F.) ;
#236=EDGE_CURVE('',#204,#235,#233,.T.) ;
#243=EDGE_CURVE('',#235,#242,#240,.T.) ;
#248=EDGE_CURVE('',#211,#242,#247,.T.) ;
#265=EDGE_CURVE('',#133,#164,#264,.T.) ;
#270=EDGE_CURVE('',#235,#62,#269,.T.) ;
#291=EDGE_CURVE('',#242,#64,#290,.T.) ;
#296=EDGE_CURVE('',#140,#166,#295,.T.) ;
#327=EDGE_CURVE('',#324,#326,#322,.T.) ;
#332=EDGE_CURVE('',#326,#324,#331,.T.) ;
#351=EDGE_CURVE('',#348,#350,#346,.T.) ;
#356=EDGE_CURVE('',#350,#324,#355,.F.) ;
#361=EDGE_CURVE('',#348,#326,#360,.F.) ;
#373=EDGE_CURVE('',#350,#348,#372,.T.) ;
#400=EDGE_CURVE('',#397,#399,#395,.T.) ;
#405=EDGE_CURVE('',#399,#397,#404,.T.) ;
#422=EDGE_CURVE('',#397,#421,#419,.F.) ;
#429=EDGE_CURVE('',#399,#428,#426,.F.) ;
#434=EDGE_CURVE('',#421,#428,#433,.T.) ;
#446=EDGE_CURVE('',#428,#421,#445,.T.) ;
#85=EDGE_LOOP('',(#86,#87,#88,#89)) ;
#116=EDGE_LOOP('',(#117,#118,#119,#120)) ;
#147=EDGE_LOOP('',(#148,#149,#150,#151)) ;
#187=EDGE_LOOP('',(#188,#189,#190,#191)) ;
#218=EDGE_LOOP('',(#219,#220,#221,#222)) ;
#249=EDGE_LOOP('',(#250,#251,#252,#253)) ;
#271=EDGE_LOOP('',(#272,#273,#274,#275,#276,#277,#278,#279)) ;
#297=EDGE_LOOP('',(#298,#299,#300,#301,#302,#303,#304,#305)) ;
#313=EDGE_LOOP('',(#314,#315,#316,#317)) ;
#333=EDGE_LOOP('',(#334,#335)) ;
#362=EDGE_LOOP('',(#363,#364,#365,#366)) ;
#374=EDGE_LOOP('',(#375,#376,#377,#378)) ;
#386=EDGE_LOOP('',(#387,#388,#389,#390)) ;
#406=EDGE_LOOP('',(#407,#408)) ;
#435=EDGE_LOOP('',(#436,#437,#438,#439)) ;
#447=EDGE_LOOP('',(#448,#449,#450,#451)) ;
#459=EDGE_LOOP('',(#460,#461)) ;
#463=EDGE_LOOP('',(#464,#465)) ;
#90=FACE_OUTER_BOUND('',#85,.T.) ;
#121=FACE_OUTER_BOUND('',#116,.T.) ;
#152=FACE_OUTER_BOUND('',#147,.T.) ;
#192=FACE_OUTER_BOUND('',#187,.T.) ;
#223=FACE_OUTER_BOUND('',#218,.T.) ;
#254=FACE_OUTER_BOUND('',#249,.T.) ;
#280=FACE_OUTER_BOUND('',#271,.T.) ;
#306=FACE_OUTER_BOUND('',#297,.T.) ;
#318=FACE_OUTER_BOUND('',#313,.T.) ;
#367=FACE_OUTER_BOUND('',#362,.T.) ;
#379=FACE_OUTER_BOUND('',#374,.T.) ;
#391=FACE_OUTER_BOUND('',#386,.T.) ;
#440=FACE_OUTER_BOUND('',#435,.T.) ;
#452=FACE_OUTER_BOUND('',#447,.T.) ;
#462=FACE_OUTER_BOUND('',#459,.T.) ;
#45=UNCERTAINTY_MEASURE_WITH_UNIT(LENGTH_MEASURE(0.005),#41,'distance_accuracy_value','CONFUSED CURVE UNCERTAINTY') ;
#60=LINE('Line',#57,#59) ;
#69=LINE('Line',#66,#68) ;
#76=LINE('Line',#73,#75) ;
#83=LINE('Line',#80,#82) ;
#107=LINE('Line',#104,#106) ;
#131=LINE('Line',#128,#130) ;
#138=LINE('Line',#135,#137) ;
#145=LINE('Line',#142,#144) ;
#162=LINE('Line',#159,#161) ;
#171=LINE('Line',#168,#170) ;
#178=LINE('Line',#175,#177) ;
#185=LINE('Line',#182,#184) ;
#209=LINE('Line',#206,#208) ;
#233=LINE('Line',#230,#232) ;
#240=LINE('Line',#237,#239) ;
#247=LINE('Line',#244,#246) ;
#264=LINE('Line',#261,#263) ;
#269=LINE('Line',#266,#268) ;
#290=LINE('Line',#287,#289) ;
#295=LINE('Line',#292,#294) ;
#355=LINE('Line',#352,#354) ;
#360=LINE('Line',#357,#359) ;
#419=LINE('Line',#416,#418) ;
#426=LINE('Line',#423,#425) ;
#2=MECHANICAL_CONTEXT(' ',#1,'mechanical') ;
#24=PERSONAL_ADDRESS(' ',' ',' ',' ',' ',' ',' ',' ',' ',' ',' ',' ',(#22),' ') ;
#56=PLANE('Plane',#55) ;
#127=PLANE('Plane',#126) ;
#158=PLANE('Plane',#157) ;
#229=PLANE('Plane',#228) ;
#260=PLANE('Plane',#259) ;
#286=PLANE('Plane',#285) ;
#312=PLANE('Plane',#311) ;
#385=PLANE('Plane',#384) ;
#458=PLANE('Plane',#457) ;
#43=PLANE_ANGLE_MEASURE_WITH_UNIT(PLANE_ANGLE_MEASURE(0.0174532925199),#42) ;
#7=PRODUCT_CATEGORY('part',$) ;
#9=PRODUCT_CATEGORY_RELATIONSHIP(' ',' ',#7,#8) ;
#6=PRODUCT_DEFINITION_FORMATION_WITH_SPECIFIED_SOURCE('',' ',#5,.NOT_KNOWN.) ;
#8=PRODUCT_RELATED_PRODUCT_CATEGORY('detail',$,(#5)) ;
#50=SHAPE_DEFINITION_REPRESENTATION(#40,#49) ;
#62=VERTEX_POINT('',#61) ;
#64=VERTEX_POINT('',#63) ;
#71=VERTEX_POINT('',#70) ;
#78=VERTEX_POINT('',#77) ;
#102=VERTEX_POINT('',#101) ;
#109=VERTEX_POINT('',#108) ;
#133=VERTEX_POINT('',#132) ;
#140=VERTEX_POINT('',#139) ;
#164=VERTEX_POINT('',#163) ;
#166=VERTEX_POINT('',#165) ;
#173=VERTEX_POINT('',#172) ;
#180=VERTEX_POINT('',#179) ;
#204=VERTEX_POINT('',#203) ;
#211=VERTEX_POINT('',#210) ;
#235=VERTEX_POINT('',#234) ;
#242=VERTEX_POINT('',#241) ;
#324=VERTEX_POINT('',#323) ;
#326=VERTEX_POINT('',#325) ;
#348=VERTEX_POINT('',#347) ;
#350=VERTEX_POINT('',#349) ;
#397=VERTEX_POINT('',#396) ;
#399=VERTEX_POINT('',#398) ;
#421=VERTEX_POINT('',#420) ;
#428=VERTEX_POINT('',#427) ;
#41=(LENGTH_UNIT()NAMED_UNIT(*)SI_UNIT(.MILLI.,.METRE.)) ;
#42=(NAMED_UNIT(*)PLANE_ANGLE_UNIT()SI_UNIT($,.RADIAN.)) ;
#44=(NAMED_UNIT(*)SI_UNIT($,.STERADIAN.)SOLID_ANGLE_UNIT()) ;
#46=(GEOMETRIC_REPRESENTATION_CONTEXT(3)GLOBAL_UNCERTAINTY_ASSIGNED_CONTEXT((#45))GLOBAL_UNIT_ASSIGNED_CONTEXT((#41,#42,#44))REPRESENTATION_CONTEXT(' ',' ')) ;
ENDSEC;
END-ISO-10303-21;
