ISO-10303-21;
HEADER;
/* Generated by software containing ST-Developer
 * from STEP Tools, Inc. (www.steptools.com) 
 */

FILE_DESCRIPTION(
/* description */ (''),
/* implementation_level */ '2;1');

FILE_NAME(
/* name */ 'CAPZ1.step',
/* time_stamp */ '2023-01-04T00:19:56+01:00',
/* author */ (''),
/* organization */ (''),
/* preprocessor_version */ 'ST-DEVELOPER v19.2',
/* originating_system */ 'Autodesk Translation Framework v11.17.0.187',

/* authorisation */ '');

FILE_SCHEMA (('AUTOMOTIVE_DESIGN { 1 0 10303 214 3 1 1 }'));
ENDSEC;

DATA;
#10=MECHANICAL_DESIGN_GEOMETRIC_PRESENTATION_REPRESENTATION('',(#13),#474);
#11=SHAPE_REPRESENTATION_RELATIONSHIP('SRR','None',#481,#12);
#12=ADVANCED_BREP_SHAPE_REPRESENTATION('',(#14),#473);
#13=STYLED_ITEM('',(#490),#14);
#14=MANIFOLD_SOLID_BREP('Corps1',#274);
#15=FACE_BOUND('',#53,.T.);
#16=FACE_BOUND('',#56,.T.);
#17=FACE_BOUND('',#68,.T.);
#18=FACE_BOUND('',#69,.T.);
#19=FACE_BOUND('',#70,.T.);
#20=FACE_BOUND('',#71,.T.);
#21=FACE_BOUND('',#73,.T.);
#22=FACE_BOUND('',#74,.T.);
#23=FACE_BOUND('',#75,.T.);
#24=FACE_BOUND('',#76,.T.);
#25=FACE_BOUND('',#77,.T.);
#26=PLANE('',#291);
#27=PLANE('',#296);
#28=PLANE('',#302);
#29=PLANE('',#312);
#30=PLANE('',#313);
#31=PLANE('',#314);
#32=PLANE('',#315);
#33=PLANE('',#316);
#34=PLANE('',#317);
#35=FACE_OUTER_BOUND('',#51,.T.);
#36=FACE_OUTER_BOUND('',#52,.T.);
#37=FACE_OUTER_BOUND('',#54,.T.);
#38=FACE_OUTER_BOUND('',#55,.T.);
#39=FACE_OUTER_BOUND('',#57,.T.);
#40=FACE_OUTER_BOUND('',#58,.T.);
#41=FACE_OUTER_BOUND('',#59,.T.);
#42=FACE_OUTER_BOUND('',#60,.T.);
#43=FACE_OUTER_BOUND('',#61,.T.);
#44=FACE_OUTER_BOUND('',#62,.T.);
#45=FACE_OUTER_BOUND('',#63,.T.);
#46=FACE_OUTER_BOUND('',#64,.T.);
#47=FACE_OUTER_BOUND('',#65,.T.);
#48=FACE_OUTER_BOUND('',#66,.T.);
#49=FACE_OUTER_BOUND('',#67,.T.);
#50=FACE_OUTER_BOUND('',#72,.T.);
#51=EDGE_LOOP('',(#185,#186,#187,#188));
#52=EDGE_LOOP('',(#189));
#53=EDGE_LOOP('',(#190));
#54=EDGE_LOOP('',(#191,#192,#193,#194));
#55=EDGE_LOOP('',(#195));
#56=EDGE_LOOP('',(#196));
#57=EDGE_LOOP('',(#197,#198,#199,#200));
#58=EDGE_LOOP('',(#201,#202,#203,#204));
#59=EDGE_LOOP('',(#205));
#60=EDGE_LOOP('',(#206,#207,#208,#209));
#61=EDGE_LOOP('',(#210,#211,#212,#213));
#62=EDGE_LOOP('',(#214,#215,#216,#217));
#63=EDGE_LOOP('',(#218,#219,#220,#221));
#64=EDGE_LOOP('',(#222,#223,#224,#225));
#65=EDGE_LOOP('',(#226,#227,#228,#229));
#66=EDGE_LOOP('',(#230,#231,#232,#233));
#67=EDGE_LOOP('',(#234,#235,#236,#237));
#68=EDGE_LOOP('',(#238));
#69=EDGE_LOOP('',(#239));
#70=EDGE_LOOP('',(#240));
#71=EDGE_LOOP('',(#241));
#72=EDGE_LOOP('',(#242,#243,#244,#245));
#73=EDGE_LOOP('',(#246));
#74=EDGE_LOOP('',(#247));
#75=EDGE_LOOP('',(#248));
#76=EDGE_LOOP('',(#249));
#77=EDGE_LOOP('',(#250));
#78=LINE('',#404,#97);
#79=LINE('',#413,#98);
#80=LINE('',#419,#99);
#81=LINE('',#424,#100);
#82=LINE('',#431,#101);
#83=LINE('',#437,#102);
#84=LINE('',#443,#103);
#85=LINE('',#448,#104);
#86=LINE('',#450,#105);
#87=LINE('',#452,#106);
#88=LINE('',#453,#107);
#89=LINE('',#456,#108);
#90=LINE('',#458,#109);
#91=LINE('',#459,#110);
#92=LINE('',#462,#111);
#93=LINE('',#464,#112);
#94=LINE('',#465,#113);
#95=LINE('',#467,#114);
#96=LINE('',#468,#115);
#97=VECTOR('',#324,1.9);
#98=VECTOR('',#335,1.9);
#99=VECTOR('',#344,0.9);
#100=VECTOR('',#349,13.);
#101=VECTOR('',#358,1.9);
#102=VECTOR('',#365,1.9);
#103=VECTOR('',#372,1.9);
#104=VECTOR('',#377,10.);
#105=VECTOR('',#378,10.);
#106=VECTOR('',#379,10.);
#107=VECTOR('',#380,10.);
#108=VECTOR('',#383,10.);
#109=VECTOR('',#384,10.);
#110=VECTOR('',#385,10.);
#111=VECTOR('',#388,10.);
#112=VECTOR('',#389,10.);
#113=VECTOR('',#390,10.);
#114=VECTOR('',#393,10.);
#115=VECTOR('',#394,10.);
#116=CIRCLE('',#289,1.9);
#117=CIRCLE('',#290,1.9);
#118=CIRCLE('',#292,0.9);
#119=CIRCLE('',#294,1.9);
#120=CIRCLE('',#295,1.9);
#121=CIRCLE('',#297,0.9);
#122=CIRCLE('',#300,13.);
#123=CIRCLE('',#301,13.);
#124=CIRCLE('',#304,1.9);
#125=CIRCLE('',#305,1.9);
#126=CIRCLE('',#307,1.9);
#127=CIRCLE('',#308,1.9);
#128=CIRCLE('',#310,1.9);
#129=CIRCLE('',#311,1.9);
#130=VERTEX_POINT('',#401);
#131=VERTEX_POINT('',#403);
#132=VERTEX_POINT('',#407);
#133=VERTEX_POINT('',#410);
#134=VERTEX_POINT('',#412);
#135=VERTEX_POINT('',#416);
#136=VERTEX_POINT('',#421);
#137=VERTEX_POINT('',#423);
#138=VERTEX_POINT('',#428);
#139=VERTEX_POINT('',#430);
#140=VERTEX_POINT('',#434);
#141=VERTEX_POINT('',#436);
#142=VERTEX_POINT('',#440);
#143=VERTEX_POINT('',#442);
#144=VERTEX_POINT('',#446);
#145=VERTEX_POINT('',#447);
#146=VERTEX_POINT('',#449);
#147=VERTEX_POINT('',#451);
#148=VERTEX_POINT('',#455);
#149=VERTEX_POINT('',#457);
#150=VERTEX_POINT('',#461);
#151=VERTEX_POINT('',#463);
#152=EDGE_CURVE('',#130,#130,#116,.T.);
#153=EDGE_CURVE('',#130,#131,#78,.T.);
#154=EDGE_CURVE('',#131,#131,#117,.T.);
#155=EDGE_CURVE('',#132,#132,#118,.T.);
#156=EDGE_CURVE('',#133,#133,#119,.T.);
#157=EDGE_CURVE('',#133,#134,#79,.T.);
#158=EDGE_CURVE('',#134,#134,#120,.T.);
#159=EDGE_CURVE('',#135,#135,#121,.T.);
#160=EDGE_CURVE('',#135,#132,#80,.T.);
#161=EDGE_CURVE('',#136,#136,#122,.T.);
#162=EDGE_CURVE('',#136,#137,#81,.T.);
#163=EDGE_CURVE('',#137,#137,#123,.T.);
#164=EDGE_CURVE('',#138,#138,#124,.T.);
#165=EDGE_CURVE('',#138,#139,#82,.T.);
#166=EDGE_CURVE('',#139,#139,#125,.T.);
#167=EDGE_CURVE('',#140,#140,#126,.T.);
#168=EDGE_CURVE('',#140,#141,#83,.T.);
#169=EDGE_CURVE('',#141,#141,#127,.T.);
#170=EDGE_CURVE('',#142,#142,#128,.T.);
#171=EDGE_CURVE('',#142,#143,#84,.T.);
#172=EDGE_CURVE('',#143,#143,#129,.T.);
#173=EDGE_CURVE('',#144,#145,#85,.T.);
#174=EDGE_CURVE('',#144,#146,#86,.T.);
#175=EDGE_CURVE('',#147,#146,#87,.T.);
#176=EDGE_CURVE('',#145,#147,#88,.T.);
#177=EDGE_CURVE('',#145,#148,#89,.T.);
#178=EDGE_CURVE('',#149,#147,#90,.T.);
#179=EDGE_CURVE('',#148,#149,#91,.T.);
#180=EDGE_CURVE('',#148,#150,#92,.T.);
#181=EDGE_CURVE('',#151,#149,#93,.T.);
#182=EDGE_CURVE('',#150,#151,#94,.T.);
#183=EDGE_CURVE('',#150,#144,#95,.T.);
#184=EDGE_CURVE('',#146,#151,#96,.T.);
#185=ORIENTED_EDGE('',*,*,#152,.F.);
#186=ORIENTED_EDGE('',*,*,#153,.T.);
#187=ORIENTED_EDGE('',*,*,#154,.T.);
#188=ORIENTED_EDGE('',*,*,#153,.F.);
#189=ORIENTED_EDGE('',*,*,#154,.F.);
#190=ORIENTED_EDGE('',*,*,#155,.F.);
#191=ORIENTED_EDGE('',*,*,#156,.F.);
#192=ORIENTED_EDGE('',*,*,#157,.T.);
#193=ORIENTED_EDGE('',*,*,#158,.T.);
#194=ORIENTED_EDGE('',*,*,#157,.F.);
#195=ORIENTED_EDGE('',*,*,#158,.F.);
#196=ORIENTED_EDGE('',*,*,#159,.F.);
#197=ORIENTED_EDGE('',*,*,#159,.T.);
#198=ORIENTED_EDGE('',*,*,#160,.T.);
#199=ORIENTED_EDGE('',*,*,#155,.T.);
#200=ORIENTED_EDGE('',*,*,#160,.F.);
#201=ORIENTED_EDGE('',*,*,#161,.F.);
#202=ORIENTED_EDGE('',*,*,#162,.T.);
#203=ORIENTED_EDGE('',*,*,#163,.T.);
#204=ORIENTED_EDGE('',*,*,#162,.F.);
#205=ORIENTED_EDGE('',*,*,#163,.F.);
#206=ORIENTED_EDGE('',*,*,#164,.F.);
#207=ORIENTED_EDGE('',*,*,#165,.T.);
#208=ORIENTED_EDGE('',*,*,#166,.F.);
#209=ORIENTED_EDGE('',*,*,#165,.F.);
#210=ORIENTED_EDGE('',*,*,#167,.F.);
#211=ORIENTED_EDGE('',*,*,#168,.T.);
#212=ORIENTED_EDGE('',*,*,#169,.F.);
#213=ORIENTED_EDGE('',*,*,#168,.F.);
#214=ORIENTED_EDGE('',*,*,#170,.F.);
#215=ORIENTED_EDGE('',*,*,#171,.T.);
#216=ORIENTED_EDGE('',*,*,#172,.F.);
#217=ORIENTED_EDGE('',*,*,#171,.F.);
#218=ORIENTED_EDGE('',*,*,#173,.F.);
#219=ORIENTED_EDGE('',*,*,#174,.T.);
#220=ORIENTED_EDGE('',*,*,#175,.F.);
#221=ORIENTED_EDGE('',*,*,#176,.F.);
#222=ORIENTED_EDGE('',*,*,#177,.F.);
#223=ORIENTED_EDGE('',*,*,#176,.T.);
#224=ORIENTED_EDGE('',*,*,#178,.F.);
#225=ORIENTED_EDGE('',*,*,#179,.F.);
#226=ORIENTED_EDGE('',*,*,#180,.F.);
#227=ORIENTED_EDGE('',*,*,#179,.T.);
#228=ORIENTED_EDGE('',*,*,#181,.F.);
#229=ORIENTED_EDGE('',*,*,#182,.F.);
#230=ORIENTED_EDGE('',*,*,#183,.F.);
#231=ORIENTED_EDGE('',*,*,#182,.T.);
#232=ORIENTED_EDGE('',*,*,#184,.F.);
#233=ORIENTED_EDGE('',*,*,#174,.F.);
#234=ORIENTED_EDGE('',*,*,#184,.T.);
#235=ORIENTED_EDGE('',*,*,#181,.T.);
#236=ORIENTED_EDGE('',*,*,#178,.T.);
#237=ORIENTED_EDGE('',*,*,#175,.T.);
#238=ORIENTED_EDGE('',*,*,#152,.T.);
#239=ORIENTED_EDGE('',*,*,#166,.T.);
#240=ORIENTED_EDGE('',*,*,#169,.T.);
#241=ORIENTED_EDGE('',*,*,#172,.T.);
#242=ORIENTED_EDGE('',*,*,#183,.T.);
#243=ORIENTED_EDGE('',*,*,#173,.T.);
#244=ORIENTED_EDGE('',*,*,#177,.T.);
#245=ORIENTED_EDGE('',*,*,#180,.T.);
#246=ORIENTED_EDGE('',*,*,#156,.T.);
#247=ORIENTED_EDGE('',*,*,#161,.T.);
#248=ORIENTED_EDGE('',*,*,#164,.T.);
#249=ORIENTED_EDGE('',*,*,#167,.T.);
#250=ORIENTED_EDGE('',*,*,#170,.T.);
#251=CYLINDRICAL_SURFACE('',#288,1.9);
#252=CYLINDRICAL_SURFACE('',#293,1.9);
#253=CYLINDRICAL_SURFACE('',#298,0.9);
#254=CYLINDRICAL_SURFACE('',#299,13.);
#255=CYLINDRICAL_SURFACE('',#303,1.9);
#256=CYLINDRICAL_SURFACE('',#306,1.9);
#257=CYLINDRICAL_SURFACE('',#309,1.9);
#258=ADVANCED_FACE('',(#35),#251,.F.);
#259=ADVANCED_FACE('',(#36,#15),#26,.F.);
#260=ADVANCED_FACE('',(#37),#252,.F.);
#261=ADVANCED_FACE('',(#38,#16),#27,.F.);
#262=ADVANCED_FACE('',(#39),#253,.F.);
#263=ADVANCED_FACE('',(#40),#254,.F.);
#264=ADVANCED_FACE('',(#41),#28,.F.);
#265=ADVANCED_FACE('',(#42),#255,.F.);
#266=ADVANCED_FACE('',(#43),#256,.F.);
#267=ADVANCED_FACE('',(#44),#257,.F.);
#268=ADVANCED_FACE('',(#45),#29,.T.);
#269=ADVANCED_FACE('',(#46),#30,.T.);
#270=ADVANCED_FACE('',(#47),#31,.T.);
#271=ADVANCED_FACE('',(#48),#32,.T.);
#272=ADVANCED_FACE('',(#49,#17,#18,#19,#20),#33,.T.);
#273=ADVANCED_FACE('',(#50,#21,#22,#23,#24,#25),#34,.F.);
#274=CLOSED_SHELL('',(#258,#259,#260,#261,#262,#263,#264,#265,#266,#267,
#268,#269,#270,#271,#272,#273));
#275=DERIVED_UNIT_ELEMENT(#277,1.);
#276=DERIVED_UNIT_ELEMENT(#476,-3.);
#277=(
MASS_UNIT()
NAMED_UNIT(*)
SI_UNIT(.KILO.,.GRAM.)
);
#278=DERIVED_UNIT((#275,#276));
#279=MEASURE_REPRESENTATION_ITEM('density measure',
POSITIVE_RATIO_MEASURE(7850.),#278);
#280=PROPERTY_DEFINITION_REPRESENTATION(#285,#282);
#281=PROPERTY_DEFINITION_REPRESENTATION(#286,#283);
#282=REPRESENTATION('material name',(#284),#473);
#283=REPRESENTATION('density',(#279),#473);
#284=DESCRIPTIVE_REPRESENTATION_ITEM('Acier','Acier');
#285=PROPERTY_DEFINITION('material property','material name',#483);
#286=PROPERTY_DEFINITION('material property','density of part',#483);
#287=AXIS2_PLACEMENT_3D('placement',#399,#318,#319);
#288=AXIS2_PLACEMENT_3D('',#400,#320,#321);
#289=AXIS2_PLACEMENT_3D('',#402,#322,#323);
#290=AXIS2_PLACEMENT_3D('',#405,#325,#326);
#291=AXIS2_PLACEMENT_3D('',#406,#327,#328);
#292=AXIS2_PLACEMENT_3D('',#408,#329,#330);
#293=AXIS2_PLACEMENT_3D('',#409,#331,#332);
#294=AXIS2_PLACEMENT_3D('',#411,#333,#334);
#295=AXIS2_PLACEMENT_3D('',#414,#336,#337);
#296=AXIS2_PLACEMENT_3D('',#415,#338,#339);
#297=AXIS2_PLACEMENT_3D('',#417,#340,#341);
#298=AXIS2_PLACEMENT_3D('',#418,#342,#343);
#299=AXIS2_PLACEMENT_3D('',#420,#345,#346);
#300=AXIS2_PLACEMENT_3D('',#422,#347,#348);
#301=AXIS2_PLACEMENT_3D('',#425,#350,#351);
#302=AXIS2_PLACEMENT_3D('',#426,#352,#353);
#303=AXIS2_PLACEMENT_3D('',#427,#354,#355);
#304=AXIS2_PLACEMENT_3D('',#429,#356,#357);
#305=AXIS2_PLACEMENT_3D('',#432,#359,#360);
#306=AXIS2_PLACEMENT_3D('',#433,#361,#362);
#307=AXIS2_PLACEMENT_3D('',#435,#363,#364);
#308=AXIS2_PLACEMENT_3D('',#438,#366,#367);
#309=AXIS2_PLACEMENT_3D('',#439,#368,#369);
#310=AXIS2_PLACEMENT_3D('',#441,#370,#371);
#311=AXIS2_PLACEMENT_3D('',#444,#373,#374);
#312=AXIS2_PLACEMENT_3D('',#445,#375,#376);
#313=AXIS2_PLACEMENT_3D('',#454,#381,#382);
#314=AXIS2_PLACEMENT_3D('',#460,#386,#387);
#315=AXIS2_PLACEMENT_3D('',#466,#391,#392);
#316=AXIS2_PLACEMENT_3D('',#469,#395,#396);
#317=AXIS2_PLACEMENT_3D('',#470,#397,#398);
#318=DIRECTION('axis',(0.,0.,1.));
#319=DIRECTION('refdir',(1.,0.,0.));
#320=DIRECTION('center_axis',(0.,0.,-1.));
#321=DIRECTION('ref_axis',(1.,0.,0.));
#322=DIRECTION('center_axis',(0.,0.,-1.));
#323=DIRECTION('ref_axis',(1.,0.,0.));
#324=DIRECTION('',(0.,0.,-1.));
#325=DIRECTION('center_axis',(0.,0.,-1.));
#326=DIRECTION('ref_axis',(1.,0.,0.));
#327=DIRECTION('center_axis',(0.,0.,-1.));
#328=DIRECTION('ref_axis',(1.,0.,0.));
#329=DIRECTION('center_axis',(0.,0.,1.));
#330=DIRECTION('ref_axis',(-1.,0.,0.));
#331=DIRECTION('center_axis',(0.,0.,1.));
#332=DIRECTION('ref_axis',(-1.,0.,0.));
#333=DIRECTION('center_axis',(0.,0.,1.));
#334=DIRECTION('ref_axis',(-1.,0.,0.));
#335=DIRECTION('',(0.,0.,1.));
#336=DIRECTION('center_axis',(0.,0.,1.));
#337=DIRECTION('ref_axis',(-1.,0.,0.));
#338=DIRECTION('center_axis',(0.,0.,1.));
#339=DIRECTION('ref_axis',(-1.,0.,0.));
#340=DIRECTION('center_axis',(0.,0.,-1.));
#341=DIRECTION('ref_axis',(-1.,0.,0.));
#342=DIRECTION('center_axis',(0.,0.,1.));
#343=DIRECTION('ref_axis',(-1.,0.,0.));
#344=DIRECTION('',(0.,0.,1.));
#345=DIRECTION('center_axis',(0.,0.,1.));
#346=DIRECTION('ref_axis',(-1.,0.,0.));
#347=DIRECTION('center_axis',(0.,0.,1.));
#348=DIRECTION('ref_axis',(-1.,0.,0.));
#349=DIRECTION('',(0.,0.,1.));
#350=DIRECTION('center_axis',(0.,0.,1.));
#351=DIRECTION('ref_axis',(-1.,0.,0.));
#352=DIRECTION('center_axis',(0.,0.,1.));
#353=DIRECTION('ref_axis',(-1.,0.,0.));
#354=DIRECTION('center_axis',(0.,0.,1.));
#355=DIRECTION('ref_axis',(-1.,0.,0.));
#356=DIRECTION('center_axis',(0.,0.,1.));
#357=DIRECTION('ref_axis',(-1.,0.,0.));
#358=DIRECTION('',(0.,0.,1.));
#359=DIRECTION('center_axis',(0.,0.,-1.));
#360=DIRECTION('ref_axis',(-1.,0.,0.));
#361=DIRECTION('center_axis',(0.,0.,1.));
#362=DIRECTION('ref_axis',(-1.,0.,0.));
#363=DIRECTION('center_axis',(0.,0.,1.));
#364=DIRECTION('ref_axis',(-1.,0.,0.));
#365=DIRECTION('',(0.,0.,1.));
#366=DIRECTION('center_axis',(0.,0.,-1.));
#367=DIRECTION('ref_axis',(-1.,0.,0.));
#368=DIRECTION('center_axis',(0.,0.,1.));
#369=DIRECTION('ref_axis',(-1.,0.,0.));
#370=DIRECTION('center_axis',(0.,0.,1.));
#371=DIRECTION('ref_axis',(-1.,0.,0.));
#372=DIRECTION('',(0.,0.,1.));
#373=DIRECTION('center_axis',(0.,0.,-1.));
#374=DIRECTION('ref_axis',(-1.,0.,0.));
#375=DIRECTION('center_axis',(-1.,0.,0.));
#376=DIRECTION('ref_axis',(0.,-1.,0.));
#377=DIRECTION('',(0.,1.,0.));
#378=DIRECTION('',(0.,0.,1.));
#379=DIRECTION('',(0.,-1.,0.));
#380=DIRECTION('',(0.,0.,1.));
#381=DIRECTION('center_axis',(0.,1.,0.));
#382=DIRECTION('ref_axis',(-1.,0.,0.));
#383=DIRECTION('',(1.,0.,0.));
#384=DIRECTION('',(-1.,0.,0.));
#385=DIRECTION('',(0.,0.,1.));
#386=DIRECTION('center_axis',(1.,0.,0.));
#387=DIRECTION('ref_axis',(0.,1.,0.));
#388=DIRECTION('',(0.,-1.,0.));
#389=DIRECTION('',(0.,1.,0.));
#390=DIRECTION('',(0.,0.,1.));
#391=DIRECTION('center_axis',(0.,-1.,0.));
#392=DIRECTION('ref_axis',(1.,0.,0.));
#393=DIRECTION('',(-1.,0.,0.));
#394=DIRECTION('',(1.,0.,0.));
#395=DIRECTION('center_axis',(0.,0.,1.));
#396=DIRECTION('ref_axis',(1.,0.,0.));
#397=DIRECTION('center_axis',(0.,0.,1.));
#398=DIRECTION('ref_axis',(1.,0.,0.));
#399=CARTESIAN_POINT('',(0.,0.,0.));
#400=CARTESIAN_POINT('Origin',(26.949390334559,-2.05060966544099,6.25));
#401=CARTESIAN_POINT('',(25.049390334559,-2.05060966544099,6.5));
#402=CARTESIAN_POINT('Origin',(26.949390334559,-2.05060966544099,6.5));
#403=CARTESIAN_POINT('',(25.049390334559,-2.05060966544099,6.));
#404=CARTESIAN_POINT('',(25.049390334559,-2.05060966544099,6.25));
#405=CARTESIAN_POINT('Origin',(26.949390334559,-2.05060966544099,6.));
#406=CARTESIAN_POINT('Origin',(26.949390334559,-2.05060966544099,6.));
#407=CARTESIAN_POINT('',(27.849390334559,-2.05060966544099,6.));
#408=CARTESIAN_POINT('Origin',(26.949390334559,-2.05060966544099,6.));
#409=CARTESIAN_POINT('Origin',(26.949390334559,-2.05060966544099,0.25));
#410=CARTESIAN_POINT('',(28.849390334559,-2.05060966544099,3.46944695195361E-17));
#411=CARTESIAN_POINT('Origin',(26.949390334559,-2.05060966544099,0.));
#412=CARTESIAN_POINT('',(28.849390334559,-2.05060966544099,0.5));
#413=CARTESIAN_POINT('',(28.849390334559,-2.05060966544099,0.25));
#414=CARTESIAN_POINT('Origin',(26.949390334559,-2.05060966544099,0.5));
#415=CARTESIAN_POINT('Origin',(26.949390334559,-2.05060966544099,0.5));
#416=CARTESIAN_POINT('',(27.849390334559,-2.05060966544099,0.5));
#417=CARTESIAN_POINT('Origin',(26.949390334559,-2.05060966544099,0.5));
#418=CARTESIAN_POINT('Origin',(26.949390334559,-2.05060966544099,3.25));
#419=CARTESIAN_POINT('',(27.849390334559,-2.05060966544099,3.25));
#420=CARTESIAN_POINT('Origin',(14.5,-14.5,2.25));
#421=CARTESIAN_POINT('',(27.5,-14.5,0.));
#422=CARTESIAN_POINT('Origin',(14.5,-14.5,0.));
#423=CARTESIAN_POINT('',(27.5,-14.5,4.5));
#424=CARTESIAN_POINT('',(27.5,-14.5,2.25));
#425=CARTESIAN_POINT('Origin',(14.5,-14.5,4.5));
#426=CARTESIAN_POINT('Origin',(14.5,-14.5,4.5));
#427=CARTESIAN_POINT('Origin',(2.05060966544099,-2.05060966544099,3.25));
#428=CARTESIAN_POINT('',(3.95060966544099,-2.05060966544099,0.));
#429=CARTESIAN_POINT('Origin',(2.05060966544099,-2.05060966544099,0.));
#430=CARTESIAN_POINT('',(3.95060966544099,-2.05060966544099,6.5));
#431=CARTESIAN_POINT('',(3.95060966544099,-2.05060966544099,3.25));
#432=CARTESIAN_POINT('Origin',(2.05060966544099,-2.05060966544099,6.5));
#433=CARTESIAN_POINT('Origin',(2.05060988697537,-26.9493905560934,3.25));
#434=CARTESIAN_POINT('',(3.95060988697537,-26.9493905560934,0.));
#435=CARTESIAN_POINT('Origin',(2.05060988697537,-26.9493905560934,0.));
#436=CARTESIAN_POINT('',(3.95060988697537,-26.9493905560934,6.5));
#437=CARTESIAN_POINT('',(3.95060988697537,-26.9493905560934,3.25));
#438=CARTESIAN_POINT('Origin',(2.05060988697537,-26.9493905560934,6.5));
#439=CARTESIAN_POINT('Origin',(26.949390334559,-26.949390334559,3.25));
#440=CARTESIAN_POINT('',(28.849390334559,-26.949390334559,0.));
#441=CARTESIAN_POINT('Origin',(26.949390334559,-26.949390334559,0.));
#442=CARTESIAN_POINT('',(28.849390334559,-26.949390334559,6.5));
#443=CARTESIAN_POINT('',(28.849390334559,-26.949390334559,3.25));
#444=CARTESIAN_POINT('Origin',(26.949390334559,-26.949390334559,6.5));
#445=CARTESIAN_POINT('Origin',(0.,0.,0.));
#446=CARTESIAN_POINT('',(0.,-29.,0.));
#447=CARTESIAN_POINT('',(0.,0.,0.));
#448=CARTESIAN_POINT('',(0.,-29.,0.));
#449=CARTESIAN_POINT('',(0.,-29.,6.5));
#450=CARTESIAN_POINT('',(0.,-29.,0.));
#451=CARTESIAN_POINT('',(0.,0.,6.5));
#452=CARTESIAN_POINT('',(0.,-29.,6.5));
#453=CARTESIAN_POINT('',(0.,0.,0.));
#454=CARTESIAN_POINT('Origin',(29.,0.,0.));
#455=CARTESIAN_POINT('',(29.,0.,0.));
#456=CARTESIAN_POINT('',(0.,0.,0.));
#457=CARTESIAN_POINT('',(29.,0.,6.5));
#458=CARTESIAN_POINT('',(0.,0.,6.5));
#459=CARTESIAN_POINT('',(29.,0.,0.));
#460=CARTESIAN_POINT('Origin',(29.,-29.,0.));
#461=CARTESIAN_POINT('',(29.,-29.,0.));
#462=CARTESIAN_POINT('',(29.,0.,0.));
#463=CARTESIAN_POINT('',(29.,-29.,6.5));
#464=CARTESIAN_POINT('',(29.,0.,6.5));
#465=CARTESIAN_POINT('',(29.,-29.,0.));
#466=CARTESIAN_POINT('Origin',(0.,-29.,0.));
#467=CARTESIAN_POINT('',(29.,-29.,0.));
#468=CARTESIAN_POINT('',(29.,-29.,6.5));
#469=CARTESIAN_POINT('Origin',(14.5,-14.5,6.5));
#470=CARTESIAN_POINT('Origin',(14.5,-14.5,0.));
#471=UNCERTAINTY_MEASURE_WITH_UNIT(LENGTH_MEASURE(0.01),#475,
'DISTANCE_ACCURACY_VALUE',
'Maximum model space distance between geometric entities at asserted c
onnectivities');
#472=UNCERTAINTY_MEASURE_WITH_UNIT(LENGTH_MEASURE(0.01),#475,
'DISTANCE_ACCURACY_VALUE',
'Maximum model space distance between geometric entities at asserted c
onnectivities');
#473=(
GEOMETRIC_REPRESENTATION_CONTEXT(3)
GLOBAL_UNCERTAINTY_ASSIGNED_CONTEXT((#471))
GLOBAL_UNIT_ASSIGNED_CONTEXT((#475,#477,#478))
REPRESENTATION_CONTEXT('','3D')
);
#474=(
GEOMETRIC_REPRESENTATION_CONTEXT(3)
GLOBAL_UNCERTAINTY_ASSIGNED_CONTEXT((#472))
GLOBAL_UNIT_ASSIGNED_CONTEXT((#475,#477,#478))
REPRESENTATION_CONTEXT('','3D')
);
#475=(
LENGTH_UNIT()
NAMED_UNIT(*)
SI_UNIT(.MILLI.,.METRE.)
);
#476=(
LENGTH_UNIT()
NAMED_UNIT(*)
SI_UNIT($,.METRE.)
);
#477=(
NAMED_UNIT(*)
PLANE_ANGLE_UNIT()
SI_UNIT($,.RADIAN.)
);
#478=(
NAMED_UNIT(*)
SI_UNIT($,.STERADIAN.)
SOLID_ANGLE_UNIT()
);
#479=SHAPE_DEFINITION_REPRESENTATION(#480,#481);
#480=PRODUCT_DEFINITION_SHAPE('',$,#483);
#481=SHAPE_REPRESENTATION('',(#287),#473);
#482=PRODUCT_DEFINITION_CONTEXT('part definition',#487,'design');
#483=PRODUCT_DEFINITION('(Non enregistr\X\E9)','(Non enregistr\X\E9)',#484,
#482);
#484=PRODUCT_DEFINITION_FORMATION('',$,#489);
#485=PRODUCT_RELATED_PRODUCT_CATEGORY('(Non enregistr\X\E9)',
'(Non enregistr\X\E9)',(#489));
#486=APPLICATION_PROTOCOL_DEFINITION('international standard',
'automotive_design',2009,#487);
#487=APPLICATION_CONTEXT(
'Core Data for Automotive Mechanical Design Process');
#488=PRODUCT_CONTEXT('part definition',#487,'mechanical');
#489=PRODUCT('(Non enregistr\X\E9)','(Non enregistr\X\E9)',$,(#488));
#490=PRESENTATION_STYLE_ASSIGNMENT((#491));
#491=SURFACE_STYLE_USAGE(.BOTH.,#492);
#492=SURFACE_SIDE_STYLE('',(#493));
#493=SURFACE_STYLE_FILL_AREA(#494);
#494=FILL_AREA_STYLE('Acier - Satin\X\E9',(#495));
#495=FILL_AREA_STYLE_COLOUR('Acier - Satin\X\E9',#496);
#496=COLOUR_RGB('Acier - Satin\X\E9',0.627450980392157,0.627450980392157,
0.627450980392157);
ENDSEC;
END-ISO-10303-21;
