ISO-10303-21;
HEADER;
/* Generated by software containing ST-Developer
 * from STEP Tools, Inc. (www.steptools.com) 
 */

FILE_DESCRIPTION(
/* description */ (''),
/* implementation_level */ '2;1');

FILE_NAME(
/* name */ '/Users/ClementD/Downloads/platine LL.step',
/* time_stamp */ '2023-01-03T22:19:25+01:00',
/* author */ (''),
/* organization */ (''),
/* preprocessor_version */ 'ST-DEVELOPER v19',
/* originating_system */ 'Autodesk Translation Framework v11.7.0.108',
/* authorisation */ '');

FILE_SCHEMA (('AUTOMOTIVE_DESIGN { 1 0 10303 214 3 1 1 }'));
ENDSEC;

DATA;
#10=MECHANICAL_DESIGN_GEOMETRIC_PRESENTATION_REPRESENTATION('',(#13),#468);
#11=SHAPE_REPRESENTATION_RELATIONSHIP('SRR','None',#475,#12);
#12=ADVANCED_BREP_SHAPE_REPRESENTATION('',(#14),#467);
#13=STYLED_ITEM('',(#484),#14);
#14=MANIFOLD_SOLID_BREP('Corps1',#272);
#15=FACE_BOUND('',#52,.T.);
#16=FACE_BOUND('',#55,.T.);
#17=FACE_BOUND('',#66,.T.);
#18=FACE_BOUND('',#67,.T.);
#19=FACE_BOUND('',#68,.T.);
#20=FACE_BOUND('',#69,.T.);
#21=FACE_BOUND('',#70,.T.);
#22=FACE_BOUND('',#72,.T.);
#23=FACE_BOUND('',#73,.T.);
#24=FACE_BOUND('',#74,.T.);
#25=FACE_BOUND('',#75,.T.);
#26=FACE_BOUND('',#76,.T.);
#27=PLANE('',#289);
#28=PLANE('',#294);
#29=PLANE('',#309);
#30=PLANE('',#310);
#31=PLANE('',#311);
#32=PLANE('',#312);
#33=PLANE('',#313);
#34=PLANE('',#314);
#35=FACE_OUTER_BOUND('',#50,.T.);
#36=FACE_OUTER_BOUND('',#51,.T.);
#37=FACE_OUTER_BOUND('',#53,.T.);
#38=FACE_OUTER_BOUND('',#54,.T.);
#39=FACE_OUTER_BOUND('',#56,.T.);
#40=FACE_OUTER_BOUND('',#57,.T.);
#41=FACE_OUTER_BOUND('',#58,.T.);
#42=FACE_OUTER_BOUND('',#59,.T.);
#43=FACE_OUTER_BOUND('',#60,.T.);
#44=FACE_OUTER_BOUND('',#61,.T.);
#45=FACE_OUTER_BOUND('',#62,.T.);
#46=FACE_OUTER_BOUND('',#63,.T.);
#47=FACE_OUTER_BOUND('',#64,.T.);
#48=FACE_OUTER_BOUND('',#65,.T.);
#49=FACE_OUTER_BOUND('',#71,.T.);
#50=EDGE_LOOP('',(#184,#185,#186,#187));
#51=EDGE_LOOP('',(#188));
#52=EDGE_LOOP('',(#189));
#53=EDGE_LOOP('',(#190,#191,#192,#193));
#54=EDGE_LOOP('',(#194));
#55=EDGE_LOOP('',(#195));
#56=EDGE_LOOP('',(#196,#197,#198,#199));
#57=EDGE_LOOP('',(#200,#201,#202,#203));
#58=EDGE_LOOP('',(#204,#205,#206,#207));
#59=EDGE_LOOP('',(#208,#209,#210,#211));
#60=EDGE_LOOP('',(#212,#213,#214,#215));
#61=EDGE_LOOP('',(#216,#217,#218,#219));
#62=EDGE_LOOP('',(#220,#221,#222,#223));
#63=EDGE_LOOP('',(#224,#225,#226,#227));
#64=EDGE_LOOP('',(#228,#229,#230,#231));
#65=EDGE_LOOP('',(#232,#233,#234,#235));
#66=EDGE_LOOP('',(#236));
#67=EDGE_LOOP('',(#237));
#68=EDGE_LOOP('',(#238));
#69=EDGE_LOOP('',(#239));
#70=EDGE_LOOP('',(#240));
#71=EDGE_LOOP('',(#241,#242,#243,#244));
#72=EDGE_LOOP('',(#245));
#73=EDGE_LOOP('',(#246));
#74=EDGE_LOOP('',(#247));
#75=EDGE_LOOP('',(#248));
#76=EDGE_LOOP('',(#249));
#77=LINE('',#399,#96);
#78=LINE('',#408,#97);
#79=LINE('',#414,#98);
#80=LINE('',#419,#99);
#81=LINE('',#425,#100);
#82=LINE('',#431,#101);
#83=LINE('',#437,#102);
#84=LINE('',#442,#103);
#85=LINE('',#444,#104);
#86=LINE('',#446,#105);
#87=LINE('',#447,#106);
#88=LINE('',#450,#107);
#89=LINE('',#452,#108);
#90=LINE('',#453,#109);
#91=LINE('',#456,#110);
#92=LINE('',#458,#111);
#93=LINE('',#459,#112);
#94=LINE('',#461,#113);
#95=LINE('',#462,#114);
#96=VECTOR('',#321,1.9);
#97=VECTOR('',#332,1.9);
#98=VECTOR('',#341,0.75);
#99=VECTOR('',#346,1.9);
#100=VECTOR('',#353,1.9);
#101=VECTOR('',#360,1.9);
#102=VECTOR('',#367,10.);
#103=VECTOR('',#372,10.);
#104=VECTOR('',#373,10.);
#105=VECTOR('',#374,10.);
#106=VECTOR('',#375,10.);
#107=VECTOR('',#378,10.);
#108=VECTOR('',#379,10.);
#109=VECTOR('',#380,10.);
#110=VECTOR('',#383,10.);
#111=VECTOR('',#384,10.);
#112=VECTOR('',#385,10.);
#113=VECTOR('',#388,10.);
#114=VECTOR('',#389,10.);
#115=CIRCLE('',#287,1.9);
#116=CIRCLE('',#288,1.9);
#117=CIRCLE('',#290,0.75);
#118=CIRCLE('',#292,1.9);
#119=CIRCLE('',#293,1.9);
#120=CIRCLE('',#295,0.75);
#121=CIRCLE('',#298,1.9);
#122=CIRCLE('',#299,1.9);
#123=CIRCLE('',#301,1.9);
#124=CIRCLE('',#302,1.9);
#125=CIRCLE('',#304,1.9);
#126=CIRCLE('',#305,1.9);
#127=CIRCLE('',#307,10.);
#128=CIRCLE('',#308,10.);
#129=VERTEX_POINT('',#396);
#130=VERTEX_POINT('',#398);
#131=VERTEX_POINT('',#402);
#132=VERTEX_POINT('',#405);
#133=VERTEX_POINT('',#407);
#134=VERTEX_POINT('',#411);
#135=VERTEX_POINT('',#416);
#136=VERTEX_POINT('',#418);
#137=VERTEX_POINT('',#422);
#138=VERTEX_POINT('',#424);
#139=VERTEX_POINT('',#428);
#140=VERTEX_POINT('',#430);
#141=VERTEX_POINT('',#434);
#142=VERTEX_POINT('',#436);
#143=VERTEX_POINT('',#440);
#144=VERTEX_POINT('',#441);
#145=VERTEX_POINT('',#443);
#146=VERTEX_POINT('',#445);
#147=VERTEX_POINT('',#449);
#148=VERTEX_POINT('',#451);
#149=VERTEX_POINT('',#455);
#150=VERTEX_POINT('',#457);
#151=EDGE_CURVE('',#129,#129,#115,.T.);
#152=EDGE_CURVE('',#129,#130,#77,.T.);
#153=EDGE_CURVE('',#130,#130,#116,.T.);
#154=EDGE_CURVE('',#131,#131,#117,.T.);
#155=EDGE_CURVE('',#132,#132,#118,.T.);
#156=EDGE_CURVE('',#132,#133,#78,.T.);
#157=EDGE_CURVE('',#133,#133,#119,.T.);
#158=EDGE_CURVE('',#134,#134,#120,.T.);
#159=EDGE_CURVE('',#134,#131,#79,.T.);
#160=EDGE_CURVE('',#135,#135,#121,.T.);
#161=EDGE_CURVE('',#135,#136,#80,.T.);
#162=EDGE_CURVE('',#136,#136,#122,.T.);
#163=EDGE_CURVE('',#137,#137,#123,.T.);
#164=EDGE_CURVE('',#137,#138,#81,.T.);
#165=EDGE_CURVE('',#138,#138,#124,.T.);
#166=EDGE_CURVE('',#139,#139,#125,.T.);
#167=EDGE_CURVE('',#139,#140,#82,.T.);
#168=EDGE_CURVE('',#140,#140,#126,.T.);
#169=EDGE_CURVE('',#141,#141,#127,.T.);
#170=EDGE_CURVE('',#141,#142,#83,.T.);
#171=EDGE_CURVE('',#142,#142,#128,.T.);
#172=EDGE_CURVE('',#143,#144,#84,.T.);
#173=EDGE_CURVE('',#143,#145,#85,.T.);
#174=EDGE_CURVE('',#146,#145,#86,.T.);
#175=EDGE_CURVE('',#144,#146,#87,.T.);
#176=EDGE_CURVE('',#144,#147,#88,.T.);
#177=EDGE_CURVE('',#148,#146,#89,.T.);
#178=EDGE_CURVE('',#147,#148,#90,.T.);
#179=EDGE_CURVE('',#147,#149,#91,.T.);
#180=EDGE_CURVE('',#150,#148,#92,.T.);
#181=EDGE_CURVE('',#149,#150,#93,.T.);
#182=EDGE_CURVE('',#149,#143,#94,.T.);
#183=EDGE_CURVE('',#145,#150,#95,.T.);
#184=ORIENTED_EDGE('',*,*,#151,.F.);
#185=ORIENTED_EDGE('',*,*,#152,.T.);
#186=ORIENTED_EDGE('',*,*,#153,.T.);
#187=ORIENTED_EDGE('',*,*,#152,.F.);
#188=ORIENTED_EDGE('',*,*,#153,.F.);
#189=ORIENTED_EDGE('',*,*,#154,.F.);
#190=ORIENTED_EDGE('',*,*,#155,.F.);
#191=ORIENTED_EDGE('',*,*,#156,.T.);
#192=ORIENTED_EDGE('',*,*,#157,.T.);
#193=ORIENTED_EDGE('',*,*,#156,.F.);
#194=ORIENTED_EDGE('',*,*,#157,.F.);
#195=ORIENTED_EDGE('',*,*,#158,.F.);
#196=ORIENTED_EDGE('',*,*,#158,.T.);
#197=ORIENTED_EDGE('',*,*,#159,.T.);
#198=ORIENTED_EDGE('',*,*,#154,.T.);
#199=ORIENTED_EDGE('',*,*,#159,.F.);
#200=ORIENTED_EDGE('',*,*,#160,.F.);
#201=ORIENTED_EDGE('',*,*,#161,.T.);
#202=ORIENTED_EDGE('',*,*,#162,.F.);
#203=ORIENTED_EDGE('',*,*,#161,.F.);
#204=ORIENTED_EDGE('',*,*,#163,.F.);
#205=ORIENTED_EDGE('',*,*,#164,.T.);
#206=ORIENTED_EDGE('',*,*,#165,.F.);
#207=ORIENTED_EDGE('',*,*,#164,.F.);
#208=ORIENTED_EDGE('',*,*,#166,.F.);
#209=ORIENTED_EDGE('',*,*,#167,.T.);
#210=ORIENTED_EDGE('',*,*,#168,.F.);
#211=ORIENTED_EDGE('',*,*,#167,.F.);
#212=ORIENTED_EDGE('',*,*,#169,.F.);
#213=ORIENTED_EDGE('',*,*,#170,.T.);
#214=ORIENTED_EDGE('',*,*,#171,.F.);
#215=ORIENTED_EDGE('',*,*,#170,.F.);
#216=ORIENTED_EDGE('',*,*,#172,.F.);
#217=ORIENTED_EDGE('',*,*,#173,.T.);
#218=ORIENTED_EDGE('',*,*,#174,.F.);
#219=ORIENTED_EDGE('',*,*,#175,.F.);
#220=ORIENTED_EDGE('',*,*,#176,.F.);
#221=ORIENTED_EDGE('',*,*,#175,.T.);
#222=ORIENTED_EDGE('',*,*,#177,.F.);
#223=ORIENTED_EDGE('',*,*,#178,.F.);
#224=ORIENTED_EDGE('',*,*,#179,.F.);
#225=ORIENTED_EDGE('',*,*,#178,.T.);
#226=ORIENTED_EDGE('',*,*,#180,.F.);
#227=ORIENTED_EDGE('',*,*,#181,.F.);
#228=ORIENTED_EDGE('',*,*,#182,.F.);
#229=ORIENTED_EDGE('',*,*,#181,.T.);
#230=ORIENTED_EDGE('',*,*,#183,.F.);
#231=ORIENTED_EDGE('',*,*,#173,.F.);
#232=ORIENTED_EDGE('',*,*,#183,.T.);
#233=ORIENTED_EDGE('',*,*,#180,.T.);
#234=ORIENTED_EDGE('',*,*,#177,.T.);
#235=ORIENTED_EDGE('',*,*,#174,.T.);
#236=ORIENTED_EDGE('',*,*,#155,.T.);
#237=ORIENTED_EDGE('',*,*,#160,.T.);
#238=ORIENTED_EDGE('',*,*,#163,.T.);
#239=ORIENTED_EDGE('',*,*,#166,.T.);
#240=ORIENTED_EDGE('',*,*,#169,.T.);
#241=ORIENTED_EDGE('',*,*,#182,.T.);
#242=ORIENTED_EDGE('',*,*,#172,.T.);
#243=ORIENTED_EDGE('',*,*,#176,.T.);
#244=ORIENTED_EDGE('',*,*,#179,.T.);
#245=ORIENTED_EDGE('',*,*,#151,.T.);
#246=ORIENTED_EDGE('',*,*,#162,.T.);
#247=ORIENTED_EDGE('',*,*,#165,.T.);
#248=ORIENTED_EDGE('',*,*,#168,.T.);
#249=ORIENTED_EDGE('',*,*,#171,.T.);
#250=CYLINDRICAL_SURFACE('',#286,1.9);
#251=CYLINDRICAL_SURFACE('',#291,1.9);
#252=CYLINDRICAL_SURFACE('',#296,0.75);
#253=CYLINDRICAL_SURFACE('',#297,1.9);
#254=CYLINDRICAL_SURFACE('',#300,1.9);
#255=CYLINDRICAL_SURFACE('',#303,1.9);
#256=CYLINDRICAL_SURFACE('',#306,10.);
#257=ADVANCED_FACE('',(#35),#250,.F.);
#258=ADVANCED_FACE('',(#36,#15),#27,.F.);
#259=ADVANCED_FACE('',(#37),#251,.F.);
#260=ADVANCED_FACE('',(#38,#16),#28,.F.);
#261=ADVANCED_FACE('',(#39),#252,.F.);
#262=ADVANCED_FACE('',(#40),#253,.F.);
#263=ADVANCED_FACE('',(#41),#254,.F.);
#264=ADVANCED_FACE('',(#42),#255,.F.);
#265=ADVANCED_FACE('',(#43),#256,.F.);
#266=ADVANCED_FACE('',(#44),#29,.T.);
#267=ADVANCED_FACE('',(#45),#30,.T.);
#268=ADVANCED_FACE('',(#46),#31,.T.);
#269=ADVANCED_FACE('',(#47),#32,.T.);
#270=ADVANCED_FACE('',(#48,#17,#18,#19,#20,#21),#33,.T.);
#271=ADVANCED_FACE('',(#49,#22,#23,#24,#25,#26),#34,.F.);
#272=CLOSED_SHELL('',(#257,#258,#259,#260,#261,#262,#263,#264,#265,#266,
#267,#268,#269,#270,#271));
#273=DERIVED_UNIT_ELEMENT(#275,1.);
#274=DERIVED_UNIT_ELEMENT(#470,-3.);
#275=(
MASS_UNIT()
NAMED_UNIT(*)
SI_UNIT(.KILO.,.GRAM.)
);
#276=DERIVED_UNIT((#273,#274));
#277=MEASURE_REPRESENTATION_ITEM('density measure',
POSITIVE_RATIO_MEASURE(7850.),#276);
#278=PROPERTY_DEFINITION_REPRESENTATION(#283,#280);
#279=PROPERTY_DEFINITION_REPRESENTATION(#284,#281);
#280=REPRESENTATION('material name',(#282),#467);
#281=REPRESENTATION('density',(#277),#467);
#282=DESCRIPTIVE_REPRESENTATION_ITEM('Acier','Acier');
#283=PROPERTY_DEFINITION('material property','material name',#477);
#284=PROPERTY_DEFINITION('material property','density of part',#477);
#285=AXIS2_PLACEMENT_3D('placement',#394,#315,#316);
#286=AXIS2_PLACEMENT_3D('',#395,#317,#318);
#287=AXIS2_PLACEMENT_3D('',#397,#319,#320);
#288=AXIS2_PLACEMENT_3D('',#400,#322,#323);
#289=AXIS2_PLACEMENT_3D('',#401,#324,#325);
#290=AXIS2_PLACEMENT_3D('',#403,#326,#327);
#291=AXIS2_PLACEMENT_3D('',#404,#328,#329);
#292=AXIS2_PLACEMENT_3D('',#406,#330,#331);
#293=AXIS2_PLACEMENT_3D('',#409,#333,#334);
#294=AXIS2_PLACEMENT_3D('',#410,#335,#336);
#295=AXIS2_PLACEMENT_3D('',#412,#337,#338);
#296=AXIS2_PLACEMENT_3D('',#413,#339,#340);
#297=AXIS2_PLACEMENT_3D('',#415,#342,#343);
#298=AXIS2_PLACEMENT_3D('',#417,#344,#345);
#299=AXIS2_PLACEMENT_3D('',#420,#347,#348);
#300=AXIS2_PLACEMENT_3D('',#421,#349,#350);
#301=AXIS2_PLACEMENT_3D('',#423,#351,#352);
#302=AXIS2_PLACEMENT_3D('',#426,#354,#355);
#303=AXIS2_PLACEMENT_3D('',#427,#356,#357);
#304=AXIS2_PLACEMENT_3D('',#429,#358,#359);
#305=AXIS2_PLACEMENT_3D('',#432,#361,#362);
#306=AXIS2_PLACEMENT_3D('',#433,#363,#364);
#307=AXIS2_PLACEMENT_3D('',#435,#365,#366);
#308=AXIS2_PLACEMENT_3D('',#438,#368,#369);
#309=AXIS2_PLACEMENT_3D('',#439,#370,#371);
#310=AXIS2_PLACEMENT_3D('',#448,#376,#377);
#311=AXIS2_PLACEMENT_3D('',#454,#381,#382);
#312=AXIS2_PLACEMENT_3D('',#460,#386,#387);
#313=AXIS2_PLACEMENT_3D('',#463,#390,#391);
#314=AXIS2_PLACEMENT_3D('',#464,#392,#393);
#315=DIRECTION('axis',(0.,0.,1.));
#316=DIRECTION('refdir',(1.,0.,0.));
#317=DIRECTION('center_axis',(0.,0.,1.));
#318=DIRECTION('ref_axis',(-1.,0.,0.));
#319=DIRECTION('center_axis',(0.,0.,1.));
#320=DIRECTION('ref_axis',(-1.,0.,0.));
#321=DIRECTION('',(0.,0.,1.));
#322=DIRECTION('center_axis',(0.,0.,1.));
#323=DIRECTION('ref_axis',(-1.,0.,0.));
#324=DIRECTION('center_axis',(0.,0.,1.));
#325=DIRECTION('ref_axis',(-1.,0.,0.));
#326=DIRECTION('center_axis',(0.,0.,-1.));
#327=DIRECTION('ref_axis',(1.,0.,0.));
#328=DIRECTION('center_axis',(0.,0.,-1.));
#329=DIRECTION('ref_axis',(1.,0.,0.));
#330=DIRECTION('center_axis',(0.,0.,-1.));
#331=DIRECTION('ref_axis',(1.,0.,0.));
#332=DIRECTION('',(0.,0.,-1.));
#333=DIRECTION('center_axis',(0.,0.,-1.));
#334=DIRECTION('ref_axis',(1.,0.,0.));
#335=DIRECTION('center_axis',(0.,0.,-1.));
#336=DIRECTION('ref_axis',(1.,0.,0.));
#337=DIRECTION('center_axis',(0.,0.,1.));
#338=DIRECTION('ref_axis',(1.,0.,0.));
#339=DIRECTION('center_axis',(0.,0.,-1.));
#340=DIRECTION('ref_axis',(1.,0.,0.));
#341=DIRECTION('',(0.,0.,-1.));
#342=DIRECTION('center_axis',(0.,0.,-1.));
#343=DIRECTION('ref_axis',(1.,0.,0.));
#344=DIRECTION('center_axis',(0.,0.,-1.));
#345=DIRECTION('ref_axis',(1.,0.,0.));
#346=DIRECTION('',(0.,0.,-1.));
#347=DIRECTION('center_axis',(0.,0.,1.));
#348=DIRECTION('ref_axis',(1.,0.,0.));
#349=DIRECTION('center_axis',(0.,0.,-1.));
#350=DIRECTION('ref_axis',(1.,0.,0.));
#351=DIRECTION('center_axis',(0.,0.,-1.));
#352=DIRECTION('ref_axis',(1.,0.,0.));
#353=DIRECTION('',(0.,0.,-1.));
#354=DIRECTION('center_axis',(0.,0.,1.));
#355=DIRECTION('ref_axis',(1.,0.,0.));
#356=DIRECTION('center_axis',(0.,0.,-1.));
#357=DIRECTION('ref_axis',(1.,0.,0.));
#358=DIRECTION('center_axis',(0.,0.,-1.));
#359=DIRECTION('ref_axis',(1.,0.,0.));
#360=DIRECTION('',(0.,0.,-1.));
#361=DIRECTION('center_axis',(0.,0.,1.));
#362=DIRECTION('ref_axis',(1.,0.,0.));
#363=DIRECTION('center_axis',(0.,0.,-1.));
#364=DIRECTION('ref_axis',(1.,0.,0.));
#365=DIRECTION('center_axis',(0.,0.,-1.));
#366=DIRECTION('ref_axis',(1.,0.,0.));
#367=DIRECTION('',(0.,0.,-1.));
#368=DIRECTION('center_axis',(0.,0.,1.));
#369=DIRECTION('ref_axis',(1.,0.,0.));
#370=DIRECTION('center_axis',(-1.,0.,0.));
#371=DIRECTION('ref_axis',(0.,-1.,0.));
#372=DIRECTION('',(0.,1.,0.));
#373=DIRECTION('',(0.,0.,1.));
#374=DIRECTION('',(0.,-1.,0.));
#375=DIRECTION('',(0.,0.,1.));
#376=DIRECTION('center_axis',(0.,1.,0.));
#377=DIRECTION('ref_axis',(-1.,0.,0.));
#378=DIRECTION('',(1.,0.,0.));
#379=DIRECTION('',(-1.,0.,0.));
#380=DIRECTION('',(0.,0.,1.));
#381=DIRECTION('center_axis',(1.,0.,0.));
#382=DIRECTION('ref_axis',(0.,1.,0.));
#383=DIRECTION('',(0.,-1.,0.));
#384=DIRECTION('',(0.,1.,0.));
#385=DIRECTION('',(0.,0.,1.));
#386=DIRECTION('center_axis',(0.,-1.,0.));
#387=DIRECTION('ref_axis',(1.,0.,0.));
#388=DIRECTION('',(-1.,0.,0.));
#389=DIRECTION('',(1.,0.,0.));
#390=DIRECTION('center_axis',(0.,0.,1.));
#391=DIRECTION('ref_axis',(1.,0.,0.));
#392=DIRECTION('center_axis',(0.,0.,1.));
#393=DIRECTION('ref_axis',(1.,0.,0.));
#394=CARTESIAN_POINT('',(0.,0.,0.));
#395=CARTESIAN_POINT('Origin',(26.949198516801,-26.9495821702617,0.25));
#396=CARTESIAN_POINT('',(28.849198516801,-26.9495821702617,3.46944695195361E-17));
#397=CARTESIAN_POINT('Origin',(26.949198516801,-26.9495821702617,0.));
#398=CARTESIAN_POINT('',(28.849198516801,-26.9495821702617,0.5));
#399=CARTESIAN_POINT('',(28.849198516801,-26.9495821702617,0.25));
#400=CARTESIAN_POINT('Origin',(26.949198516801,-26.9495821702617,0.5));
#401=CARTESIAN_POINT('Origin',(26.949198516801,-26.9495821702617,0.5));
#402=CARTESIAN_POINT('',(26.199198516801,-26.9495821702617,0.5));
#403=CARTESIAN_POINT('Origin',(26.949198516801,-26.9495821702617,0.5));
#404=CARTESIAN_POINT('Origin',(26.949198516801,-26.9495821702617,2.75));
#405=CARTESIAN_POINT('',(25.049198516801,-26.9495821702617,3.));
#406=CARTESIAN_POINT('Origin',(26.949198516801,-26.9495821702617,3.));
#407=CARTESIAN_POINT('',(25.049198516801,-26.9495821702617,2.5));
#408=CARTESIAN_POINT('',(25.049198516801,-26.9495821702617,2.75));
#409=CARTESIAN_POINT('Origin',(26.949198516801,-26.9495821702617,2.5));
#410=CARTESIAN_POINT('Origin',(26.949198516801,-26.9495821702617,2.5));
#411=CARTESIAN_POINT('',(26.199198516801,-26.9495821702617,2.5));
#412=CARTESIAN_POINT('Origin',(26.949198516801,-26.9495821702617,2.5));
#413=CARTESIAN_POINT('Origin',(26.949198516801,-26.9495821702617,1.5));
#414=CARTESIAN_POINT('',(26.199198516801,-26.9495821702617,1.5));
#415=CARTESIAN_POINT('Origin',(2.05060966544099,-2.05060966544099,1.5));
#416=CARTESIAN_POINT('',(0.150609665440987,-2.05060966544099,3.));
#417=CARTESIAN_POINT('Origin',(2.05060966544099,-2.05060966544099,3.));
#418=CARTESIAN_POINT('',(0.150609665440987,-2.05060966544099,0.));
#419=CARTESIAN_POINT('',(0.150609665440987,-2.05060966544099,1.5));
#420=CARTESIAN_POINT('Origin',(2.05060966544099,-2.05060966544099,0.));
#421=CARTESIAN_POINT('Origin',(2.05120704694126,-26.9499878901386,1.5));
#422=CARTESIAN_POINT('',(0.151207046941257,-26.9499878901386,3.));
#423=CARTESIAN_POINT('Origin',(2.05120704694126,-26.9499878901386,3.));
#424=CARTESIAN_POINT('',(0.151207046941257,-26.9499878901386,0.));
#425=CARTESIAN_POINT('',(0.151207046941257,-26.9499878901386,1.5));
#426=CARTESIAN_POINT('Origin',(2.05120704694126,-26.9499878901386,0.));
#427=CARTESIAN_POINT('Origin',(26.949390334559,-2.05060966544099,1.5));
#428=CARTESIAN_POINT('',(25.049390334559,-2.05060966544099,3.));
#429=CARTESIAN_POINT('Origin',(26.949390334559,-2.05060966544099,3.));
#430=CARTESIAN_POINT('',(25.049390334559,-2.05060966544099,0.));
#431=CARTESIAN_POINT('',(25.049390334559,-2.05060966544099,1.5));
#432=CARTESIAN_POINT('Origin',(26.949390334559,-2.05060966544099,0.));
#433=CARTESIAN_POINT('Origin',(14.5,-14.5,1.5));
#434=CARTESIAN_POINT('',(4.5,-14.5,3.));
#435=CARTESIAN_POINT('Origin',(14.5,-14.5,3.));
#436=CARTESIAN_POINT('',(4.5,-14.5,0.));
#437=CARTESIAN_POINT('',(4.5,-14.5,1.5));
#438=CARTESIAN_POINT('Origin',(14.5,-14.5,0.));
#439=CARTESIAN_POINT('Origin',(0.,0.,0.));
#440=CARTESIAN_POINT('',(0.,-29.,0.));
#441=CARTESIAN_POINT('',(0.,0.,0.));
#442=CARTESIAN_POINT('',(0.,-29.,0.));
#443=CARTESIAN_POINT('',(0.,-29.,3.));
#444=CARTESIAN_POINT('',(0.,-29.,0.));
#445=CARTESIAN_POINT('',(0.,0.,3.));
#446=CARTESIAN_POINT('',(0.,-29.,3.));
#447=CARTESIAN_POINT('',(0.,0.,0.));
#448=CARTESIAN_POINT('Origin',(29.,0.,0.));
#449=CARTESIAN_POINT('',(29.,0.,0.));
#450=CARTESIAN_POINT('',(0.,0.,0.));
#451=CARTESIAN_POINT('',(29.,0.,3.));
#452=CARTESIAN_POINT('',(0.,0.,3.));
#453=CARTESIAN_POINT('',(29.,0.,0.));
#454=CARTESIAN_POINT('Origin',(29.,-29.,0.));
#455=CARTESIAN_POINT('',(29.,-29.,0.));
#456=CARTESIAN_POINT('',(29.,0.,0.));
#457=CARTESIAN_POINT('',(29.,-29.,3.));
#458=CARTESIAN_POINT('',(29.,0.,3.));
#459=CARTESIAN_POINT('',(29.,-29.,0.));
#460=CARTESIAN_POINT('Origin',(0.,-29.,0.));
#461=CARTESIAN_POINT('',(29.,-29.,0.));
#462=CARTESIAN_POINT('',(29.,-29.,3.));
#463=CARTESIAN_POINT('Origin',(14.5,-14.5,3.));
#464=CARTESIAN_POINT('Origin',(14.5,-14.5,0.));
#465=UNCERTAINTY_MEASURE_WITH_UNIT(LENGTH_MEASURE(0.01),#469,
'DISTANCE_ACCURACY_VALUE',
'Maximum model space distance between geometric entities at asserted c
onnectivities');
#466=UNCERTAINTY_MEASURE_WITH_UNIT(LENGTH_MEASURE(0.01),#469,
'DISTANCE_ACCURACY_VALUE',
'Maximum model space distance between geometric entities at asserted c
onnectivities');
#467=(
GEOMETRIC_REPRESENTATION_CONTEXT(3)
GLOBAL_UNCERTAINTY_ASSIGNED_CONTEXT((#465))
GLOBAL_UNIT_ASSIGNED_CONTEXT((#469,#471,#472))
REPRESENTATION_CONTEXT('','3D')
);
#468=(
GEOMETRIC_REPRESENTATION_CONTEXT(3)
GLOBAL_UNCERTAINTY_ASSIGNED_CONTEXT((#466))
GLOBAL_UNIT_ASSIGNED_CONTEXT((#469,#471,#472))
REPRESENTATION_CONTEXT('','3D')
);
#469=(
LENGTH_UNIT()
NAMED_UNIT(*)
SI_UNIT(.MILLI.,.METRE.)
);
#470=(
LENGTH_UNIT()
NAMED_UNIT(*)
SI_UNIT($,.METRE.)
);
#471=(
NAMED_UNIT(*)
PLANE_ANGLE_UNIT()
SI_UNIT($,.RADIAN.)
);
#472=(
NAMED_UNIT(*)
SI_UNIT($,.STERADIAN.)
SOLID_ANGLE_UNIT()
);
#473=SHAPE_DEFINITION_REPRESENTATION(#474,#475);
#474=PRODUCT_DEFINITION_SHAPE('',$,#477);
#475=SHAPE_REPRESENTATION('',(#285),#467);
#476=PRODUCT_DEFINITION_CONTEXT('part definition',#481,'design');
#477=PRODUCT_DEFINITION('(Non enregistr\X\E9)','(Non enregistr\X\E9)',#478,
#476);
#478=PRODUCT_DEFINITION_FORMATION('',$,#483);
#479=PRODUCT_RELATED_PRODUCT_CATEGORY('(Non enregistr\X\E9)',
'(Non enregistr\X\E9)',(#483));
#480=APPLICATION_PROTOCOL_DEFINITION('international standard',
'automotive_design',2009,#481);
#481=APPLICATION_CONTEXT(
'Core Data for Automotive Mechanical Design Process');
#482=PRODUCT_CONTEXT('part definition',#481,'mechanical');
#483=PRODUCT('(Non enregistr\X\E9)','(Non enregistr\X\E9)',$,(#482));
#484=PRESENTATION_STYLE_ASSIGNMENT((#485));
#485=SURFACE_STYLE_USAGE(.BOTH.,#486);
#486=SURFACE_SIDE_STYLE('',(#487));
#487=SURFACE_STYLE_FILL_AREA(#488);
#488=FILL_AREA_STYLE('Acier - Satin\X\E9',(#489));
#489=FILL_AREA_STYLE_COLOUR('Acier - Satin\X\E9',#490);
#490=COLOUR_RGB('Acier - Satin\X\E9',0.627450980392157,0.627450980392157,
0.627450980392157);
ENDSEC;
END-ISO-10303-21;
