ISO-10303-21;
HEADER;
/* Generated by software containing ST-Developer
 * from STEP Tools, Inc. (www.steptools.com) 
 */

FILE_DESCRIPTION(
/* description */ (''),
/* implementation_level */ '2;1');

FILE_NAME(
/* name */ 'renfort.step',
/* time_stamp */ '2022-12-22T18:16:57+01:00',
/* author */ (''),
/* organization */ (''),
/* preprocessor_version */ 'ST-DEVELOPER v19.2',
/* originating_system */ 'Autodesk Translation Framework v11.17.0.187',

/* authorisation */ '');

FILE_SCHEMA (('AUTOMOTIVE_DESIGN { 1 0 10303 214 3 1 1 }'));
ENDSEC;

DATA;
#10=MECHANICAL_DESIGN_GEOMETRIC_PRESENTATION_REPRESENTATION('',(#13),#541);
#11=SHAPE_REPRESENTATION_RELATIONSHIP('SRR','None',#548,#12);
#12=ADVANCED_BREP_SHAPE_REPRESENTATION('',(#14),#540);
#13=STYLED_ITEM('',(#557),#14);
#14=MANIFOLD_SOLID_BREP('renfort',#313);
#15=FACE_BOUND('',#60,.T.);
#16=FACE_BOUND('',#61,.T.);
#17=FACE_BOUND('',#62,.T.);
#18=FACE_BOUND('',#64,.T.);
#19=FACE_BOUND('',#65,.T.);
#20=FACE_BOUND('',#66,.T.);
#21=PLANE('',#333);
#22=PLANE('',#337);
#23=PLANE('',#341);
#24=PLANE('',#345);
#25=PLANE('',#349);
#26=PLANE('',#353);
#27=PLANE('',#357);
#28=PLANE('',#358);
#29=FACE_OUTER_BOUND('',#45,.T.);
#30=FACE_OUTER_BOUND('',#46,.T.);
#31=FACE_OUTER_BOUND('',#47,.T.);
#32=FACE_OUTER_BOUND('',#48,.T.);
#33=FACE_OUTER_BOUND('',#49,.T.);
#34=FACE_OUTER_BOUND('',#50,.T.);
#35=FACE_OUTER_BOUND('',#51,.T.);
#36=FACE_OUTER_BOUND('',#52,.T.);
#37=FACE_OUTER_BOUND('',#53,.T.);
#38=FACE_OUTER_BOUND('',#54,.T.);
#39=FACE_OUTER_BOUND('',#55,.T.);
#40=FACE_OUTER_BOUND('',#56,.T.);
#41=FACE_OUTER_BOUND('',#57,.T.);
#42=FACE_OUTER_BOUND('',#58,.T.);
#43=FACE_OUTER_BOUND('',#59,.T.);
#44=FACE_OUTER_BOUND('',#63,.T.);
#45=EDGE_LOOP('',(#205,#206,#207,#208));
#46=EDGE_LOOP('',(#209,#210,#211,#212));
#47=EDGE_LOOP('',(#213,#214,#215,#216));
#48=EDGE_LOOP('',(#217,#218,#219,#220));
#49=EDGE_LOOP('',(#221,#222,#223,#224));
#50=EDGE_LOOP('',(#225,#226,#227,#228));
#51=EDGE_LOOP('',(#229,#230,#231,#232));
#52=EDGE_LOOP('',(#233,#234,#235,#236));
#53=EDGE_LOOP('',(#237,#238,#239,#240));
#54=EDGE_LOOP('',(#241,#242,#243,#244));
#55=EDGE_LOOP('',(#245,#246,#247,#248));
#56=EDGE_LOOP('',(#249,#250,#251,#252));
#57=EDGE_LOOP('',(#253,#254,#255,#256));
#58=EDGE_LOOP('',(#257,#258,#259,#260));
#59=EDGE_LOOP('',(#261,#262,#263,#264));
#60=EDGE_LOOP('',(#265,#266,#267,#268,#269,#270,#271,#272));
#61=EDGE_LOOP('',(#273));
#62=EDGE_LOOP('',(#274));
#63=EDGE_LOOP('',(#275,#276,#277,#278));
#64=EDGE_LOOP('',(#279,#280,#281,#282,#283,#284,#285,#286));
#65=EDGE_LOOP('',(#287));
#66=EDGE_LOOP('',(#288));
#67=LINE('',#456,#93);
#68=LINE('',#462,#94);
#69=LINE('',#467,#95);
#70=LINE('',#469,#96);
#71=LINE('',#471,#97);
#72=LINE('',#472,#98);
#73=LINE('',#478,#99);
#74=LINE('',#481,#100);
#75=LINE('',#483,#101);
#76=LINE('',#484,#102);
#77=LINE('',#490,#103);
#78=LINE('',#493,#104);
#79=LINE('',#495,#105);
#80=LINE('',#496,#106);
#81=LINE('',#502,#107);
#82=LINE('',#505,#108);
#83=LINE('',#507,#109);
#84=LINE('',#508,#110);
#85=LINE('',#515,#111);
#86=LINE('',#517,#112);
#87=LINE('',#519,#113);
#88=LINE('',#520,#114);
#89=LINE('',#526,#115);
#90=LINE('',#529,#116);
#91=LINE('',#531,#117);
#92=LINE('',#532,#118);
#93=VECTOR('',#365,2.99999999999999);
#94=VECTOR('',#372,3.);
#95=VECTOR('',#377,10.);
#96=VECTOR('',#378,10.);
#97=VECTOR('',#379,10.);
#98=VECTOR('',#380,10.);
#99=VECTOR('',#387,10.);
#100=VECTOR('',#390,10.);
#101=VECTOR('',#391,10.);
#102=VECTOR('',#392,10.);
#103=VECTOR('',#399,10.);
#104=VECTOR('',#402,10.);
#105=VECTOR('',#403,10.);
#106=VECTOR('',#404,10.);
#107=VECTOR('',#411,10.);
#108=VECTOR('',#414,10.);
#109=VECTOR('',#415,10.);
#110=VECTOR('',#416,10.);
#111=VECTOR('',#425,10.);
#112=VECTOR('',#426,10.);
#113=VECTOR('',#427,10.);
#114=VECTOR('',#428,10.);
#115=VECTOR('',#435,10.);
#116=VECTOR('',#438,10.);
#117=VECTOR('',#439,10.);
#118=VECTOR('',#440,10.);
#119=CIRCLE('',#328,2.99999999999999);
#120=CIRCLE('',#329,2.99999999999999);
#121=CIRCLE('',#331,3.);
#122=CIRCLE('',#332,3.);
#123=CIRCLE('',#335,1.00000001490116);
#124=CIRCLE('',#336,1.00000001490116);
#125=CIRCLE('',#339,1.00000001490116);
#126=CIRCLE('',#340,1.00000001490116);
#127=CIRCLE('',#343,1.00000001490116);
#128=CIRCLE('',#344,1.00000001490116);
#129=CIRCLE('',#347,1.00000001490116);
#130=CIRCLE('',#348,1.00000001490116);
#131=CIRCLE('',#351,12.0001337208052);
#132=CIRCLE('',#352,12.0001337208052);
#133=CIRCLE('',#355,12.);
#134=CIRCLE('',#356,12.);
#135=VERTEX_POINT('',#453);
#136=VERTEX_POINT('',#455);
#137=VERTEX_POINT('',#459);
#138=VERTEX_POINT('',#461);
#139=VERTEX_POINT('',#465);
#140=VERTEX_POINT('',#466);
#141=VERTEX_POINT('',#468);
#142=VERTEX_POINT('',#470);
#143=VERTEX_POINT('',#474);
#144=VERTEX_POINT('',#476);
#145=VERTEX_POINT('',#480);
#146=VERTEX_POINT('',#482);
#147=VERTEX_POINT('',#486);
#148=VERTEX_POINT('',#488);
#149=VERTEX_POINT('',#492);
#150=VERTEX_POINT('',#494);
#151=VERTEX_POINT('',#498);
#152=VERTEX_POINT('',#500);
#153=VERTEX_POINT('',#504);
#154=VERTEX_POINT('',#506);
#155=VERTEX_POINT('',#513);
#156=VERTEX_POINT('',#514);
#157=VERTEX_POINT('',#516);
#158=VERTEX_POINT('',#518);
#159=VERTEX_POINT('',#522);
#160=VERTEX_POINT('',#524);
#161=VERTEX_POINT('',#528);
#162=VERTEX_POINT('',#530);
#163=EDGE_CURVE('',#135,#135,#119,.T.);
#164=EDGE_CURVE('',#135,#136,#67,.T.);
#165=EDGE_CURVE('',#136,#136,#120,.T.);
#166=EDGE_CURVE('',#137,#137,#121,.T.);
#167=EDGE_CURVE('',#137,#138,#68,.T.);
#168=EDGE_CURVE('',#138,#138,#122,.T.);
#169=EDGE_CURVE('',#139,#140,#69,.T.);
#170=EDGE_CURVE('',#140,#141,#70,.T.);
#171=EDGE_CURVE('',#142,#141,#71,.T.);
#172=EDGE_CURVE('',#139,#142,#72,.T.);
#173=EDGE_CURVE('',#143,#139,#123,.T.);
#174=EDGE_CURVE('',#144,#142,#124,.T.);
#175=EDGE_CURVE('',#143,#144,#73,.T.);
#176=EDGE_CURVE('',#145,#143,#74,.T.);
#177=EDGE_CURVE('',#146,#144,#75,.T.);
#178=EDGE_CURVE('',#145,#146,#76,.T.);
#179=EDGE_CURVE('',#147,#145,#125,.T.);
#180=EDGE_CURVE('',#148,#146,#126,.T.);
#181=EDGE_CURVE('',#147,#148,#77,.T.);
#182=EDGE_CURVE('',#149,#147,#78,.T.);
#183=EDGE_CURVE('',#150,#148,#79,.T.);
#184=EDGE_CURVE('',#149,#150,#80,.T.);
#185=EDGE_CURVE('',#151,#149,#127,.T.);
#186=EDGE_CURVE('',#152,#150,#128,.T.);
#187=EDGE_CURVE('',#151,#152,#81,.T.);
#188=EDGE_CURVE('',#153,#151,#82,.T.);
#189=EDGE_CURVE('',#154,#152,#83,.T.);
#190=EDGE_CURVE('',#153,#154,#84,.T.);
#191=EDGE_CURVE('',#140,#153,#129,.T.);
#192=EDGE_CURVE('',#141,#154,#130,.T.);
#193=EDGE_CURVE('',#155,#156,#85,.T.);
#194=EDGE_CURVE('',#155,#157,#86,.T.);
#195=EDGE_CURVE('',#158,#157,#87,.T.);
#196=EDGE_CURVE('',#156,#158,#88,.T.);
#197=EDGE_CURVE('',#159,#156,#131,.T.);
#198=EDGE_CURVE('',#160,#158,#132,.T.);
#199=EDGE_CURVE('',#159,#160,#89,.T.);
#200=EDGE_CURVE('',#159,#161,#90,.T.);
#201=EDGE_CURVE('',#162,#160,#91,.T.);
#202=EDGE_CURVE('',#161,#162,#92,.T.);
#203=EDGE_CURVE('',#155,#161,#133,.T.);
#204=EDGE_CURVE('',#157,#162,#134,.T.);
#205=ORIENTED_EDGE('',*,*,#163,.F.);
#206=ORIENTED_EDGE('',*,*,#164,.T.);
#207=ORIENTED_EDGE('',*,*,#165,.T.);
#208=ORIENTED_EDGE('',*,*,#164,.F.);
#209=ORIENTED_EDGE('',*,*,#166,.F.);
#210=ORIENTED_EDGE('',*,*,#167,.T.);
#211=ORIENTED_EDGE('',*,*,#168,.T.);
#212=ORIENTED_EDGE('',*,*,#167,.F.);
#213=ORIENTED_EDGE('',*,*,#169,.T.);
#214=ORIENTED_EDGE('',*,*,#170,.T.);
#215=ORIENTED_EDGE('',*,*,#171,.F.);
#216=ORIENTED_EDGE('',*,*,#172,.F.);
#217=ORIENTED_EDGE('',*,*,#173,.T.);
#218=ORIENTED_EDGE('',*,*,#172,.T.);
#219=ORIENTED_EDGE('',*,*,#174,.F.);
#220=ORIENTED_EDGE('',*,*,#175,.F.);
#221=ORIENTED_EDGE('',*,*,#176,.T.);
#222=ORIENTED_EDGE('',*,*,#175,.T.);
#223=ORIENTED_EDGE('',*,*,#177,.F.);
#224=ORIENTED_EDGE('',*,*,#178,.F.);
#225=ORIENTED_EDGE('',*,*,#179,.T.);
#226=ORIENTED_EDGE('',*,*,#178,.T.);
#227=ORIENTED_EDGE('',*,*,#180,.F.);
#228=ORIENTED_EDGE('',*,*,#181,.F.);
#229=ORIENTED_EDGE('',*,*,#182,.T.);
#230=ORIENTED_EDGE('',*,*,#181,.T.);
#231=ORIENTED_EDGE('',*,*,#183,.F.);
#232=ORIENTED_EDGE('',*,*,#184,.F.);
#233=ORIENTED_EDGE('',*,*,#185,.T.);
#234=ORIENTED_EDGE('',*,*,#184,.T.);
#235=ORIENTED_EDGE('',*,*,#186,.F.);
#236=ORIENTED_EDGE('',*,*,#187,.F.);
#237=ORIENTED_EDGE('',*,*,#188,.T.);
#238=ORIENTED_EDGE('',*,*,#187,.T.);
#239=ORIENTED_EDGE('',*,*,#189,.F.);
#240=ORIENTED_EDGE('',*,*,#190,.F.);
#241=ORIENTED_EDGE('',*,*,#191,.T.);
#242=ORIENTED_EDGE('',*,*,#190,.T.);
#243=ORIENTED_EDGE('',*,*,#192,.F.);
#244=ORIENTED_EDGE('',*,*,#170,.F.);
#245=ORIENTED_EDGE('',*,*,#193,.F.);
#246=ORIENTED_EDGE('',*,*,#194,.T.);
#247=ORIENTED_EDGE('',*,*,#195,.F.);
#248=ORIENTED_EDGE('',*,*,#196,.F.);
#249=ORIENTED_EDGE('',*,*,#197,.T.);
#250=ORIENTED_EDGE('',*,*,#196,.T.);
#251=ORIENTED_EDGE('',*,*,#198,.F.);
#252=ORIENTED_EDGE('',*,*,#199,.F.);
#253=ORIENTED_EDGE('',*,*,#200,.F.);
#254=ORIENTED_EDGE('',*,*,#199,.T.);
#255=ORIENTED_EDGE('',*,*,#201,.F.);
#256=ORIENTED_EDGE('',*,*,#202,.F.);
#257=ORIENTED_EDGE('',*,*,#203,.T.);
#258=ORIENTED_EDGE('',*,*,#202,.T.);
#259=ORIENTED_EDGE('',*,*,#204,.F.);
#260=ORIENTED_EDGE('',*,*,#194,.F.);
#261=ORIENTED_EDGE('',*,*,#204,.T.);
#262=ORIENTED_EDGE('',*,*,#201,.T.);
#263=ORIENTED_EDGE('',*,*,#198,.T.);
#264=ORIENTED_EDGE('',*,*,#195,.T.);
#265=ORIENTED_EDGE('',*,*,#192,.T.);
#266=ORIENTED_EDGE('',*,*,#189,.T.);
#267=ORIENTED_EDGE('',*,*,#186,.T.);
#268=ORIENTED_EDGE('',*,*,#183,.T.);
#269=ORIENTED_EDGE('',*,*,#180,.T.);
#270=ORIENTED_EDGE('',*,*,#177,.T.);
#271=ORIENTED_EDGE('',*,*,#174,.T.);
#272=ORIENTED_EDGE('',*,*,#171,.T.);
#273=ORIENTED_EDGE('',*,*,#166,.T.);
#274=ORIENTED_EDGE('',*,*,#163,.T.);
#275=ORIENTED_EDGE('',*,*,#203,.F.);
#276=ORIENTED_EDGE('',*,*,#193,.T.);
#277=ORIENTED_EDGE('',*,*,#197,.F.);
#278=ORIENTED_EDGE('',*,*,#200,.T.);
#279=ORIENTED_EDGE('',*,*,#191,.F.);
#280=ORIENTED_EDGE('',*,*,#169,.F.);
#281=ORIENTED_EDGE('',*,*,#173,.F.);
#282=ORIENTED_EDGE('',*,*,#176,.F.);
#283=ORIENTED_EDGE('',*,*,#179,.F.);
#284=ORIENTED_EDGE('',*,*,#182,.F.);
#285=ORIENTED_EDGE('',*,*,#185,.F.);
#286=ORIENTED_EDGE('',*,*,#188,.F.);
#287=ORIENTED_EDGE('',*,*,#168,.F.);
#288=ORIENTED_EDGE('',*,*,#165,.F.);
#289=CYLINDRICAL_SURFACE('',#327,2.99999999999999);
#290=CYLINDRICAL_SURFACE('',#330,3.);
#291=CYLINDRICAL_SURFACE('',#334,1.00000001490116);
#292=CYLINDRICAL_SURFACE('',#338,1.00000001490116);
#293=CYLINDRICAL_SURFACE('',#342,1.00000001490116);
#294=CYLINDRICAL_SURFACE('',#346,1.00000001490116);
#295=CYLINDRICAL_SURFACE('',#350,12.0001337208052);
#296=CYLINDRICAL_SURFACE('',#354,12.);
#297=ADVANCED_FACE('',(#29),#289,.F.);
#298=ADVANCED_FACE('',(#30),#290,.F.);
#299=ADVANCED_FACE('',(#31),#21,.T.);
#300=ADVANCED_FACE('',(#32),#291,.F.);
#301=ADVANCED_FACE('',(#33),#22,.T.);
#302=ADVANCED_FACE('',(#34),#292,.F.);
#303=ADVANCED_FACE('',(#35),#23,.T.);
#304=ADVANCED_FACE('',(#36),#293,.F.);
#305=ADVANCED_FACE('',(#37),#24,.T.);
#306=ADVANCED_FACE('',(#38),#294,.F.);
#307=ADVANCED_FACE('',(#39),#25,.T.);
#308=ADVANCED_FACE('',(#40),#295,.T.);
#309=ADVANCED_FACE('',(#41),#26,.T.);
#310=ADVANCED_FACE('',(#42),#296,.T.);
#311=ADVANCED_FACE('',(#43,#15,#16,#17),#27,.T.);
#312=ADVANCED_FACE('',(#44,#18,#19,#20),#28,.F.);
#313=CLOSED_SHELL('',(#297,#298,#299,#300,#301,#302,#303,#304,#305,#306,
#307,#308,#309,#310,#311,#312));
#314=DERIVED_UNIT_ELEMENT(#316,1.);
#315=DERIVED_UNIT_ELEMENT(#543,-3.);
#316=(
MASS_UNIT()
NAMED_UNIT(*)
SI_UNIT(.KILO.,.GRAM.)
);
#317=DERIVED_UNIT((#314,#315));
#318=MEASURE_REPRESENTATION_ITEM('density measure',
POSITIVE_RATIO_MEASURE(7850.),#317);
#319=PROPERTY_DEFINITION_REPRESENTATION(#324,#321);
#320=PROPERTY_DEFINITION_REPRESENTATION(#325,#322);
#321=REPRESENTATION('material name',(#323),#540);
#322=REPRESENTATION('density',(#318),#540);
#323=DESCRIPTIVE_REPRESENTATION_ITEM('Acier','Acier');
#324=PROPERTY_DEFINITION('material property','material name',#550);
#325=PROPERTY_DEFINITION('material property','density of part',#550);
#326=AXIS2_PLACEMENT_3D('placement',#451,#359,#360);
#327=AXIS2_PLACEMENT_3D('',#452,#361,#362);
#328=AXIS2_PLACEMENT_3D('',#454,#363,#364);
#329=AXIS2_PLACEMENT_3D('',#457,#366,#367);
#330=AXIS2_PLACEMENT_3D('',#458,#368,#369);
#331=AXIS2_PLACEMENT_3D('',#460,#370,#371);
#332=AXIS2_PLACEMENT_3D('',#463,#373,#374);
#333=AXIS2_PLACEMENT_3D('',#464,#375,#376);
#334=AXIS2_PLACEMENT_3D('',#473,#381,#382);
#335=AXIS2_PLACEMENT_3D('',#475,#383,#384);
#336=AXIS2_PLACEMENT_3D('',#477,#385,#386);
#337=AXIS2_PLACEMENT_3D('',#479,#388,#389);
#338=AXIS2_PLACEMENT_3D('',#485,#393,#394);
#339=AXIS2_PLACEMENT_3D('',#487,#395,#396);
#340=AXIS2_PLACEMENT_3D('',#489,#397,#398);
#341=AXIS2_PLACEMENT_3D('',#491,#400,#401);
#342=AXIS2_PLACEMENT_3D('',#497,#405,#406);
#343=AXIS2_PLACEMENT_3D('',#499,#407,#408);
#344=AXIS2_PLACEMENT_3D('',#501,#409,#410);
#345=AXIS2_PLACEMENT_3D('',#503,#412,#413);
#346=AXIS2_PLACEMENT_3D('',#509,#417,#418);
#347=AXIS2_PLACEMENT_3D('',#510,#419,#420);
#348=AXIS2_PLACEMENT_3D('',#511,#421,#422);
#349=AXIS2_PLACEMENT_3D('',#512,#423,#424);
#350=AXIS2_PLACEMENT_3D('',#521,#429,#430);
#351=AXIS2_PLACEMENT_3D('',#523,#431,#432);
#352=AXIS2_PLACEMENT_3D('',#525,#433,#434);
#353=AXIS2_PLACEMENT_3D('',#527,#436,#437);
#354=AXIS2_PLACEMENT_3D('',#533,#441,#442);
#355=AXIS2_PLACEMENT_3D('',#534,#443,#444);
#356=AXIS2_PLACEMENT_3D('',#535,#445,#446);
#357=AXIS2_PLACEMENT_3D('',#536,#447,#448);
#358=AXIS2_PLACEMENT_3D('',#537,#449,#450);
#359=DIRECTION('axis',(0.,0.,1.));
#360=DIRECTION('refdir',(1.,0.,0.));
#361=DIRECTION('center_axis',(1.,0.,0.));
#362=DIRECTION('ref_axis',(0.,1.,0.));
#363=DIRECTION('center_axis',(-1.,0.,0.));
#364=DIRECTION('ref_axis',(0.,1.,0.));
#365=DIRECTION('',(-1.,0.,0.));
#366=DIRECTION('center_axis',(-1.,0.,0.));
#367=DIRECTION('ref_axis',(0.,1.,0.));
#368=DIRECTION('center_axis',(1.,0.,0.));
#369=DIRECTION('ref_axis',(0.,1.,0.));
#370=DIRECTION('center_axis',(-1.,0.,0.));
#371=DIRECTION('ref_axis',(0.,1.,0.));
#372=DIRECTION('',(-1.,0.,0.));
#373=DIRECTION('center_axis',(-1.,0.,0.));
#374=DIRECTION('ref_axis',(0.,1.,0.));
#375=DIRECTION('center_axis',(0.,0.,-1.));
#376=DIRECTION('ref_axis',(0.,1.,0.));
#377=DIRECTION('',(0.,1.,0.));
#378=DIRECTION('',(1.,0.,0.));
#379=DIRECTION('',(0.,1.,0.));
#380=DIRECTION('',(1.,0.,0.));
#381=DIRECTION('center_axis',(1.,0.,0.));
#382=DIRECTION('ref_axis',(0.,0.,1.));
#383=DIRECTION('center_axis',(-1.,0.,0.));
#384=DIRECTION('ref_axis',(0.,0.,1.));
#385=DIRECTION('center_axis',(-1.,0.,0.));
#386=DIRECTION('ref_axis',(0.,0.,1.));
#387=DIRECTION('',(1.,0.,0.));
#388=DIRECTION('center_axis',(0.,1.,0.));
#389=DIRECTION('ref_axis',(0.,0.,1.));
#390=DIRECTION('',(0.,0.,1.));
#391=DIRECTION('',(0.,0.,1.));
#392=DIRECTION('',(1.,0.,0.));
#393=DIRECTION('center_axis',(1.,0.,0.));
#394=DIRECTION('ref_axis',(0.,-0.999443530936879,0.0333560859278222));
#395=DIRECTION('center_axis',(-1.,0.,0.));
#396=DIRECTION('ref_axis',(0.,-0.999443530936879,0.0333560859278222));
#397=DIRECTION('center_axis',(-1.,0.,0.));
#398=DIRECTION('ref_axis',(0.,-0.999443530936879,0.0333560859278222));
#399=DIRECTION('',(1.,0.,0.));
#400=DIRECTION('center_axis',(0.,0.,1.));
#401=DIRECTION('ref_axis',(0.,-1.,0.));
#402=DIRECTION('',(0.,-1.,0.));
#403=DIRECTION('',(0.,-1.,0.));
#404=DIRECTION('',(1.,0.,0.));
#405=DIRECTION('center_axis',(1.,0.,0.));
#406=DIRECTION('ref_axis',(0.,0.,-1.));
#407=DIRECTION('center_axis',(-1.,0.,0.));
#408=DIRECTION('ref_axis',(0.,0.,-1.));
#409=DIRECTION('center_axis',(-1.,0.,0.));
#410=DIRECTION('ref_axis',(0.,0.,-1.));
#411=DIRECTION('',(1.,0.,0.));
#412=DIRECTION('center_axis',(0.,-1.,0.));
#413=DIRECTION('ref_axis',(0.,0.,-1.));
#414=DIRECTION('',(0.,0.,-1.));
#415=DIRECTION('',(0.,0.,-1.));
#416=DIRECTION('',(1.,0.,0.));
#417=DIRECTION('center_axis',(1.,0.,0.));
#418=DIRECTION('ref_axis',(0.,1.,0.));
#419=DIRECTION('center_axis',(-1.,0.,0.));
#420=DIRECTION('ref_axis',(0.,1.,0.));
#421=DIRECTION('center_axis',(-1.,0.,0.));
#422=DIRECTION('ref_axis',(0.,1.,0.));
#423=DIRECTION('center_axis',(0.,0.,-1.));
#424=DIRECTION('ref_axis',(0.,1.,0.));
#425=DIRECTION('',(0.,-1.,0.));
#426=DIRECTION('',(1.,0.,0.));
#427=DIRECTION('',(0.,1.,0.));
#428=DIRECTION('',(1.,0.,0.));
#429=DIRECTION('center_axis',(1.,0.,0.));
#430=DIRECTION('ref_axis',(0.,-0.00667627203885241,0.999977713447486));
#431=DIRECTION('center_axis',(1.,0.,0.));
#432=DIRECTION('ref_axis',(0.,-0.00667627203885241,0.999977713447486));
#433=DIRECTION('center_axis',(1.,0.,0.));
#434=DIRECTION('ref_axis',(0.,-0.00667627203885241,0.999977713447486));
#435=DIRECTION('',(1.,0.,0.));
#436=DIRECTION('center_axis',(0.,3.49459164879292E-17,1.));
#437=DIRECTION('ref_axis',(0.,-1.,3.49459164879292E-17));
#438=DIRECTION('',(0.,1.,-3.49459164879292E-17));
#439=DIRECTION('',(0.,-1.,3.49459164879292E-17));
#440=DIRECTION('',(1.,0.,0.));
#441=DIRECTION('center_axis',(1.,0.,0.));
#442=DIRECTION('ref_axis',(0.,0.,-1.));
#443=DIRECTION('center_axis',(1.,0.,0.));
#444=DIRECTION('ref_axis',(0.,0.,-1.));
#445=DIRECTION('center_axis',(1.,0.,0.));
#446=DIRECTION('ref_axis',(0.,0.,-1.));
#447=DIRECTION('center_axis',(1.,0.,0.));
#448=DIRECTION('ref_axis',(0.,1.,0.));
#449=DIRECTION('center_axis',(1.,0.,0.));
#450=DIRECTION('ref_axis',(0.,1.,0.));
#451=CARTESIAN_POINT('',(0.,0.,0.));
#452=CARTESIAN_POINT('Origin',(0.,127.000000819564,3.99999984409147));
#453=CARTESIAN_POINT('',(2.,124.000000819564,3.99999984409146));
#454=CARTESIAN_POINT('Origin',(2.,127.000000819564,3.99999984409147));
#455=CARTESIAN_POINT('',(0.,124.000000819564,3.99999984409146));
#456=CARTESIAN_POINT('',(0.,124.000000819564,3.99999984409146));
#457=CARTESIAN_POINT('Origin',(0.,127.000000819564,3.99999984409147));
#458=CARTESIAN_POINT('Origin',(0.,0.,0.));
#459=CARTESIAN_POINT('',(2.,-3.,0.));
#460=CARTESIAN_POINT('Origin',(2.,0.,0.));
#461=CARTESIAN_POINT('',(0.,-3.,-3.67394039744206E-16));
#462=CARTESIAN_POINT('',(0.,-3.,-3.67394039744206E-16));
#463=CARTESIAN_POINT('Origin',(0.,0.,0.));
#464=CARTESIAN_POINT('Origin',(0.,20.9994444548006,5.50000008940697));
#465=CARTESIAN_POINT('',(0.,20.9994444548006,5.50000008940697));
#466=CARTESIAN_POINT('',(0.,59.0000008940697,5.50000008940697));
#467=CARTESIAN_POINT('',(0.,20.9994444548006,5.50000008940697));
#468=CARTESIAN_POINT('',(2.,59.0000008940697,5.50000008940697));
#469=CARTESIAN_POINT('',(0.,59.0000008940697,5.50000008940697));
#470=CARTESIAN_POINT('',(2.,20.9994444548006,5.50000008940697));
#471=CARTESIAN_POINT('',(2.,20.9994444548006,5.50000008940697));
#472=CARTESIAN_POINT('',(0.,20.9994444548006,5.50000008940697));
#473=CARTESIAN_POINT('Origin',(0.,20.9994444548006,4.50000007450581));
#474=CARTESIAN_POINT('',(0.,20.0000009089708,4.53335616093067));
#475=CARTESIAN_POINT('Origin',(0.,20.9994444548006,4.50000007450581));
#476=CARTESIAN_POINT('',(2.,20.0000009089708,4.53335616093067));
#477=CARTESIAN_POINT('Origin',(2.,20.9994444548006,4.50000007450581));
#478=CARTESIAN_POINT('',(0.,20.0000009089708,4.53335616093067));
#479=CARTESIAN_POINT('Origin',(0.,20.0000009089708,-4.46664398808094));
#480=CARTESIAN_POINT('',(0.,20.0000009089708,-4.46664398808094));
#481=CARTESIAN_POINT('',(0.,20.0000009089708,-4.46664398808094));
#482=CARTESIAN_POINT('',(2.,20.0000009089708,-4.46664398808094));
#483=CARTESIAN_POINT('',(2.,20.0000009089708,-4.46664398808094));
#484=CARTESIAN_POINT('',(0.,20.0000009089708,-4.46664398808094));
#485=CARTESIAN_POINT('Origin',(0.,20.9994444548006,-4.50000007450581));
#486=CARTESIAN_POINT('',(0.,20.9994444548006,-5.50000008940697));
#487=CARTESIAN_POINT('Origin',(0.,20.9994444548006,-4.50000007450581));
#488=CARTESIAN_POINT('',(2.,20.9994444548006,-5.50000008940697));
#489=CARTESIAN_POINT('Origin',(2.,20.9994444548006,-4.50000007450581));
#490=CARTESIAN_POINT('',(0.,20.9994444548006,-5.50000008940697));
#491=CARTESIAN_POINT('Origin',(0.,59.0000008940697,-5.50000008940697));
#492=CARTESIAN_POINT('',(0.,59.0000008940697,-5.50000008940697));
#493=CARTESIAN_POINT('',(0.,59.0000008940697,-5.50000008940697));
#494=CARTESIAN_POINT('',(2.,59.0000008940697,-5.50000008940697));
#495=CARTESIAN_POINT('',(2.,59.0000008940697,-5.50000008940697));
#496=CARTESIAN_POINT('',(0.,59.0000008940697,-5.50000008940697));
#497=CARTESIAN_POINT('Origin',(0.,59.0000008940697,-4.50000007450581));
#498=CARTESIAN_POINT('',(0.,60.0000009089708,-4.50000007450581));
#499=CARTESIAN_POINT('Origin',(0.,59.0000008940697,-4.50000007450581));
#500=CARTESIAN_POINT('',(2.,60.0000009089708,-4.50000007450581));
#501=CARTESIAN_POINT('Origin',(2.,59.0000008940697,-4.50000007450581));
#502=CARTESIAN_POINT('',(0.,60.0000009089708,-4.50000007450581));
#503=CARTESIAN_POINT('Origin',(0.,60.0000009089708,4.50000007450581));
#504=CARTESIAN_POINT('',(0.,60.0000009089708,4.50000007450581));
#505=CARTESIAN_POINT('',(0.,60.0000009089708,4.50000007450581));
#506=CARTESIAN_POINT('',(2.,60.0000009089708,4.50000007450581));
#507=CARTESIAN_POINT('',(2.,60.0000009089708,4.50000007450581));
#508=CARTESIAN_POINT('',(0.,60.0000009089708,4.50000007450581));
#509=CARTESIAN_POINT('Origin',(0.,59.0000008940697,4.50000007450581));
#510=CARTESIAN_POINT('Origin',(0.,59.0000008940697,4.50000007450581));
#511=CARTESIAN_POINT('Origin',(2.,59.0000008940697,4.50000007450581));
#512=CARTESIAN_POINT('Origin',(0.,8.19563901188758E-7,-12.));
#513=CARTESIAN_POINT('',(0.,126.998884007932,-12.));
#514=CARTESIAN_POINT('',(0.,8.19563907520499E-7,-12.));
#515=CARTESIAN_POINT('',(0.,126.998884007932,-12.));
#516=CARTESIAN_POINT('',(2.,126.998884007932,-12.));
#517=CARTESIAN_POINT('',(0.,126.998884007932,-12.));
#518=CARTESIAN_POINT('',(2.,8.19563910070542E-7,-12.));
#519=CARTESIAN_POINT('',(2.,126.998884007932,-12.));
#520=CARTESIAN_POINT('',(0.,8.19563907520499E-7,-12.));
#521=CARTESIAN_POINT('Origin',(0.,8.19563874543405E-7,0.000133720805166539));
#522=CARTESIAN_POINT('',(0.,-0.080115337658827,12.));
#523=CARTESIAN_POINT('Origin',(0.,8.19563874543405E-7,0.000133720805166539));
#524=CARTESIAN_POINT('',(2.,-0.0801153376588282,12.));
#525=CARTESIAN_POINT('Origin',(2.,8.19563874543405E-7,0.000133720805166539));
#526=CARTESIAN_POINT('',(0.,-0.080115337658827,12.));
#527=CARTESIAN_POINT('Origin',(0.,126.998884007932,12.));
#528=CARTESIAN_POINT('',(0.,126.998884007932,12.));
#529=CARTESIAN_POINT('',(0.,-0.080115337658827,12.));
#530=CARTESIAN_POINT('',(2.,126.998884007932,12.));
#531=CARTESIAN_POINT('',(2.,-0.080115337658827,12.));
#532=CARTESIAN_POINT('',(0.,126.998884007932,12.));
#533=CARTESIAN_POINT('Origin',(0.,126.998884007932,-4.50619933524328E-15));
#534=CARTESIAN_POINT('Origin',(0.,126.998884007932,-4.50619933524328E-15));
#535=CARTESIAN_POINT('Origin',(2.,126.998884007932,-4.50619933524328E-15));
#536=CARTESIAN_POINT('Origin',(2.,63.4993755533454,-2.22044604925031E-15));
#537=CARTESIAN_POINT('Origin',(0.,63.4993755533454,-2.22044604925031E-15));
#538=UNCERTAINTY_MEASURE_WITH_UNIT(LENGTH_MEASURE(0.01),#542,
'DISTANCE_ACCURACY_VALUE',
'Maximum model space distance between geometric entities at asserted c
onnectivities');
#539=UNCERTAINTY_MEASURE_WITH_UNIT(LENGTH_MEASURE(0.01),#542,
'DISTANCE_ACCURACY_VALUE',
'Maximum model space distance between geometric entities at asserted c
onnectivities');
#540=(
GEOMETRIC_REPRESENTATION_CONTEXT(3)
GLOBAL_UNCERTAINTY_ASSIGNED_CONTEXT((#538))
GLOBAL_UNIT_ASSIGNED_CONTEXT((#542,#544,#545))
REPRESENTATION_CONTEXT('','3D')
);
#541=(
GEOMETRIC_REPRESENTATION_CONTEXT(3)
GLOBAL_UNCERTAINTY_ASSIGNED_CONTEXT((#539))
GLOBAL_UNIT_ASSIGNED_CONTEXT((#542,#544,#545))
REPRESENTATION_CONTEXT('','3D')
);
#542=(
LENGTH_UNIT()
NAMED_UNIT(*)
SI_UNIT(.MILLI.,.METRE.)
);
#543=(
LENGTH_UNIT()
NAMED_UNIT(*)
SI_UNIT($,.METRE.)
);
#544=(
NAMED_UNIT(*)
PLANE_ANGLE_UNIT()
SI_UNIT($,.RADIAN.)
);
#545=(
NAMED_UNIT(*)
SI_UNIT($,.STERADIAN.)
SOLID_ANGLE_UNIT()
);
#546=SHAPE_DEFINITION_REPRESENTATION(#547,#548);
#547=PRODUCT_DEFINITION_SHAPE('',$,#550);
#548=SHAPE_REPRESENTATION('',(#326),#540);
#549=PRODUCT_DEFINITION_CONTEXT('part definition',#554,'design');
#550=PRODUCT_DEFINITION('(Non enregistr\X\E9)','(Non enregistr\X\E9)',#551,
#549);
#551=PRODUCT_DEFINITION_FORMATION('',$,#556);
#552=PRODUCT_RELATED_PRODUCT_CATEGORY('(Non enregistr\X\E9)',
'(Non enregistr\X\E9)',(#556));
#553=APPLICATION_PROTOCOL_DEFINITION('international standard',
'automotive_design',2009,#554);
#554=APPLICATION_CONTEXT(
'Core Data for Automotive Mechanical Design Process');
#555=PRODUCT_CONTEXT('part definition',#554,'mechanical');
#556=PRODUCT('(Non enregistr\X\E9)','(Non enregistr\X\E9)',$,(#555));
#557=PRESENTATION_STYLE_ASSIGNMENT((#558));
#558=SURFACE_STYLE_USAGE(.BOTH.,#559);
#559=SURFACE_SIDE_STYLE('',(#560));
#560=SURFACE_STYLE_FILL_AREA(#561);
#561=FILL_AREA_STYLE('Acier - Satin\X\E9',(#562));
#562=FILL_AREA_STYLE_COLOUR('Acier - Satin\X\E9',#563);
#563=COLOUR_RGB('Acier - Satin\X\E9',0.627450980392157,0.627450980392157,
0.627450980392157);
ENDSEC;
END-ISO-10303-21;
