ISO-10303-21;
HEADER;
FILE_DESCRIPTION((''),'2;1');
FILE_NAME('FC0002','2022-11-22T10:39:59',('cf72119'),(''),
'CREO PARAMETRIC BY PTC INC, 2021072','CREO PARAMETRIC BY PTC INC, 2021072','');
FILE_SCHEMA(('AUTOMOTIVE_DESIGN { 1 0 10303 214 1 1 1 1 }'));
ENDSEC;
DATA;
#37=CARTESIAN_POINT('',(0.E0,1.6E1,0.E0));
#38=DIRECTION('',(0.E0,-1.E0,0.E0));
#39=DIRECTION('',(0.E0,0.E0,-1.E0));
#40=AXIS2_PLACEMENT_3D('',#37,#38,#39);
#42=DIRECTION('',(0.E0,-8.660254037844E-1,5.E-1));
#43=VECTOR('',#42,6.E0);
#44=CARTESIAN_POINT('',(0.E0,1.6E1,-9.25E0));
#45=LINE('',#44,#43);
#46=DIRECTION('',(0.E0,-8.660254037844E-1,-5.E-1));
#47=VECTOR('',#46,6.E0);
#48=CARTESIAN_POINT('',(0.E0,1.6E1,9.25E0));
#49=LINE('',#48,#47);
#50=CARTESIAN_POINT('',(0.E0,1.6E1,0.E0));
#51=DIRECTION('',(0.E0,1.E0,0.E0));
#52=DIRECTION('',(0.E0,0.E0,-1.E0));
#53=AXIS2_PLACEMENT_3D('',#50,#51,#52);
#55=DIRECTION('',(0.E0,-1.E0,0.E0));
#56=VECTOR('',#55,1.080384757729E1);
#57=CARTESIAN_POINT('',(0.E0,1.080384757729E1,-6.25E0));
#58=LINE('',#57,#56);
#59=DIRECTION('',(0.E0,-1.E0,0.E0));
#60=VECTOR('',#59,1.080384757729E1);
#61=CARTESIAN_POINT('',(0.E0,1.080384757729E1,6.25E0));
#62=LINE('',#61,#60);
#63=CARTESIAN_POINT('',(0.E0,1.080384757729E1,0.E0));
#64=DIRECTION('',(0.E0,1.E0,0.E0));
#65=DIRECTION('',(0.E0,0.E0,-1.E0));
#66=AXIS2_PLACEMENT_3D('',#63,#64,#65);
#68=CARTESIAN_POINT('',(0.E0,1.080384757729E1,0.E0));
#69=DIRECTION('',(0.E0,-1.E0,0.E0));
#70=DIRECTION('',(0.E0,0.E0,-1.E0));
#71=AXIS2_PLACEMENT_3D('',#68,#69,#70);
#73=CARTESIAN_POINT('',(0.E0,0.E0,0.E0));
#74=DIRECTION('',(0.E0,1.E0,0.E0));
#75=DIRECTION('',(0.E0,0.E0,-1.E0));
#76=AXIS2_PLACEMENT_3D('',#73,#74,#75);
#78=CARTESIAN_POINT('',(0.E0,0.E0,0.E0));
#79=DIRECTION('',(0.E0,-1.E0,0.E0));
#80=DIRECTION('',(0.E0,0.E0,-1.E0));
#81=AXIS2_PLACEMENT_3D('',#78,#79,#80);
#83=CARTESIAN_POINT('',(0.E0,0.E0,0.E0));
#84=DIRECTION('',(0.E0,-1.E0,0.E0));
#85=DIRECTION('',(0.E0,0.E0,-1.E0));
#86=AXIS2_PLACEMENT_3D('',#83,#84,#85);
#88=DIRECTION('',(0.E0,1.E0,0.E0));
#89=VECTOR('',#88,1.E1);
#90=CARTESIAN_POINT('',(0.E0,0.E0,-9.475E0));
#91=LINE('',#90,#89);
#92=DIRECTION('',(0.E0,1.E0,0.E0));
#93=VECTOR('',#92,1.E1);
#94=CARTESIAN_POINT('',(0.E0,0.E0,9.475E0));
#95=LINE('',#94,#93);
#96=CARTESIAN_POINT('',(0.E0,0.E0,0.E0));
#97=DIRECTION('',(0.E0,1.E0,0.E0));
#98=DIRECTION('',(0.E0,0.E0,-1.E0));
#99=AXIS2_PLACEMENT_3D('',#96,#97,#98);
#101=CARTESIAN_POINT('',(0.E0,1.E1,0.E0));
#102=DIRECTION('',(0.E0,1.E0,0.E0));
#103=DIRECTION('',(0.E0,0.E0,-1.E0));
#104=AXIS2_PLACEMENT_3D('',#101,#102,#103);
#106=CARTESIAN_POINT('',(0.E0,1.E1,0.E0));
#107=DIRECTION('',(0.E0,-1.E0,0.E0));
#108=DIRECTION('',(0.E0,0.E0,-1.E0));
#109=AXIS2_PLACEMENT_3D('',#106,#107,#108);
#111=CARTESIAN_POINT('',(0.E0,1.E1,0.E0));
#112=DIRECTION('',(0.E0,-1.E0,0.E0));
#113=DIRECTION('',(0.E0,0.E0,-1.E0));
#114=AXIS2_PLACEMENT_3D('',#111,#112,#113);
#116=DIRECTION('',(0.E0,1.E0,0.E0));
#117=VECTOR('',#116,6.E0);
#118=CARTESIAN_POINT('',(0.E0,1.E1,-1.5E1));
#119=LINE('',#118,#117);
#120=DIRECTION('',(0.E0,1.E0,0.E0));
#121=VECTOR('',#120,6.E0);
#122=CARTESIAN_POINT('',(0.E0,1.E1,1.5E1));
#123=LINE('',#122,#121);
#124=CARTESIAN_POINT('',(0.E0,1.E1,0.E0));
#125=DIRECTION('',(0.E0,1.E0,0.E0));
#126=DIRECTION('',(0.E0,0.E0,-1.E0));
#127=AXIS2_PLACEMENT_3D('',#124,#125,#126);
#129=CARTESIAN_POINT('',(0.E0,1.6E1,0.E0));
#130=DIRECTION('',(0.E0,1.E0,0.E0));
#131=DIRECTION('',(0.E0,0.E0,-1.E0));
#132=AXIS2_PLACEMENT_3D('',#129,#130,#131);
#134=CARTESIAN_POINT('',(0.E0,1.6E1,0.E0));
#135=DIRECTION('',(0.E0,-1.E0,0.E0));
#136=DIRECTION('',(0.E0,0.E0,-1.E0));
#137=AXIS2_PLACEMENT_3D('',#134,#135,#136);
#139=CARTESIAN_POINT('',(0.E0,1.6E1,-9.25E0));
#140=CARTESIAN_POINT('',(0.E0,1.080384757729E1,-6.25E0));
#141=VERTEX_POINT('',#139);
#142=VERTEX_POINT('',#140);
#143=CARTESIAN_POINT('',(0.E0,0.E0,-6.25E0));
#144=VERTEX_POINT('',#143);
#145=CARTESIAN_POINT('',(0.E0,0.E0,-9.475E0));
#146=CARTESIAN_POINT('',(0.E0,1.E1,-9.475E0));
#147=VERTEX_POINT('',#145);
#148=VERTEX_POINT('',#146);
#149=CARTESIAN_POINT('',(0.E0,1.E1,-1.5E1));
#150=CARTESIAN_POINT('',(0.E0,1.6E1,-1.5E1));
#151=VERTEX_POINT('',#149);
#152=VERTEX_POINT('',#150);
#153=CARTESIAN_POINT('',(0.E0,1.6E1,9.25E0));
#154=CARTESIAN_POINT('',(0.E0,1.080384757729E1,6.25E0));
#155=VERTEX_POINT('',#153);
#156=VERTEX_POINT('',#154);
#157=CARTESIAN_POINT('',(0.E0,0.E0,6.25E0));
#158=VERTEX_POINT('',#157);
#159=CARTESIAN_POINT('',(0.E0,0.E0,9.475E0));
#160=CARTESIAN_POINT('',(0.E0,1.E1,9.475E0));
#161=VERTEX_POINT('',#159);
#162=VERTEX_POINT('',#160);
#163=CARTESIAN_POINT('',(0.E0,1.E1,1.5E1));
#164=CARTESIAN_POINT('',(0.E0,1.6E1,1.5E1));
#165=VERTEX_POINT('',#163);
#166=VERTEX_POINT('',#164);
#167=CARTESIAN_POINT('',(0.E0,1.340192378865E1,0.E0));
#168=DIRECTION('',(0.E0,1.E0,0.E0));
#169=DIRECTION('',(0.E0,0.E0,-1.E0));
#170=AXIS2_PLACEMENT_3D('',#167,#168,#169);
#171=CONICAL_SURFACE('',#170,7.75E0,3.E1);
#173=ORIENTED_EDGE('',*,*,#172,.F.);
#175=ORIENTED_EDGE('',*,*,#174,.T.);
#177=ORIENTED_EDGE('',*,*,#176,.T.);
#179=ORIENTED_EDGE('',*,*,#178,.F.);
#180=EDGE_LOOP('',(#173,#175,#177,#179));
#181=FACE_OUTER_BOUND('',#180,.F.);
#183=CARTESIAN_POINT('',(0.E0,1.340192378865E1,0.E0));
#184=DIRECTION('',(0.E0,1.E0,0.E0));
#185=DIRECTION('',(0.E0,0.E0,-1.E0));
#186=AXIS2_PLACEMENT_3D('',#183,#184,#185);
#187=CONICAL_SURFACE('',#186,7.75E0,3.E1);
#188=ORIENTED_EDGE('',*,*,#172,.T.);
#190=ORIENTED_EDGE('',*,*,#189,.T.);
#191=ORIENTED_EDGE('',*,*,#176,.F.);
#193=ORIENTED_EDGE('',*,*,#192,.F.);
#194=EDGE_LOOP('',(#188,#190,#191,#193));
#195=FACE_OUTER_BOUND('',#194,.F.);
#197=CARTESIAN_POINT('',(0.E0,1.816399001096E1,0.E0));
#198=DIRECTION('',(0.E0,-1.E0,0.E0));
#199=DIRECTION('',(0.E0,0.E0,1.E0));
#200=AXIS2_PLACEMENT_3D('',#197,#198,#199);
#201=CYLINDRICAL_SURFACE('',#200,6.25E0);
#203=ORIENTED_EDGE('',*,*,#202,.T.);
#205=ORIENTED_EDGE('',*,*,#204,.T.);
#207=ORIENTED_EDGE('',*,*,#206,.F.);
#208=ORIENTED_EDGE('',*,*,#189,.F.);
#209=EDGE_LOOP('',(#203,#205,#207,#208));
#210=FACE_OUTER_BOUND('',#209,.F.);
#212=CARTESIAN_POINT('',(0.E0,1.816399001096E1,0.E0));
#213=DIRECTION('',(0.E0,-1.E0,0.E0));
#214=DIRECTION('',(0.E0,0.E0,1.E0));
#215=AXIS2_PLACEMENT_3D('',#212,#213,#214);
#216=CYLINDRICAL_SURFACE('',#215,6.25E0);
#217=ORIENTED_EDGE('',*,*,#202,.F.);
#218=ORIENTED_EDGE('',*,*,#178,.T.);
#219=ORIENTED_EDGE('',*,*,#206,.T.);
#221=ORIENTED_EDGE('',*,*,#220,.F.);
#222=EDGE_LOOP('',(#217,#218,#219,#221));
#223=FACE_OUTER_BOUND('',#222,.F.);
#225=CARTESIAN_POINT('',(0.E0,0.E0,0.E0));
#226=DIRECTION('',(0.E0,-1.E0,0.E0));
#227=DIRECTION('',(0.E0,0.E0,1.E0));
#228=AXIS2_PLACEMENT_3D('',#225,#226,#227);
#229=PLANE('',#228);
#231=ORIENTED_EDGE('',*,*,#230,.F.);
#233=ORIENTED_EDGE('',*,*,#232,.T.);
#234=EDGE_LOOP('',(#231,#233));
#235=FACE_OUTER_BOUND('',#234,.F.);
#236=ORIENTED_EDGE('',*,*,#204,.F.);
#237=ORIENTED_EDGE('',*,*,#220,.T.);
#238=EDGE_LOOP('',(#236,#237));
#239=FACE_BOUND('',#238,.F.);
#241=CARTESIAN_POINT('',(0.E0,1.816399001096E1,0.E0));
#242=DIRECTION('',(0.E0,-1.E0,0.E0));
#243=DIRECTION('',(0.E0,0.E0,1.E0));
#244=AXIS2_PLACEMENT_3D('',#241,#242,#243);
#245=CYLINDRICAL_SURFACE('',#244,9.475E0);
#247=ORIENTED_EDGE('',*,*,#246,.F.);
#248=ORIENTED_EDGE('',*,*,#230,.T.);
#250=ORIENTED_EDGE('',*,*,#249,.T.);
#252=ORIENTED_EDGE('',*,*,#251,.F.);
#253=EDGE_LOOP('',(#247,#248,#250,#252));
#254=FACE_OUTER_BOUND('',#253,.F.);
#256=CARTESIAN_POINT('',(0.E0,1.816399001096E1,0.E0));
#257=DIRECTION('',(0.E0,-1.E0,0.E0));
#258=DIRECTION('',(0.E0,0.E0,1.E0));
#259=AXIS2_PLACEMENT_3D('',#256,#257,#258);
#260=CYLINDRICAL_SURFACE('',#259,9.475E0);
#261=ORIENTED_EDGE('',*,*,#246,.T.);
#263=ORIENTED_EDGE('',*,*,#262,.T.);
#264=ORIENTED_EDGE('',*,*,#249,.F.);
#265=ORIENTED_EDGE('',*,*,#232,.F.);
#266=EDGE_LOOP('',(#261,#263,#264,#265));
#267=FACE_OUTER_BOUND('',#266,.F.);
#269=CARTESIAN_POINT('',(0.E0,1.E1,0.E0));
#270=DIRECTION('',(0.E0,-1.E0,0.E0));
#271=DIRECTION('',(0.E0,0.E0,1.E0));
#272=AXIS2_PLACEMENT_3D('',#269,#270,#271);
#273=PLANE('',#272);
#275=ORIENTED_EDGE('',*,*,#274,.F.);
#277=ORIENTED_EDGE('',*,*,#276,.T.);
#278=EDGE_LOOP('',(#275,#277));
#279=FACE_OUTER_BOUND('',#278,.F.);
#280=ORIENTED_EDGE('',*,*,#262,.F.);
#281=ORIENTED_EDGE('',*,*,#251,.T.);
#282=EDGE_LOOP('',(#280,#281));
#283=FACE_BOUND('',#282,.F.);
#285=CARTESIAN_POINT('',(0.E0,1.816399001096E1,0.E0));
#286=DIRECTION('',(0.E0,-1.E0,0.E0));
#287=DIRECTION('',(0.E0,0.E0,1.E0));
#288=AXIS2_PLACEMENT_3D('',#285,#286,#287);
#289=CYLINDRICAL_SURFACE('',#288,1.5E1);
#291=ORIENTED_EDGE('',*,*,#290,.F.);
#292=ORIENTED_EDGE('',*,*,#274,.T.);
#294=ORIENTED_EDGE('',*,*,#293,.T.);
#296=ORIENTED_EDGE('',*,*,#295,.F.);
#297=EDGE_LOOP('',(#291,#292,#294,#296));
#298=FACE_OUTER_BOUND('',#297,.F.);
#300=CARTESIAN_POINT('',(0.E0,1.816399001096E1,0.E0));
#301=DIRECTION('',(0.E0,-1.E0,0.E0));
#302=DIRECTION('',(0.E0,0.E0,1.E0));
#303=AXIS2_PLACEMENT_3D('',#300,#301,#302);
#304=CYLINDRICAL_SURFACE('',#303,1.5E1);
#305=ORIENTED_EDGE('',*,*,#290,.T.);
#307=ORIENTED_EDGE('',*,*,#306,.T.);
#308=ORIENTED_EDGE('',*,*,#293,.F.);
#309=ORIENTED_EDGE('',*,*,#276,.F.);
#310=EDGE_LOOP('',(#305,#307,#308,#309));
#311=FACE_OUTER_BOUND('',#310,.F.);
#313=CARTESIAN_POINT('',(0.E0,1.6E1,0.E0));
#314=DIRECTION('',(0.E0,-1.E0,0.E0));
#315=DIRECTION('',(0.E0,0.E0,1.E0));
#316=AXIS2_PLACEMENT_3D('',#313,#314,#315);
#317=PLANE('',#316);
#318=ORIENTED_EDGE('',*,*,#306,.F.);
#319=ORIENTED_EDGE('',*,*,#295,.T.);
#320=EDGE_LOOP('',(#318,#319));
#321=FACE_OUTER_BOUND('',#320,.F.);
#322=ORIENTED_EDGE('',*,*,#174,.F.);
#323=ORIENTED_EDGE('',*,*,#192,.T.);
#324=EDGE_LOOP('',(#322,#323));
#325=FACE_BOUND('',#324,.F.);
#331=PLANE_ANGLE_MEASURE_WITH_UNIT(PLANE_ANGLE_MEASURE(1.745329251994E-2),#330);
#332=(CONVERSION_BASED_UNIT('DEGREE',#331)NAMED_UNIT(*)PLANE_ANGLE_UNIT());
#334=UNCERTAINTY_MEASURE_WITH_UNIT(LENGTH_MEASURE(4.535128698500E-3),#329,
'distance_accuracy_value',
'Maximum model space distance between geometric entities at asserted connectivities');
#337=APPLICATION_CONTEXT('automotive_design');
#338=APPLICATION_PROTOCOL_DEFINITION('international standard',
'automotive_design',2001,#337);
#339=PRODUCT_DEFINITION_CONTEXT('part definition',#337,'design');
#340=PRODUCT_CONTEXT('',#337,'mechanical');
#341=PRODUCT('FC0002','FC0002','NOT SPECIFIED',(#340));
#342=PRODUCT_DEFINITION_FORMATION('1','LAST_VERSION',#341);
#350=DERIVED_UNIT_ELEMENT(#349,2.E0);
#351=DERIVED_UNIT((#350));
#352=MEASURE_REPRESENTATION_ITEM('surface area measure',AREA_MEASURE(
2.899448414189E3),#351);
#357=DERIVED_UNIT_ELEMENT(#356,3.E0);
#358=DERIVED_UNIT((#357));
#359=MEASURE_REPRESENTATION_ITEM('volume measure',VOLUME_MEASURE(
4.742987888018E3),#358);
#363=CARTESIAN_POINT('centre point',(0.E0,1.021336181909E1,0.E0));
#368=DERIVED_UNIT_ELEMENT(#367,2.E0);
#369=DERIVED_UNIT((#368));
#370=MEASURE_REPRESENTATION_ITEM('surface area measure',AREA_MEASURE(
2.899448414189E3),#369);
#375=DERIVED_UNIT_ELEMENT(#374,3.E0);
#376=DERIVED_UNIT((#375));
#377=MEASURE_REPRESENTATION_ITEM('volume measure',VOLUME_MEASURE(
4.742987888018E3),#376);
#381=CARTESIAN_POINT('centre point',(0.E0,1.021336181909E1,0.E0));
#386=PRODUCT_RELATED_PRODUCT_CATEGORY('part','',(#341));
#1=COLOUR_RGB('',0.E0,0.E0,5.E-1);
#2=COLOUR_RGB('',0.E0,0.E0,7.5E-1);
#3=DRAUGHTING_PRE_DEFINED_COLOUR('blue');
#4=COLOUR_RGB('',0.E0,5.E-1,5.E-1);
#5=COLOUR_RGB('',0.E0,7.5E-1,7.5E-1);
#6=COLOUR_RGB('',0.E0,7.5E-1,1.E0);
#7=COLOUR_RGB('',0.E0,1.E0,7.5E-1);
#8=DRAUGHTING_PRE_DEFINED_COLOUR('cyan');
#9=COLOUR_RGB('',2.E-1,2.E-1,2.E-1);
#10=COLOUR_RGB('',2.5E-1,7.5E-1,1.E0);
#11=COLOUR_RGB('',4.E-1,4.E-1,4.E-1);
#12=COLOUR_RGB('',5.E-1,0.E0,0.E0);
#13=COLOUR_RGB('',5.E-1,0.E0,5.E-1);
#14=COLOUR_RGB('',5.E-1,2.5E-1,0.E0);
#15=COLOUR_RGB('',5.E-1,5.E-1,5.E-1);
#16=COLOUR_RGB('',5.E-1,5.E-1,1.E0);
#17=COLOUR_RGB('',5.E-1,1.E0,7.5E-1);
#18=COLOUR_RGB('',6.E-1,6.E-1,6.E-1);
#19=COLOUR_RGB('',6.35294E-1,6.86275E-1,7.4902E-1);
#20=COLOUR_RGB('',7.5E-1,0.E0,0.E0);
#21=COLOUR_RGB('',7.5E-1,0.E0,7.5E-1);
#22=COLOUR_RGB('',7.5E-1,0.E0,1.E0);
#23=COLOUR_RGB('',7.5E-1,2.5E-1,0.E0);
#24=COLOUR_RGB('',7.5E-1,5.E-1,0.E0);
#25=COLOUR_RGB('',7.5E-1,5.E-1,1.E0);
#26=COLOUR_RGB('',7.5E-1,7.5E-1,1.E0);
#27=COLOUR_RGB('',7.5E-1,1.E0,7.5E-1);
#28=COLOUR_RGB('',8.E-1,8.E-1,8.E-1);
#29=DRAUGHTING_PRE_DEFINED_COLOUR('red');
#30=DRAUGHTING_PRE_DEFINED_COLOUR('magenta');
#31=COLOUR_RGB('',1.E0,5.E-1,0.E0);
#32=COLOUR_RGB('',1.E0,7.5E-1,0.E0);
#33=DRAUGHTING_PRE_DEFINED_COLOUR('yellow');
#34=COLOUR_RGB('',1.E0,1.E0,5.E-1);
#35=COLOUR_RGB('',1.E0,1.E0,7.5E-1);
#36=DRAUGHTING_PRE_DEFINED_COLOUR('white');
#41=CIRCLE('',#40,9.25E0);
#54=CIRCLE('',#53,9.25E0);
#67=CIRCLE('',#66,6.25E0);
#72=CIRCLE('',#71,6.25E0);
#77=CIRCLE('',#76,6.25E0);
#82=CIRCLE('',#81,6.25E0);
#87=CIRCLE('',#86,9.475E0);
#100=CIRCLE('',#99,9.475E0);
#105=CIRCLE('',#104,9.475E0);
#110=CIRCLE('',#109,9.475E0);
#115=CIRCLE('',#114,1.5E1);
#128=CIRCLE('',#127,1.5E1);
#133=CIRCLE('',#132,1.5E1);
#138=CIRCLE('',#137,1.5E1);
#172=EDGE_CURVE('',#141,#142,#45,.T.);
#174=EDGE_CURVE('',#141,#155,#41,.T.);
#176=EDGE_CURVE('',#155,#156,#49,.T.);
#178=EDGE_CURVE('',#142,#156,#72,.T.);
#182=ADVANCED_FACE('',(#181),#171,.F.);
#189=EDGE_CURVE('',#142,#156,#67,.T.);
#192=EDGE_CURVE('',#141,#155,#54,.T.);
#196=ADVANCED_FACE('',(#195),#187,.F.);
#202=EDGE_CURVE('',#142,#144,#58,.T.);
#204=EDGE_CURVE('',#144,#158,#77,.T.);
#206=EDGE_CURVE('',#156,#158,#62,.T.);
#211=ADVANCED_FACE('',(#210),#201,.F.);
#220=EDGE_CURVE('',#144,#158,#82,.T.);
#224=ADVANCED_FACE('',(#223),#216,.F.);
#230=EDGE_CURVE('',#147,#161,#87,.T.);
#232=EDGE_CURVE('',#147,#161,#100,.T.);
#240=ADVANCED_FACE('',(#235,#239),#229,.T.);
#246=EDGE_CURVE('',#147,#148,#91,.T.);
#249=EDGE_CURVE('',#161,#162,#95,.T.);
#251=EDGE_CURVE('',#148,#162,#110,.T.);
#255=ADVANCED_FACE('',(#254),#245,.T.);
#262=EDGE_CURVE('',#148,#162,#105,.T.);
#268=ADVANCED_FACE('',(#267),#260,.T.);
#274=EDGE_CURVE('',#151,#165,#115,.T.);
#276=EDGE_CURVE('',#151,#165,#128,.T.);
#284=ADVANCED_FACE('',(#279,#283),#273,.T.);
#290=EDGE_CURVE('',#151,#152,#119,.T.);
#293=EDGE_CURVE('',#165,#166,#123,.T.);
#295=EDGE_CURVE('',#152,#166,#138,.T.);
#299=ADVANCED_FACE('',(#298),#289,.T.);
#306=EDGE_CURVE('',#152,#166,#133,.T.);
#312=ADVANCED_FACE('',(#311),#304,.T.);
#326=ADVANCED_FACE('',(#321,#325),#317,.F.);
#327=CLOSED_SHELL('',(#182,#196,#211,#224,#240,#255,#268,#284,#299,#312,#326));
#328=MANIFOLD_SOLID_BREP('',#327);
#329=(LENGTH_UNIT()NAMED_UNIT(*)SI_UNIT(.MILLI.,.METRE.));
#330=(NAMED_UNIT(*)PLANE_ANGLE_UNIT()SI_UNIT($,.RADIAN.));
#333=(NAMED_UNIT(*)SI_UNIT($,.STERADIAN.)SOLID_ANGLE_UNIT());
#335=(GEOMETRIC_REPRESENTATION_CONTEXT(3)GLOBAL_UNCERTAINTY_ASSIGNED_CONTEXT((
#334))GLOBAL_UNIT_ASSIGNED_CONTEXT((#329,#332,#333))REPRESENTATION_CONTEXT
('ID1','3'));
#336=ADVANCED_BREP_SHAPE_REPRESENTATION('',(#328),#335);
#343=PRODUCT_DEFINITION('part definition','',#342,#339);
#344=PRODUCT_DEFINITION_SHAPE('','SHAPE FOR FC0002.',#343);
#345=SHAPE_ASPECT('','solid data associated with FC0002',#344,.F.);
#346=PROPERTY_DEFINITION('',
'shape for solid data with which properties are associated',#345);
#347=SHAPE_REPRESENTATION('',(#328),#335);
#348=SHAPE_DEFINITION_REPRESENTATION(#346,#347);
#349=(LENGTH_UNIT()NAMED_UNIT(*)SI_UNIT(.MILLI.,.METRE.));
#353=PROPERTY_DEFINITION('geometric validation property','area of FC0002',#345);
#354=REPRESENTATION('surface area',(#352),#335);
#355=PROPERTY_DEFINITION_REPRESENTATION(#353,#354);
#356=(LENGTH_UNIT()NAMED_UNIT(*)SI_UNIT(.MILLI.,.METRE.));
#360=PROPERTY_DEFINITION('geometric validation property','volume of FC0002',
#345);
#361=REPRESENTATION('volume',(#359),#335);
#362=PROPERTY_DEFINITION_REPRESENTATION(#360,#361);
#364=PROPERTY_DEFINITION('geometric validation property','centroid of FC0002',
#345);
#365=REPRESENTATION('centroid',(#363),#335);
#366=PROPERTY_DEFINITION_REPRESENTATION(#364,#365);
#367=(LENGTH_UNIT()NAMED_UNIT(*)SI_UNIT(.MILLI.,.METRE.));
#371=PROPERTY_DEFINITION('geometric validation property','area of FC0002',#344);
#372=REPRESENTATION('surface area',(#370),#335);
#373=PROPERTY_DEFINITION_REPRESENTATION(#371,#372);
#374=(LENGTH_UNIT()NAMED_UNIT(*)SI_UNIT(.MILLI.,.METRE.));
#378=PROPERTY_DEFINITION('geometric validation property','volume of FC0002',
#344);
#379=REPRESENTATION('volume',(#377),#335);
#380=PROPERTY_DEFINITION_REPRESENTATION(#378,#379);
#382=PROPERTY_DEFINITION('geometric validation property','centroid of FC0002',
#344);
#383=REPRESENTATION('centroid',(#381),#335);
#384=PROPERTY_DEFINITION_REPRESENTATION(#382,#383);
#385=SHAPE_DEFINITION_REPRESENTATION(#344,#336);
ENDSEC;
END-ISO-10303-21;
