ISO-10303-21;
HEADER;
/* Generated by software containing ST-Developer
 * from STEP Tools, Inc. (www.steptools.com) 
 */

FILE_DESCRIPTION(
/* description */ (''),
/* implementation_level */ '2;1');

FILE_NAME(
/* name */ 'Axe renvoi frein droit.stp',
/* time_stamp */ '2022-11-15T07:50:27+01:00',
/* author */ ('ethomas'),
/* organization */ (''),
/* preprocessor_version */ 'ST-DEVELOPER v19.2',
/* originating_system */ 'Autodesk Inventor 2023',
/* authorisation */ '');

FILE_SCHEMA (('AUTOMOTIVE_DESIGN { 1 0 10303 214 3 1 1 }'));
ENDSEC;

DATA;
#10=MECHANICAL_DESIGN_GEOMETRIC_PRESENTATION_REPRESENTATION('',(#13),#321);
#11=SHAPE_REPRESENTATION_RELATIONSHIP('SRR','None',#328,#12);
#12=ADVANCED_BREP_SHAPE_REPRESENTATION('',(#14),#320);
#13=STYLED_ITEM('',(#337),#14);
#14=MANIFOLD_SOLID_BREP('Solide1',#172);
#15=FACE_BOUND('',#39,.T.);
#16=FACE_BOUND('',#40,.T.);
#17=CYLINDRICAL_SURFACE('',#209,8.);
#18=CONICAL_SURFACE('',#205,7.75,0.785398163397442);
#19=CONICAL_SURFACE('',#213,7.75,0.785398163397449);
#20=FACE_OUTER_BOUND('',#31,.T.);
#21=FACE_OUTER_BOUND('',#32,.T.);
#22=FACE_OUTER_BOUND('',#33,.T.);
#23=FACE_OUTER_BOUND('',#34,.T.);
#24=FACE_OUTER_BOUND('',#35,.T.);
#25=FACE_OUTER_BOUND('',#36,.T.);
#26=FACE_OUTER_BOUND('',#37,.T.);
#27=FACE_OUTER_BOUND('',#38,.T.);
#28=FACE_OUTER_BOUND('',#41,.T.);
#29=FACE_OUTER_BOUND('',#42,.T.);
#30=FACE_OUTER_BOUND('',#43,.T.);
#31=EDGE_LOOP('',(#111,#112));
#32=EDGE_LOOP('',(#113,#114));
#33=EDGE_LOOP('',(#115,#116,#117,#118));
#34=EDGE_LOOP('',(#119,#120));
#35=EDGE_LOOP('',(#121,#122));
#36=EDGE_LOOP('',(#123,#124,#125,#126));
#37=EDGE_LOOP('',(#127,#128,#129,#130,#131));
#38=EDGE_LOOP('',(#132,#133,#134,#135,#136,#137));
#39=EDGE_LOOP('',(#138,#139,#140,#141));
#40=EDGE_LOOP('',(#142,#143,#144,#145));
#41=EDGE_LOOP('',(#146));
#42=EDGE_LOOP('',(#147,#148,#149,#150,#151));
#43=EDGE_LOOP('',(#152));
#44=LINE('',#276,#55);
#45=LINE('',#281,#56);
#46=LINE('',#283,#57);
#47=LINE('',#284,#58);
#48=LINE('',#289,#59);
#49=LINE('',#294,#60);
#50=LINE('',#296,#61);
#51=LINE('',#297,#62);
#52=LINE('',#302,#63);
#53=LINE('',#308,#64);
#54=LINE('',#315,#65);
#55=VECTOR('',#222,10.);
#56=VECTOR('',#227,10.);
#57=VECTOR('',#230,10.);
#58=VECTOR('',#231,10.);
#59=VECTOR('',#236,10.);
#60=VECTOR('',#241,10.);
#61=VECTOR('',#244,10.);
#62=VECTOR('',#245,10.);
#63=VECTOR('',#250,7.75);
#64=VECTOR('',#257,8.);
#65=VECTOR('',#266,7.75);
#66=CIRCLE('',#196,8.);
#67=CIRCLE('',#198,8.);
#68=CIRCLE('',#201,8.);
#69=CIRCLE('',#203,8.);
#70=CIRCLE('',#206,7.5);
#71=CIRCLE('',#207,8.);
#72=CIRCLE('',#208,8.);
#73=CIRCLE('',#210,8.);
#74=CIRCLE('',#211,8.);
#75=CIRCLE('',#214,7.5);
#76=VERTEX_POINT('',#273);
#77=VERTEX_POINT('',#274);
#78=VERTEX_POINT('',#278);
#79=VERTEX_POINT('',#279);
#80=VERTEX_POINT('',#286);
#81=VERTEX_POINT('',#287);
#82=VERTEX_POINT('',#291);
#83=VERTEX_POINT('',#292);
#84=VERTEX_POINT('',#299);
#85=VERTEX_POINT('',#301);
#86=VERTEX_POINT('',#303);
#87=VERTEX_POINT('',#307);
#88=VERTEX_POINT('',#309);
#89=VERTEX_POINT('',#314);
#90=EDGE_CURVE('',#76,#77,#66,.T.);
#91=EDGE_CURVE('',#76,#77,#44,.T.);
#92=EDGE_CURVE('',#78,#79,#67,.T.);
#93=EDGE_CURVE('',#78,#79,#45,.T.);
#94=EDGE_CURVE('',#79,#76,#46,.T.);
#95=EDGE_CURVE('',#77,#78,#47,.T.);
#96=EDGE_CURVE('',#80,#81,#68,.T.);
#97=EDGE_CURVE('',#80,#81,#48,.T.);
#98=EDGE_CURVE('',#82,#83,#69,.T.);
#99=EDGE_CURVE('',#82,#83,#49,.T.);
#100=EDGE_CURVE('',#83,#80,#50,.T.);
#101=EDGE_CURVE('',#81,#82,#51,.T.);
#102=EDGE_CURVE('',#84,#84,#70,.T.);
#103=EDGE_CURVE('',#84,#85,#52,.T.);
#104=EDGE_CURVE('',#85,#86,#71,.T.);
#105=EDGE_CURVE('',#86,#85,#72,.T.);
#106=EDGE_CURVE('',#86,#87,#53,.T.);
#107=EDGE_CURVE('',#88,#87,#73,.T.);
#108=EDGE_CURVE('',#87,#88,#74,.T.);
#109=EDGE_CURVE('',#88,#89,#54,.T.);
#110=EDGE_CURVE('',#89,#89,#75,.T.);
#111=ORIENTED_EDGE('',*,*,#90,.F.);
#112=ORIENTED_EDGE('',*,*,#91,.T.);
#113=ORIENTED_EDGE('',*,*,#92,.F.);
#114=ORIENTED_EDGE('',*,*,#93,.T.);
#115=ORIENTED_EDGE('',*,*,#94,.F.);
#116=ORIENTED_EDGE('',*,*,#93,.F.);
#117=ORIENTED_EDGE('',*,*,#95,.F.);
#118=ORIENTED_EDGE('',*,*,#91,.F.);
#119=ORIENTED_EDGE('',*,*,#96,.F.);
#120=ORIENTED_EDGE('',*,*,#97,.T.);
#121=ORIENTED_EDGE('',*,*,#98,.F.);
#122=ORIENTED_EDGE('',*,*,#99,.T.);
#123=ORIENTED_EDGE('',*,*,#100,.F.);
#124=ORIENTED_EDGE('',*,*,#99,.F.);
#125=ORIENTED_EDGE('',*,*,#101,.F.);
#126=ORIENTED_EDGE('',*,*,#97,.F.);
#127=ORIENTED_EDGE('',*,*,#102,.T.);
#128=ORIENTED_EDGE('',*,*,#103,.T.);
#129=ORIENTED_EDGE('',*,*,#104,.T.);
#130=ORIENTED_EDGE('',*,*,#105,.T.);
#131=ORIENTED_EDGE('',*,*,#103,.F.);
#132=ORIENTED_EDGE('',*,*,#104,.F.);
#133=ORIENTED_EDGE('',*,*,#105,.F.);
#134=ORIENTED_EDGE('',*,*,#106,.T.);
#135=ORIENTED_EDGE('',*,*,#107,.F.);
#136=ORIENTED_EDGE('',*,*,#108,.F.);
#137=ORIENTED_EDGE('',*,*,#106,.F.);
#138=ORIENTED_EDGE('',*,*,#92,.T.);
#139=ORIENTED_EDGE('',*,*,#94,.T.);
#140=ORIENTED_EDGE('',*,*,#90,.T.);
#141=ORIENTED_EDGE('',*,*,#95,.T.);
#142=ORIENTED_EDGE('',*,*,#98,.T.);
#143=ORIENTED_EDGE('',*,*,#100,.T.);
#144=ORIENTED_EDGE('',*,*,#96,.T.);
#145=ORIENTED_EDGE('',*,*,#101,.T.);
#146=ORIENTED_EDGE('',*,*,#102,.F.);
#147=ORIENTED_EDGE('',*,*,#107,.T.);
#148=ORIENTED_EDGE('',*,*,#108,.T.);
#149=ORIENTED_EDGE('',*,*,#109,.T.);
#150=ORIENTED_EDGE('',*,*,#110,.T.);
#151=ORIENTED_EDGE('',*,*,#109,.F.);
#152=ORIENTED_EDGE('',*,*,#110,.F.);
#153=PLANE('',#195);
#154=PLANE('',#197);
#155=PLANE('',#199);
#156=PLANE('',#200);
#157=PLANE('',#202);
#158=PLANE('',#204);
#159=PLANE('',#212);
#160=PLANE('',#215);
#161=ADVANCED_FACE('',(#20),#153,.F.);
#162=ADVANCED_FACE('',(#21),#154,.F.);
#163=ADVANCED_FACE('',(#22),#155,.F.);
#164=ADVANCED_FACE('',(#23),#156,.F.);
#165=ADVANCED_FACE('',(#24),#157,.F.);
#166=ADVANCED_FACE('',(#25),#158,.F.);
#167=ADVANCED_FACE('',(#26),#18,.T.);
#168=ADVANCED_FACE('',(#27,#15,#16),#17,.T.);
#169=ADVANCED_FACE('',(#28),#159,.T.);
#170=ADVANCED_FACE('',(#29),#19,.T.);
#171=ADVANCED_FACE('',(#30),#160,.F.);
#172=CLOSED_SHELL('',(#161,#162,#163,#164,#165,#166,#167,#168,#169,#170,
#171));
#173=DERIVED_UNIT_ELEMENT(#176,1.);
#174=DERIVED_UNIT_ELEMENT(#323,-3.);
#175=DIMENSIONAL_EXPONENTS(0.,1.,0.,0.,0.,0.,0.);
#176=(
CONVERSION_BASED_UNIT('gram',#178)
MASS_UNIT()
NAMED_UNIT(#175)
);
#177=(
MASS_UNIT()
NAMED_UNIT(*)
SI_UNIT(.KILO.,.GRAM.)
);
#178=MASS_MEASURE_WITH_UNIT(MASS_MEASURE(0.001),#177);
#179=DERIVED_UNIT((#173,#174));
#180=MEASURE_REPRESENTATION_ITEM('density measure',
POSITIVE_RATIO_MEASURE(7.85),#179);
#181=PROPERTY_DEFINITION_REPRESENTATION(#186,#183);
#182=PROPERTY_DEFINITION_REPRESENTATION(#187,#184);
#183=REPRESENTATION('material name',(#185),#320);
#184=REPRESENTATION('density',(#180),#320);
#185=DESCRIPTIVE_REPRESENTATION_ITEM('Acier','Acier');
#186=PROPERTY_DEFINITION('material property','material name',#330);
#187=PROPERTY_DEFINITION('material property','density of part',#330);
#188=DATE_TIME_ROLE('creation_date');
#189=APPLIED_DATE_AND_TIME_ASSIGNMENT(#190,#188,(#330));
#190=DATE_AND_TIME(#191,#192);
#191=CALENDAR_DATE(2022,4,10);
#192=LOCAL_TIME(0,0,0.,#193);
#193=COORDINATED_UNIVERSAL_TIME_OFFSET(0,0,.BEHIND.);
#194=AXIS2_PLACEMENT_3D('placement',#271,#216,#217);
#195=AXIS2_PLACEMENT_3D('',#272,#218,#219);
#196=AXIS2_PLACEMENT_3D('',#275,#220,#221);
#197=AXIS2_PLACEMENT_3D('',#277,#223,#224);
#198=AXIS2_PLACEMENT_3D('',#280,#225,#226);
#199=AXIS2_PLACEMENT_3D('',#282,#228,#229);
#200=AXIS2_PLACEMENT_3D('',#285,#232,#233);
#201=AXIS2_PLACEMENT_3D('',#288,#234,#235);
#202=AXIS2_PLACEMENT_3D('',#290,#237,#238);
#203=AXIS2_PLACEMENT_3D('',#293,#239,#240);
#204=AXIS2_PLACEMENT_3D('',#295,#242,#243);
#205=AXIS2_PLACEMENT_3D('',#298,#246,#247);
#206=AXIS2_PLACEMENT_3D('',#300,#248,#249);
#207=AXIS2_PLACEMENT_3D('',#304,#251,#252);
#208=AXIS2_PLACEMENT_3D('',#305,#253,#254);
#209=AXIS2_PLACEMENT_3D('',#306,#255,#256);
#210=AXIS2_PLACEMENT_3D('',#310,#258,#259);
#211=AXIS2_PLACEMENT_3D('',#311,#260,#261);
#212=AXIS2_PLACEMENT_3D('',#312,#262,#263);
#213=AXIS2_PLACEMENT_3D('',#313,#264,#265);
#214=AXIS2_PLACEMENT_3D('',#316,#267,#268);
#215=AXIS2_PLACEMENT_3D('',#317,#269,#270);
#216=DIRECTION('axis',(0.,0.,1.));
#217=DIRECTION('refdir',(1.,0.,0.));
#218=DIRECTION('center_axis',(4.15241700879073E-16,-4.3643661421314E-17,
-1.));
#219=DIRECTION('ref_axis',(0.994521895368273,-0.104528463267654,4.17528968253945E-16));
#220=DIRECTION('center_axis',(4.15241700879073E-16,-4.3643661421314E-17,
-1.));
#221=DIRECTION('ref_axis',(1.,0.,0.));
#222=DIRECTION('',(0.994521895368273,-0.104528463267654,4.17528968253945E-16));
#223=DIRECTION('center_axis',(-3.11431275659305E-16,3.27327460659855E-17,
1.));
#224=DIRECTION('ref_axis',(-0.994521895368273,0.104528463267654,-3.13146726190459E-16));
#225=DIRECTION('center_axis',(-3.11431275659305E-16,3.27327460659855E-17,
1.));
#226=DIRECTION('ref_axis',(1.,0.,0.));
#227=DIRECTION('',(-0.994521895368273,0.104528463267654,-3.13146726190459E-16));
#228=DIRECTION('center_axis',(-0.104528463267654,-0.994521895368273,0.));
#229=DIRECTION('ref_axis',(0.,0.,-1.));
#230=DIRECTION('',(0.,0.,-1.));
#231=DIRECTION('',(0.,0.,1.));
#232=DIRECTION('center_axis',(0.,5.61803664514064E-16,-1.));
#233=DIRECTION('ref_axis',(0.,-1.,-5.61803664514064E-16));
#234=DIRECTION('center_axis',(0.,5.61803664514064E-16,-1.));
#235=DIRECTION('ref_axis',(1.,0.,0.));
#236=DIRECTION('',(0.,-1.,-5.61803664514064E-16));
#237=DIRECTION('center_axis',(0.,5.61803664514064E-16,1.));
#238=DIRECTION('ref_axis',(0.,1.,-5.61803664514064E-16));
#239=DIRECTION('center_axis',(0.,5.61803664514064E-16,1.));
#240=DIRECTION('ref_axis',(1.,0.,0.));
#241=DIRECTION('',(0.,1.,-5.61803664514064E-16));
#242=DIRECTION('center_axis',(-1.,0.,0.));
#243=DIRECTION('ref_axis',(0.,0.,1.));
#244=DIRECTION('',(0.,0.,-1.));
#245=DIRECTION('',(0.,0.,1.));
#246=DIRECTION('center_axis',(0.,0.,-1.));
#247=DIRECTION('ref_axis',(-1.,0.,0.));
#248=DIRECTION('center_axis',(0.,0.,-1.));
#249=DIRECTION('ref_axis',(-1.,0.,0.));
#250=DIRECTION('',(0.707106781186543,8.65956056235488E-17,-0.707106781186552));
#251=DIRECTION('center_axis',(0.,0.,1.));
#252=DIRECTION('ref_axis',(-1.,0.,0.));
#253=DIRECTION('center_axis',(0.,0.,1.));
#254=DIRECTION('ref_axis',(-1.,0.,0.));
#255=DIRECTION('center_axis',(0.,0.,1.));
#256=DIRECTION('ref_axis',(1.,0.,0.));
#257=DIRECTION('',(0.,0.,-1.));
#258=DIRECTION('center_axis',(0.,0.,-1.));
#259=DIRECTION('ref_axis',(-1.,0.,0.));
#260=DIRECTION('center_axis',(0.,0.,-1.));
#261=DIRECTION('ref_axis',(-1.,0.,0.));
#262=DIRECTION('center_axis',(0.,0.,1.));
#263=DIRECTION('ref_axis',(1.,0.,0.));
#264=DIRECTION('center_axis',(0.,0.,1.));
#265=DIRECTION('ref_axis',(-1.,0.,0.));
#266=DIRECTION('',(-0.707106781186548,-8.65956056235493E-17,-0.707106781186547));
#267=DIRECTION('center_axis',(0.,0.,1.));
#268=DIRECTION('ref_axis',(-1.,0.,0.));
#269=DIRECTION('center_axis',(0.,0.,1.));
#270=DIRECTION('ref_axis',(1.,0.,0.));
#271=CARTESIAN_POINT('',(0.,0.,0.));
#272=CARTESIAN_POINT('Origin',(-18.8951532883172,10.0300268731044,4.79999999999999));
#273=CARTESIAN_POINT('',(-5.09648615481418,6.16650864539955,4.8));
#274=CARTESIAN_POINT('',(6.26720494341191,4.97213658272512,4.8));
#275=CARTESIAN_POINT('Origin',(0.,0.,4.79999999999999));
#276=CARTESIAN_POINT('',(-19.1460216001596,7.64317432422059,4.79999999999999));
#277=CARTESIAN_POINT('Origin',(23.4163006488442,5.5829138640602,17.1));
#278=CARTESIAN_POINT('',(6.2672049434119,4.97213658272512,17.1));
#279=CARTESIAN_POINT('',(-5.09648615481419,6.16650864539955,17.1));
#280=CARTESIAN_POINT('Origin',(0.,0.,17.1));
#281=CARTESIAN_POINT('',(23.1654323370018,3.19606131517634,17.1));
#282=CARTESIAN_POINT('Origin',(2.00970536842112,5.41961781969847,10.95));
#283=CARTESIAN_POINT('',(-5.09648615481417,6.16650864539955,0.));
#284=CARTESIAN_POINT('',(6.2672049434119,4.97213658272512,0.));
#285=CARTESIAN_POINT('Origin',(8.,14.2053499914738,94.9));
#286=CARTESIAN_POINT('',(5.6,5.71314274283428,94.9));
#287=CARTESIAN_POINT('',(5.6,-5.71314274283428,94.9));
#288=CARTESIAN_POINT('Origin',(0.,0.,94.9));
#289=CARTESIAN_POINT('',(5.6,-17.4134690302342,94.9));
#290=CARTESIAN_POINT('Origin',(8.,-17.4134690302342,107.2));
#291=CARTESIAN_POINT('',(5.6,-5.71314274283428,107.2));
#292=CARTESIAN_POINT('',(5.6,5.71314274283428,107.2));
#293=CARTESIAN_POINT('Origin',(0.,0.,107.2));
#294=CARTESIAN_POINT('',(5.6,14.2053499914738,107.2));
#295=CARTESIAN_POINT('Origin',(5.6,-1.6040595193802,101.05));
#296=CARTESIAN_POINT('',(5.6,5.71314274283428,0.));
#297=CARTESIAN_POINT('',(5.6,-5.71314274283428,0.));
#298=CARTESIAN_POINT('Origin',(0.,0.,111.75));
#299=CARTESIAN_POINT('',(7.5,-9.18485099360515E-16,112.));
#300=CARTESIAN_POINT('Origin',(0.,0.,112.));
#301=CARTESIAN_POINT('',(8.,9.79717439317883E-16,111.5));
#302=CARTESIAN_POINT('',(7.75,9.49101269339199E-16,111.75));
#303=CARTESIAN_POINT('',(-8.,-9.79717439317883E-16,111.5));
#304=CARTESIAN_POINT('Origin',(0.,0.,111.5));
#305=CARTESIAN_POINT('Origin',(0.,0.,111.5));
#306=CARTESIAN_POINT('Origin',(0.,0.,0.));
#307=CARTESIAN_POINT('',(-8.,-9.79717439317883E-16,0.5));
#308=CARTESIAN_POINT('',(-8.,-9.79717439317883E-16,0.));
#309=CARTESIAN_POINT('',(8.,-9.79717439317883E-16,0.5));
#310=CARTESIAN_POINT('Origin',(0.,0.,0.5));
#311=CARTESIAN_POINT('Origin',(0.,0.,0.5));
#312=CARTESIAN_POINT('Origin',(0.,0.,112.));
#313=CARTESIAN_POINT('Origin',(0.,0.,0.25));
#314=CARTESIAN_POINT('',(7.5,9.18485099360515E-16,0.));
#315=CARTESIAN_POINT('',(7.75,9.49101269339199E-16,0.25));
#316=CARTESIAN_POINT('Origin',(0.,0.,0.));
#317=CARTESIAN_POINT('Origin',(0.,0.,0.));
#318=UNCERTAINTY_MEASURE_WITH_UNIT(LENGTH_MEASURE(0.01),#322,
'DISTANCE_ACCURACY_VALUE',
'Maximum model space distance between geometric entities at asserted c
onnectivities');
#319=UNCERTAINTY_MEASURE_WITH_UNIT(LENGTH_MEASURE(0.01),#322,
'DISTANCE_ACCURACY_VALUE',
'Maximum model space distance between geometric entities at asserted c
onnectivities');
#320=(
GEOMETRIC_REPRESENTATION_CONTEXT(3)
GLOBAL_UNCERTAINTY_ASSIGNED_CONTEXT((#318))
GLOBAL_UNIT_ASSIGNED_CONTEXT((#322,#324,#325))
REPRESENTATION_CONTEXT('','3D')
);
#321=(
GEOMETRIC_REPRESENTATION_CONTEXT(3)
GLOBAL_UNCERTAINTY_ASSIGNED_CONTEXT((#319))
GLOBAL_UNIT_ASSIGNED_CONTEXT((#322,#324,#325))
REPRESENTATION_CONTEXT('','3D')
);
#322=(
LENGTH_UNIT()
NAMED_UNIT(*)
SI_UNIT(.MILLI.,.METRE.)
);
#323=(
LENGTH_UNIT()
NAMED_UNIT(*)
SI_UNIT(.CENTI.,.METRE.)
);
#324=(
NAMED_UNIT(*)
PLANE_ANGLE_UNIT()
SI_UNIT($,.RADIAN.)
);
#325=(
NAMED_UNIT(*)
SI_UNIT($,.STERADIAN.)
SOLID_ANGLE_UNIT()
);
#326=SHAPE_DEFINITION_REPRESENTATION(#327,#328);
#327=PRODUCT_DEFINITION_SHAPE('',$,#330);
#328=SHAPE_REPRESENTATION('',(#194),#320);
#329=PRODUCT_DEFINITION_CONTEXT('part definition',#334,'design');
#330=PRODUCT_DEFINITION('Axe renvoi frein droit',
'Axe renvoi frein droit',#331,#329);
#331=PRODUCT_DEFINITION_FORMATION('',$,#336);
#332=PRODUCT_RELATED_PRODUCT_CATEGORY('Axe renvoi frein droit',
'Axe renvoi frein droit',(#336));
#333=APPLICATION_PROTOCOL_DEFINITION('international standard',
'automotive_design',2009,#334);
#334=APPLICATION_CONTEXT(
'Core Data for Automotive Mechanical Design Process');
#335=PRODUCT_CONTEXT('part definition',#334,'mechanical');
#336=PRODUCT('Axe renvoi frein droit','Axe renvoi frein droit',$,(#335));
#337=PRESENTATION_STYLE_ASSIGNMENT((#338));
#338=SURFACE_STYLE_USAGE(.BOTH.,#341);
#339=SURFACE_STYLE_RENDERING_WITH_PROPERTIES($,#345,(#340));
#340=SURFACE_STYLE_TRANSPARENT(0.);
#341=SURFACE_SIDE_STYLE('',(#342,#339));
#342=SURFACE_STYLE_FILL_AREA(#343);
#343=FILL_AREA_STYLE('',(#344));
#344=FILL_AREA_STYLE_COLOUR('',#345);
#345=COLOUR_RGB('',0.745098039215686,0.737254901960784,0.729411764705882);
ENDSEC;
END-ISO-10303-21;
