ISO-10303-21;
HEADER;
/* Generated by software containing ST-Developer
 * from STEP Tools, Inc. (www.steptools.com) 
 */

FILE_DESCRIPTION(
/* description */ (''),
/* implementation_level */ '2;1');

FILE_NAME(
/* name */ 'ferrand cerclage alu.step',
/* time_stamp */ '2022-10-25T15:54:42+02:00',
/* author */ (''),
/* organization */ (''),
/* preprocessor_version */ 'ST-DEVELOPER v19.2',
/* originating_system */ 'Autodesk Translation Framework v11.17.0.187',

/* authorisation */ '');

FILE_SCHEMA (('AUTOMOTIVE_DESIGN { 1 0 10303 214 3 1 1 }'));
ENDSEC;

DATA;
#10=MECHANICAL_DESIGN_GEOMETRIC_PRESENTATION_REPRESENTATION('',(#13),#150);
#11=SHAPE_REPRESENTATION_RELATIONSHIP('SRR','None',#157,#12);
#12=ADVANCED_BREP_SHAPE_REPRESENTATION('',(#14),#149);
#13=STYLED_ITEM('',(#166),#14);
#14=MANIFOLD_SOLID_BREP('Corps1',#79);
#15=FACE_BOUND('',#29,.T.);
#16=FACE_BOUND('',#32,.T.);
#17=PLANE('',#98);
#18=PLANE('',#102);
#19=CYLINDRICAL_SURFACE('',#96,145.);
#20=CYLINDRICAL_SURFACE('',#100,155.);
#21=FACE_OUTER_BOUND('',#26,.T.);
#22=FACE_OUTER_BOUND('',#27,.T.);
#23=FACE_OUTER_BOUND('',#28,.T.);
#24=FACE_OUTER_BOUND('',#30,.T.);
#25=FACE_OUTER_BOUND('',#31,.T.);
#26=EDGE_LOOP('',(#57,#58,#59,#60));
#27=EDGE_LOOP('',(#61,#62,#63,#64));
#28=EDGE_LOOP('',(#65));
#29=EDGE_LOOP('',(#66));
#30=EDGE_LOOP('',(#67,#68,#69,#70));
#31=EDGE_LOOP('',(#71));
#32=EDGE_LOOP('',(#72));
#33=LINE('',#133,#36);
#34=LINE('',#137,#37);
#35=LINE('',#144,#38);
#36=VECTOR('',#109,148.5);
#37=VECTOR('',#114,145.);
#38=VECTOR('',#123,155.);
#39=CIRCLE('',#94,152.);
#40=CIRCLE('',#95,145.);
#41=CIRCLE('',#97,145.);
#42=CIRCLE('',#99,155.);
#43=CIRCLE('',#101,155.);
#44=VERTEX_POINT('',#130);
#45=VERTEX_POINT('',#132);
#46=VERTEX_POINT('',#136);
#47=VERTEX_POINT('',#140);
#48=VERTEX_POINT('',#143);
#49=EDGE_CURVE('',#44,#44,#39,.T.);
#50=EDGE_CURVE('',#44,#45,#33,.T.);
#51=EDGE_CURVE('',#45,#45,#40,.T.);
#52=EDGE_CURVE('',#45,#46,#34,.T.);
#53=EDGE_CURVE('',#46,#46,#41,.T.);
#54=EDGE_CURVE('',#47,#47,#42,.T.);
#55=EDGE_CURVE('',#47,#48,#35,.T.);
#56=EDGE_CURVE('',#48,#48,#43,.T.);
#57=ORIENTED_EDGE('',*,*,#49,.T.);
#58=ORIENTED_EDGE('',*,*,#50,.T.);
#59=ORIENTED_EDGE('',*,*,#51,.T.);
#60=ORIENTED_EDGE('',*,*,#50,.F.);
#61=ORIENTED_EDGE('',*,*,#51,.F.);
#62=ORIENTED_EDGE('',*,*,#52,.T.);
#63=ORIENTED_EDGE('',*,*,#53,.T.);
#64=ORIENTED_EDGE('',*,*,#52,.F.);
#65=ORIENTED_EDGE('',*,*,#54,.T.);
#66=ORIENTED_EDGE('',*,*,#49,.F.);
#67=ORIENTED_EDGE('',*,*,#54,.F.);
#68=ORIENTED_EDGE('',*,*,#55,.T.);
#69=ORIENTED_EDGE('',*,*,#56,.T.);
#70=ORIENTED_EDGE('',*,*,#55,.F.);
#71=ORIENTED_EDGE('',*,*,#56,.F.);
#72=ORIENTED_EDGE('',*,*,#53,.F.);
#73=CONICAL_SURFACE('',#93,148.5,0.785398163397448);
#74=ADVANCED_FACE('',(#21),#73,.F.);
#75=ADVANCED_FACE('',(#22),#19,.F.);
#76=ADVANCED_FACE('',(#23,#15),#17,.T.);
#77=ADVANCED_FACE('',(#24),#20,.T.);
#78=ADVANCED_FACE('',(#25,#16),#18,.F.);
#79=CLOSED_SHELL('',(#74,#75,#76,#77,#78));
#80=DERIVED_UNIT_ELEMENT(#82,1.);
#81=DERIVED_UNIT_ELEMENT(#152,-3.);
#82=(
MASS_UNIT()
NAMED_UNIT(*)
SI_UNIT(.KILO.,.GRAM.)
);
#83=DERIVED_UNIT((#80,#81));
#84=MEASURE_REPRESENTATION_ITEM('density measure',
POSITIVE_RATIO_MEASURE(7850.),#83);
#85=PROPERTY_DEFINITION_REPRESENTATION(#90,#87);
#86=PROPERTY_DEFINITION_REPRESENTATION(#91,#88);
#87=REPRESENTATION('material name',(#89),#149);
#88=REPRESENTATION('density',(#84),#149);
#89=DESCRIPTIVE_REPRESENTATION_ITEM('Acier','Acier');
#90=PROPERTY_DEFINITION('material property','material name',#159);
#91=PROPERTY_DEFINITION('material property','density of part',#159);
#92=AXIS2_PLACEMENT_3D('placement',#128,#103,#104);
#93=AXIS2_PLACEMENT_3D('',#129,#105,#106);
#94=AXIS2_PLACEMENT_3D('',#131,#107,#108);
#95=AXIS2_PLACEMENT_3D('',#134,#110,#111);
#96=AXIS2_PLACEMENT_3D('',#135,#112,#113);
#97=AXIS2_PLACEMENT_3D('',#138,#115,#116);
#98=AXIS2_PLACEMENT_3D('',#139,#117,#118);
#99=AXIS2_PLACEMENT_3D('',#141,#119,#120);
#100=AXIS2_PLACEMENT_3D('',#142,#121,#122);
#101=AXIS2_PLACEMENT_3D('',#145,#124,#125);
#102=AXIS2_PLACEMENT_3D('',#146,#126,#127);
#103=DIRECTION('axis',(0.,0.,1.));
#104=DIRECTION('refdir',(1.,0.,0.));
#105=DIRECTION('center_axis',(0.,0.,1.));
#106=DIRECTION('ref_axis',(1.,0.,0.));
#107=DIRECTION('center_axis',(0.,0.,1.));
#108=DIRECTION('ref_axis',(1.,0.,0.));
#109=DIRECTION('',(0.707106781186547,8.65956056235493E-17,-0.707106781186548));
#110=DIRECTION('center_axis',(0.,0.,-1.));
#111=DIRECTION('ref_axis',(1.,0.,0.));
#112=DIRECTION('center_axis',(0.,0.,1.));
#113=DIRECTION('ref_axis',(1.,0.,0.));
#114=DIRECTION('',(0.,0.,-1.));
#115=DIRECTION('center_axis',(0.,0.,-1.));
#116=DIRECTION('ref_axis',(1.,0.,0.));
#117=DIRECTION('center_axis',(0.,0.,1.));
#118=DIRECTION('ref_axis',(1.,0.,0.));
#119=DIRECTION('center_axis',(0.,0.,1.));
#120=DIRECTION('ref_axis',(1.,0.,0.));
#121=DIRECTION('center_axis',(0.,0.,1.));
#122=DIRECTION('ref_axis',(1.,0.,0.));
#123=DIRECTION('',(0.,0.,-1.));
#124=DIRECTION('center_axis',(0.,0.,1.));
#125=DIRECTION('ref_axis',(1.,0.,0.));
#126=DIRECTION('center_axis',(0.,0.,1.));
#127=DIRECTION('ref_axis',(1.,0.,0.));
#128=CARTESIAN_POINT('',(0.,0.,0.));
#129=CARTESIAN_POINT('Origin',(0.,0.,6.5));
#130=CARTESIAN_POINT('',(-152.,-1.86146313470398E-14,10.));
#131=CARTESIAN_POINT('Origin',(0.,0.,10.));
#132=CARTESIAN_POINT('',(-145.,1.77573785876366E-14,3.));
#133=CARTESIAN_POINT('',(-148.5,-1.81860049673382E-14,6.5));
#134=CARTESIAN_POINT('Origin',(0.,0.,3.));
#135=CARTESIAN_POINT('Origin',(0.,0.,0.));
#136=CARTESIAN_POINT('',(-145.,-1.77573785876366E-14,0.));
#137=CARTESIAN_POINT('',(-145.,-1.77573785876366E-14,0.));
#138=CARTESIAN_POINT('Origin',(0.,0.,0.));
#139=CARTESIAN_POINT('Origin',(0.,0.,10.));
#140=CARTESIAN_POINT('',(-155.,-1.8982025386784E-14,10.));
#141=CARTESIAN_POINT('Origin',(0.,0.,10.));
#142=CARTESIAN_POINT('Origin',(0.,0.,0.));
#143=CARTESIAN_POINT('',(-155.,-1.8982025386784E-14,0.));
#144=CARTESIAN_POINT('',(-155.,-1.8982025386784E-14,0.));
#145=CARTESIAN_POINT('Origin',(0.,0.,0.));
#146=CARTESIAN_POINT('Origin',(0.,0.,0.));
#147=UNCERTAINTY_MEASURE_WITH_UNIT(LENGTH_MEASURE(0.01),#151,
'DISTANCE_ACCURACY_VALUE',
'Maximum model space distance between geometric entities at asserted c
onnectivities');
#148=UNCERTAINTY_MEASURE_WITH_UNIT(LENGTH_MEASURE(0.01),#151,
'DISTANCE_ACCURACY_VALUE',
'Maximum model space distance between geometric entities at asserted c
onnectivities');
#149=(
GEOMETRIC_REPRESENTATION_CONTEXT(3)
GLOBAL_UNCERTAINTY_ASSIGNED_CONTEXT((#147))
GLOBAL_UNIT_ASSIGNED_CONTEXT((#151,#153,#154))
REPRESENTATION_CONTEXT('','3D')
);
#150=(
GEOMETRIC_REPRESENTATION_CONTEXT(3)
GLOBAL_UNCERTAINTY_ASSIGNED_CONTEXT((#148))
GLOBAL_UNIT_ASSIGNED_CONTEXT((#151,#153,#154))
REPRESENTATION_CONTEXT('','3D')
);
#151=(
LENGTH_UNIT()
NAMED_UNIT(*)
SI_UNIT(.MILLI.,.METRE.)
);
#152=(
LENGTH_UNIT()
NAMED_UNIT(*)
SI_UNIT($,.METRE.)
);
#153=(
NAMED_UNIT(*)
PLANE_ANGLE_UNIT()
SI_UNIT($,.RADIAN.)
);
#154=(
NAMED_UNIT(*)
SI_UNIT($,.STERADIAN.)
SOLID_ANGLE_UNIT()
);
#155=SHAPE_DEFINITION_REPRESENTATION(#156,#157);
#156=PRODUCT_DEFINITION_SHAPE('',$,#159);
#157=SHAPE_REPRESENTATION('',(#92),#149);
#158=PRODUCT_DEFINITION_CONTEXT('part definition',#163,'design');
#159=PRODUCT_DEFINITION('Sans nom','Sans nom v1',#160,#158);
#160=PRODUCT_DEFINITION_FORMATION('',$,#165);
#161=PRODUCT_RELATED_PRODUCT_CATEGORY('Sans nom v1','Sans nom v1',(#165));
#162=APPLICATION_PROTOCOL_DEFINITION('international standard',
'automotive_design',2009,#163);
#163=APPLICATION_CONTEXT(
'Core Data for Automotive Mechanical Design Process');
#164=PRODUCT_CONTEXT('part definition',#163,'mechanical');
#165=PRODUCT('Sans nom','Sans nom v1',$,(#164));
#166=PRESENTATION_STYLE_ASSIGNMENT((#167));
#167=SURFACE_STYLE_USAGE(.BOTH.,#168);
#168=SURFACE_SIDE_STYLE('',(#169));
#169=SURFACE_STYLE_FILL_AREA(#170);
#170=FILL_AREA_STYLE('Acier - Satin\X\E9',(#171));
#171=FILL_AREA_STYLE_COLOUR('Acier - Satin\X\E9',#172);
#172=COLOUR_RGB('Acier - Satin\X\E9',0.627450980392157,0.627450980392157,
0.627450980392157);
ENDSEC;
END-ISO-10303-21;
