  0
SECTION
  2
HEADER
  9
$ACADVER
  1
AC1015
  9
$ACADMAINTVER
 70
     6
  9
$DWGCODEPAGE
  3
ANSI_1252
  9
$INSBASE
 10
0.0
 20
0.0
 30
0.0
  9
$EXTMIN
 10
-21.9919354839
 20
-37.0
 30
0.0
  9
$EXTMAX
 10
5.0080645161
 20
15.0
 30
0.0
  9
$LIMMIN
 10
0.0
 20
0.0
  9
$LIMMAX
 10
420.0
 20
297.0
  9
$ORTHOMODE
 70
     0
  9
$REGENMODE
 70
     1
  9
$FILLMODE
 70
     1
  9
$QTEXTMODE
 70
     0
  9
$MIRRTEXT
 70
     1
  9
$LTSCALE
 40
1.0
  9
$ATTMODE
 70
     1
  9
$TEXTSIZE
 40
3.5
  9
$TRACEWID
 40
1.0
  9
$TEXTSTYLE
  7
Standard
  9
$CLAYER
  8
0
  9
$CELTYPE
  6
ByLayer
  9
$CECOLOR
 62
   256
  9
$CELTSCALE
 40
1.0
  9
$DISPSILH
 70
     0
  9
$DIMSCALE
 40
1.0
  9
$DIMASZ
 40
3.302
  9
$DIMEXO
 40
0.0
  9
$DIMDLI
 40
3.75
  9
$DIMRND
 40
0.0
  9
$DIMDLE
 40
0.0
  9
$DIMEXE
 40
1.0
  9
$DIMTP
 40
0.0
  9
$DIMTM
 40
0.0
  9
$DIMTXT
 40
3.5
  9
$DIMCEN
 40
2.5
  9
$DIMTSZ
 40
0.0
  9
$DIMTOL
 70
     0
  9
$DIMLIM
 70
     0
  9
$DIMTIH
 70
     1
  9
$DIMTOH
 70
     1
  9
$DIMSE1
 70
     0
  9
$DIMSE2
 70
     0
  9
$DIMTAD
 70
     1
  9
$DIMZIN
 70
     1
  9
$DIMBLK
  1

  9
$DIMASO
 70
     1
  9
$DIMSHO
 70
     1
  9
$DIMPOST
  1

  9
$DIMAPOST
  1

  9
$DIMALT
 70
     0
  9
$DIMALTD
 70
     3
  9
$DIMALTF
 40
0.0393700787
  9
$DIMLFAC
 40
1.0
  9
$DIMTOFL
 70
     1
  9
$DIMTVP
 40
0.0
  9
$DIMTIX
 70
     0
  9
$DIMSOXD
 70
     0
  9
$DIMSAH
 70
     0
  9
$DIMBLK1
  1

  9
$DIMBLK2
  1

  9
$DIMSTYLE
  2
ISO-25
  9
$DIMCLRD
 70
     0
  9
$DIMCLRE
 70
     0
  9
$DIMCLRT
 70
     0
  9
$DIMTFAC
 40
1.0
  9
$DIMGAP
 40
1.524
  9
$DIMJUST
 70
     0
  9
$DIMSD1
 70
     0
  9
$DIMSD2
 70
     0
  9
$DIMTOLJ
 70
     0
  9
$DIMTZIN
 70
     1
  9
$DIMALTZ
 70
     0
  9
$DIMALTTZ
 70
     0
  9
$DIMUPT
 70
     0
  9
$DIMDEC
 70
     2
  9
$DIMTDEC
 70
     2
  9
$DIMALTU
 70
     2
  9
$DIMALTTD
 70
     3
  9
$DIMTXSTY
  7
Standard
  9
$DIMAUNIT
 70
     0
  9
$DIMADEC
 70
     2
  9
$DIMALTRND
 40
0.0
  9
$DIMAZIN
 70
     0
  9
$DIMDSEP
 70
    44
  9
$DIMATFIT
 70
     3
  9
$DIMFRAC
 70
     0
  9
$DIMLDRBLK
  1

  9
$DIMLUNIT
 70
     2
  9
$DIMLWD
 70
    -2
  9
$DIMLWE
 70
    -2
  9
$DIMTMOVE
 70
     0
  9
$LUNITS
 70
     2
  9
$LUPREC
 70
     2
  9
$SKETCHINC
 40
1.0
  9
$FILLETRAD
 40
10.0
  9
$AUNITS
 70
     0
  9
$AUPREC
 70
     2
  9
$MENU
  1
.
  9
$ELEVATION
 40
0.0
  9
$PELEVATION
 40
0.0
  9
$THICKNESS
 40
0.0
  9
$LIMCHECK
 70
     0
  9
$CHAMFERA
 40
0.0
  9
$CHAMFERB
 40
0.0
  9
$CHAMFERC
 40
0.0
  9
$CHAMFERD
 40
0.0
  9
$SKPOLY
 70
     0
  9
$TDCREATE
 40
2459856.803035231
  9
$TDUCREATE
 40
2459856.719701898
  9
$TDUPDATE
 40
2459856.803564445
  9
$TDUUPDATE
 40
2459856.720231111
  9
$TDINDWG
 40
0.0000000116
  9
$TDUSRTIMER
 40
0.0000000116
  9
$USRTIMER
 70
     1
  9
$ANGBASE
 50
0.0
  9
$ANGDIR
 70
     0
  9
$PDMODE
 70
     0
  9
$PDSIZE
 40
-1.0
  9
$PLINEWID
 40
0.0
  9
$SPLFRAME
 70
     0
  9
$SPLINETYPE
 70
     6
  9
$SPLINESEGS
 70
     8
  9
$HANDSEED
  5
34C
  9
$SURFTAB1
 70
     6
  9
$SURFTAB2
 70
     6
  9
$SURFTYPE
 70
     6
  9
$SURFU
 70
     6
  9
$SURFV
 70
     6
  9
$UCSBASE
  2

  9
$UCSNAME
  2

  9
$UCSORG
 10
0.0
 20
0.0
 30
0.0
  9
$UCSXDIR
 10
1.0
 20
0.0
 30
0.0
  9
$UCSYDIR
 10
0.0
 20
1.0
 30
0.0
  9
$UCSORTHOREF
  2

  9
$UCSORTHOVIEW
 70
     0
  9
$UCSORGTOP
 10
0.0
 20
0.0
 30
0.0
  9
$UCSORGBOTTOM
 10
0.0
 20
0.0
 30
0.0
  9
$UCSORGLEFT
 10
0.0
 20
0.0
 30
0.0
  9
$UCSORGRIGHT
 10
0.0
 20
0.0
 30
0.0
  9
$UCSORGFRONT
 10
0.0
 20
0.0
 30
0.0
  9
$UCSORGBACK
 10
0.0
 20
0.0
 30
0.0
  9
$PUCSBASE
  2

  9
$PUCSNAME
  2

  9
$PUCSORG
 10
0.0
 20
0.0
 30
0.0
  9
$PUCSXDIR
 10
1.0
 20
0.0
 30
0.0
  9
$PUCSYDIR
 10
0.0
 20
1.0
 30
0.0
  9
$PUCSORTHOREF
  2

  9
$PUCSORTHOVIEW
 70
     0
  9
$PUCSORGTOP
 10
0.0
 20
0.0
 30
0.0
  9
$PUCSORGBOTTOM
 10
0.0
 20
0.0
 30
0.0
  9
$PUCSORGLEFT
 10
0.0
 20
0.0
 30
0.0
  9
$PUCSORGRIGHT
 10
0.0
 20
0.0
 30
0.0
  9
$PUCSORGFRONT
 10
0.0
 20
0.0
 30
0.0
  9
$PUCSORGBACK
 10
0.0
 20
0.0
 30
0.0
  9
$USERI1
 70
     0
  9
$USERI2
 70
     0
  9
$USERI3
 70
     0
  9
$USERI4
 70
     0
  9
$USERI5
 70
     0
  9
$USERR1
 40
0.0
  9
$USERR2
 40
0.0
  9
$USERR3
 40
0.0
  9
$USERR4
 40
0.0
  9
$USERR5
 40
0.0
  9
$WORLDVIEW
 70
     1
  9
$SHADEDGE
 70
     3
  9
$SHADEDIF
 70
    70
  9
$TILEMODE
 70
     1
  9
$MAXACTVP
 70
    64
  9
$PINSBASE
 10
0.0
 20
0.0
 30
0.0
  9
$PLIMCHECK
 70
     0
  9
$PEXTMIN
 10
0.0
 20
-21.9919354839
 30
0.0
  9
$PEXTMAX
 10
75.3
 20
5.0080645161
 30
0.0
  9
$PLIMMIN
 10
-5.859922179
 20
-24.189406301
  9
$PLIMMAX
 10
81.159922179
 20
37.3397765784
  9
$UNITMODE
 70
     0
  9
$VISRETAIN
 70
     1
  9
$PLINEGEN
 70
     0
  9
$PSLTSCALE
 70
     1
  9
$TREEDEPTH
 70
  3020
  9
$CMLSTYLE
  2
Standard
  9
$CMLJUST
 70
     0
  9
$CMLSCALE
 40
20.0
  9
$PROXYGRAPHICS
 70
     1
  9
$MEASUREMENT
 70
     1
  9
$CELWEIGHT
370
    -1
  9
$ENDCAPS
280
     0
  9
$JOINSTYLE
280
     0
  9
$LWDISPLAY
290
     1
  9
$INSUNITS
 70
     4
  9
$HYPERLINKBASE
  1

  9
$STYLESHEET
  1

  9
$XEDIT
290
     1
  9
$CEPSNTYPE
380
     0
  9
$PSTYLEMODE
290
     1
  9
$FINGERPRINTGUID
  2
{8cf13aa5-d86f-4dea-a542-4182ba64fed7}
  9
$VERSIONGUID
  2
{FAEB1C32-E019-11D5-929B-00C0DF256EC4}
  9
$EXTNAMES
290
     1
  9
$PSVPSCALE
 40
0.0
  9
$OLESTARTUP
290
     0
  0
ENDSEC
  0
SECTION
  2
CLASSES
  0
CLASS
  1
ACDBDICTIONARYWDFLT
  2
AcDbDictionaryWithDefault
  3
ObjectDBX Classes
 90
        0
280
     0
281
     0
  0
CLASS
  1
VISUALSTYLE
  2
AcDbVisualStyle
  3
ObjectDBX Classes
 90
     4095
280
     0
281
     0
  0
CLASS
  1
MATERIAL
  2
AcDbMaterial
  3
ObjectDBX Classes
 90
     1153
280
     0
281
     0
  0
CLASS
  1
SCALE
  2
AcDbScale
  3
ObjectDBX Classes
 90
     1153
280
     0
281
     0
  0
CLASS
  1
TABLESTYLE
  2
AcDbTableStyle
  3
ObjectDBX Classes
 90
     4095
280
     0
281
     0
  0
CLASS
  1
MLEADERSTYLE
  2
AcDbMLeaderStyle
  3
ACDB_MLEADERSTYLE_CLASS
 90
     4095
280
     0
281
     0
  0
CLASS
  1
SUN
  2
AcDbSun
  3
SCENEOE
 90
     1153
280
     0
281
     0
  0
CLASS
  1
ACDBPLACEHOLDER
  2
AcDbPlaceHolder
  3
ObjectDBX Classes
 90
        0
280
     0
281
     0
  0
CLASS
  1
LAYOUT
  2
AcDbLayout
  3
ObjectDBX Classes
 90
        0
280
     0
281
     0
  0
ENDSEC
  0
SECTION
  2
TABLES
  0
TABLE
  2
VPORT
  5
8
330
0
100
AcDbSymbolTable
 70
     1
  0
VPORT
  5
29
330
8
100
AcDbSymbolTableRecord
100
AcDbViewportTableRecord
  2
*Active
 70
     0
 10
0.0
 20
0.0
 11
1.0
 21
1.0
 12
-8.4919354839
 22
-11.0
 13
0.0
 23
0.0
 14
10.0
 24
10.0
 15
10.0
 25
10.0
 16
0.0
 26
0.0
 36
1.0
 17
0.0
 27
0.0
 37
0.0
 40
53.04
 41
0.5192307692
 42
50.0
 43
0.0
 44
0.0
 50
0.0
 51
0.0
 71
     0
 72
   100
 73
     1
 74
     3
 75
     0
 76
     0
 77
     0
 78
     0
281
     0
 65
     1
110
0.0
120
0.0
130
0.0
111
1.0
121
0.0
131
0.0
112
0.0
122
1.0
132
0.0
 79
     0
146
0.0
  0
ENDTAB
  0
TABLE
  2
LTYPE
  5
5
330
0
100
AcDbSymbolTable
 70
     6
  0
LTYPE
  5
14
330
5
100
AcDbSymbolTableRecord
100
AcDbLinetypeTableRecord
  2
ByBlock
 70
     0
  3

 72
    65
 73
     0
 40
0.0
  0
LTYPE
  5
15
330
5
100
AcDbSymbolTableRecord
100
AcDbLinetypeTableRecord
  2
ByLayer
 70
     0
  3

 72
    65
 73
     0
 40
0.0
  0
LTYPE
  5
16
330
5
100
AcDbSymbolTableRecord
100
AcDbLinetypeTableRecord
  2
Continuous
 70
     0
  3
Solid line
 72
    65
 73
     0
 40
0.0
  0
LTYPE
  5
6E
330
5
100
AcDbSymbolTableRecord
100
AcDbLinetypeTableRecord
  2
HIDDEN
 70
     0
  3
Hidden __ __ __ __ __ __ __ __ __ __ __ __ __ __
 72
    65
 73
     2
 40
1.905
 49
1.27
 74
     0
 49
-0.635
 74
     0
  0
LTYPE
  5
6F
330
5
100
AcDbSymbolTableRecord
100
AcDbLinetypeTableRecord
  2
PHANTOM
 70
     0
  3
Phantom ______  __  __  ______  __  __  ______
 72
    65
 73
     6
 40
12.7
 49
6.35
 74
     0
 49
-1.27
 74
     0
 49
1.27
 74
     0
 49
-1.27
 74
     0
 49
1.27
 74
     0
 49
-1.27
 74
     0
  0
LTYPE
  5
70
330
5
100
AcDbSymbolTableRecord
100
AcDbLinetypeTableRecord
  2
CENTER
 70
     0
  3
Center ____ _ ____ _ ____ _ ____ _ ____ _ ____
 72
    65
 73
     4
 40
10.16
 49
6.35
 74
     0
 49
-1.27
 74
     0
 49
1.27
 74
     0
 49
-1.27
 74
     0
  0
LTYPE
  5
71
330
5
100
AcDbSymbolTableRecord
100
AcDbLinetypeTableRecord
  2
CENTERX2
 70
     0
  3
Center (2x) ________  __  ________  __  _____
 72
    65
 73
     4
 40
20.32
 49
12.7
 74
     0
 49
-2.54
 74
     0
 49
2.54
 74
     0
 49
-2.54
 74
     0
  0
LTYPE
  5
72
330
5
100
AcDbSymbolTableRecord
100
AcDbLinetypeTableRecord
  2
DOT2
 70
     0
  3
Dot (.5x) ........................................
 72
    65
 73
     2
 40
0.635
 49
0.0
 74
     0
 49
-0.635
 74
     0
  0
ENDTAB
  0
TABLE
  2
LAYER
  5
2
330
0
100
AcDbSymbolTable
 70
     1
  0
LAYER
  5
10
330
2
100
AcDbSymbolTableRecord
100
AcDbLayerTableRecord
  2
0
 70
     0
 62
     7
  6
Continuous
370
    -3
390
F
  0
ENDTAB
  0
TABLE
  2
STYLE
  5
3
330
0
100
AcDbSymbolTable
 70
     2
  0
STYLE
  5
11
330
3
100
AcDbSymbolTableRecord
100
AcDbTextStyleTableRecord
  2
Standard
 70
     0
 40
0.0
 41
1.0
 50
0.0
 71
     0
 42
3.5
  3
txt
  4

  0
STYLE
  5
340
330
3
100
AcDbSymbolTableRecord
100
AcDbTextStyleTableRecord
  2
SLDTEXTSTYLE0
 70
     0
 40
0.0
 41
0.7
 50
0.0
 71
     0
 42
3.5
  3
TXT
  4
bigfont
  0
ENDTAB
  0
TABLE
  2
VIEW
  5
6
330
0
100
AcDbSymbolTable
 70
     0
  0
ENDTAB
  0
TABLE
  2
UCS
  5
7
330
0
100
AcDbSymbolTable
 70
     0
  0
ENDTAB
  0
TABLE
  2
APPID
  5
9
330
0
100
AcDbSymbolTable
 70
     1
  0
APPID
  5
12
330
9
100
AcDbSymbolTableRecord
100
AcDbRegAppTableRecord
  2
ACAD
 70
     0
  0
ENDTAB
  0
TABLE
  2
DIMSTYLE
  5
A
330
0
100
AcDbSymbolTable
 70
     1
100
AcDbDimStyleTable
  0
DIMSTYLE
105
27
330
A
100
AcDbSymbolTableRecord
100
AcDbDimStyleTableRecord
  2
ISO-25
 70
     0
 41
2.5
 42
0.625
 43
3.75
 44
1.25
 73
     0
 74
     0
 77
     1
 78
     8
140
2.5
141
2.5
143
0.0393700787
147
0.625
171
     3
172
     1
178
     0
271
     2
272
     2
274
     3
278
    44
283
     0
284
     8
340
11
  0
ENDTAB
  0
TABLE
  2
BLOCK_RECORD
  5
1
330
0
100
AcDbSymbolTable
 70
     8
  0
BLOCK_RECORD
  5
1F
330
1
100
AcDbSymbolTableRecord
100
AcDbBlockTableRecord
  2
*Model_Space
340
22
  0
BLOCK_RECORD
  5
1B
330
1
100
AcDbSymbolTableRecord
100
AcDbBlockTableRecord
  2
*Paper_Space
340
1E
  0
BLOCK_RECORD
  5
23
330
1
100
AcDbSymbolTableRecord
100
AcDbBlockTableRecord
  2
*Paper_Space0
340
26
  0
BLOCK_RECORD
  5
DB
330
1
100
AcDbSymbolTableRecord
100
AcDbBlockTableRecord
  2
*Paper_Space1
340
DC
  0
BLOCK_RECORD
  5
12A
330
1
100
AcDbSymbolTableRecord
100
AcDbBlockTableRecord
  2
*Paper_Space2
340
12B
  0
BLOCK_RECORD
  5
179
330
1
100
AcDbSymbolTableRecord
100
AcDbBlockTableRecord
  2
*Paper_Space3
340
17A
  0
BLOCK_RECORD
  5
199
330
1
100
AcDbSymbolTableRecord
100
AcDbBlockTableRecord
  2
*Paper_Space4
340
19A
  0
BLOCK_RECORD
  5
1D9
330
1
100
AcDbSymbolTableRecord
100
AcDbBlockTableRecord
  2
*Paper_Space5
340
1DA
  0
BLOCK_RECORD
  5
248
330
1
100
AcDbSymbolTableRecord
100
AcDbBlockTableRecord
  2
*Paper_Space6
340
249
  0
BLOCK_RECORD
  5
2BB
330
1
100
AcDbSymbolTableRecord
100
AcDbBlockTableRecord
  2
*Paper_Space7
340
2BC
  0
ENDTAB
  0
ENDSEC
  0
SECTION
  2
BLOCKS
  0
BLOCK
  5
20
330
1F
100
AcDbEntity
  8
0
100
AcDbBlockBegin
  2
*Model_Space
 70
     0
 10
0.0
 20
0.0
 30
0.0
  3
*Model_Space
  1

  0
ENDBLK
  5
21
330
1F
100
AcDbEntity
  8
0
100
AcDbBlockEnd
  0
BLOCK
  5
1C
330
1B
100
AcDbEntity
 67
     1
  8
0
100
AcDbBlockBegin
  2
*Paper_Space
 70
     0
 10
0.0
 20
0.0
 30
0.0
  3
*Paper_Space
  1

  0
ENDBLK
  5
1D
330
1B
100
AcDbEntity
 67
     1
  8
0
100
AcDbBlockEnd
  0
BLOCK
  5
24
330
23
100
AcDbEntity
  8
0
100
AcDbBlockBegin
  2
*Paper_Space0
 70
     0
 10
0.0
 20
0.0
 30
0.0
  3
*Paper_Space0
  1

  0
CIRCLE
  5
C2
330
23
100
AcDbEntity
  8
0
  6
Continuous
 62
     7
370
    25
100
AcDbCircle
 10
-63.65
 20
-5.0
 30
0.0
 40
4.999999999999995
  0
CIRCLE
  5
C3
330
23
100
AcDbEntity
  8
0
  6
Continuous
 62
     7
370
    25
100
AcDbCircle
 10
-37.65
 20
-5.0
 30
0.0
 40
5.000000000000045
  0
CIRCLE
  5
C4
330
23
100
AcDbEntity
  8
0
  6
Continuous
 62
     7
370
    25
100
AcDbCircle
 10
-11.65
 20
-5.0
 30
0.0
 40
4.999999999999996
  0
CIRCLE
  5
C9
330
23
100
AcDbEntity
  8
0
  6
Continuous
 62
     7
370
    25
100
AcDbCircle
 10
-19.0
 20
-27.0
 30
0.0
 40
6.999999999999996
  0
CIRCLE
  5
CC
330
23
100
AcDbEntity
  8
0
  6
Continuous
 62
     7
370
    25
100
AcDbCircle
 10
-19.0
 20
-27.0
 30
0.0
 40
3.499999999999982
  0
LINE
  5
CD
330
23
100
AcDbEntity
  8
0
  6
Continuous
 62
     7
370
    25
100
AcDbLine
 10
-75.3
 20
-15.0
 30
0.0
 11
-75.3
 21
15.0
 31
0.0
  0
LINE
  5
CE
330
23
100
AcDbEntity
  8
0
  6
Continuous
 62
     7
370
    25
100
AcDbLine
 10
-75.3
 20
8.0
 30
0.0
 11
-72.3
 21
8.0
 31
0.0
  0
LINE
  5
CF
330
23
100
AcDbEntity
  8
0
  6
Continuous
 62
     7
370
    25
100
AcDbLine
 10
-72.3
 20
8.0
 30
0.0
 11
-72.3
 21
0.0
 31
0.0
  0
LINE
  5
D0
330
23
100
AcDbEntity
  8
0
  6
Continuous
 62
     7
370
    25
100
AcDbLine
 10
-75.3
 20
0.0
 30
0.0
 11
0.0
 21
0.0
 31
0.0
  0
LINE
  5
D1
330
23
100
AcDbEntity
  8
0
  6
Continuous
 62
     7
370
    25
100
AcDbLine
 10
-46.55
 20
10.2
 30
0.0
 11
-28.75
 21
10.2
 31
0.0
  0
LINE
  5
D2
330
23
100
AcDbEntity
  8
0
  6
Continuous
 62
     7
370
    25
100
AcDbLine
 10
-28.75
 20
10.2
 30
0.0
 11
-28.75
 21
15.0
 31
0.0
  0
LINE
  5
D3
330
23
100
AcDbEntity
  8
0
  6
Continuous
 62
     7
370
    25
100
AcDbLine
 10
0.0
 20
15.0
 30
0.0
 11
-28.75
 21
15.0
 31
0.0
  0
LINE
  5
D4
330
23
100
AcDbEntity
  8
0
  6
Continuous
 62
     7
370
    25
100
AcDbLine
 10
0.0
 20
-37.0
 30
0.0
 11
0.0
 21
15.0
 31
0.0
  0
LINE
  5
D5
330
23
100
AcDbEntity
  8
0
  6
Continuous
 62
     7
370
    25
100
AcDbLine
 10
-46.55
 20
15.0
 30
0.0
 11
-75.3
 21
15.0
 31
0.0
  0
LINE
  5
D6
330
23
100
AcDbEntity
  8
0
  6
Continuous
 62
     7
370
    25
100
AcDbLine
 10
-46.55
 20
15.0
 30
0.0
 11
-46.55
 21
10.2
 31
0.0
  0
LINE
  5
D7
330
23
100
AcDbEntity
  8
0
  6
Continuous
 62
     7
370
    25
100
AcDbLine
 10
-38.0
 20
-37.0
 30
0.0
 11
0.0
 21
-37.0
 31
0.0
  0
LINE
  5
D8
330
23
100
AcDbEntity
  8
0
  6
Continuous
 62
     7
370
    25
100
AcDbLine
 10
-38.0
 20
-37.0
 30
0.0
 11
-38.0
 21
-18.0
 31
0.0
  0
LINE
  5
D9
330
23
100
AcDbEntity
  8
0
  6
Continuous
 62
     7
370
    25
100
AcDbLine
 10
-41.0
 20
-15.0
 30
0.0
 11
-75.3
 21
-15.0
 31
0.0
  0
ARC
  5
DA
330
23
100
AcDbEntity
  8
0
  6
Continuous
 62
     7
370
    25
100
AcDbCircle
 10
-41.0
 20
-18.0
 30
0.0
 40
3.000000000000004
100
AcDbArc
 50
0.0
 51
90.0
  0
VIEWPORT
  5
330
330
23
100
AcDbEntity
  8
0
100
AcDbViewport
 10
0.0
 20
0.0
 30
0.0
 40
205.6
 41
156.0
 68
     1
 69
     1
 12
-8.4919354839
 22
-11.0
 13
0.0
 23
0.0
 14
10.0
 24
10.0
 15
10.0
 25
10.0
 16
0.0
 26
0.0
 36
1.0
 17
0.0
 27
0.0
 37
0.0
 42
50.0
 43
0.0
 44
0.0
 45
53.04
 50
0.0
 51
0.0
 72
   100
 90
   557152
  1

281
     0
 71
     1
 74
     0
110
0.0
120
0.0
130
0.0
111
1.0
121
0.0
131
0.0
112
0.0
122
1.0
132
0.0
 79
     0
146
0.0
  0
MTEXT
  5
343
330
23
100
AcDbEntity
  8
0
  6
Continuous
 62
     7
100
AcDbMText
 10
-75.3
 20
-38.0195663917
 30
0.0
 40
4.83362
 41
0.0
 71
     1
 72
     1
  1
Produit d'éducation SOLIDWORKS – A titre éducatif uniquement.
  7
SLDTEXTSTYLE0
 73
     1
 44
1.0
  0
ENDBLK
  5
25
330
23
100
AcDbEntity
  8
0
100
AcDbBlockEnd
  0
BLOCK
  5
DD
330
DB
100
AcDbEntity
  8
0
100
AcDbBlockBegin
  2
*Paper_Space1
 70
     0
 10
0.0
 20
0.0
 30
0.0
  3
*Paper_Space1
  1

  0
CIRCLE
  5
109
330
DB
100
AcDbEntity
  8
0
  6
Continuous
 62
     7
370
    25
100
AcDbCircle
 10
19.0
 20
-27.0
 30
0.0
 40
3.499999999999993
  0
LINE
  5
10D
330
DB
100
AcDbEntity
  8
0
  6
Continuous
 62
     7
370
    25
100
AcDbLine
 10
75.3
 20
14.0
 30
0.0
 11
46.55
 21
14.0
 31
0.0
  0
LINE
  5
10E
330
DB
100
AcDbEntity
  8
0
  6
Continuous
 62
     7
370
    25
100
AcDbLine
 10
46.55
 20
15.0
 30
0.0
 11
46.55
 21
8.0161785944
 31
0.0
  0
LINE
  5
10F
330
DB
100
AcDbEntity
  8
0
  6
Continuous
 62
     7
370
    25
100
AcDbLine
 10
46.55
 20
15.0
 30
0.0
 11
75.3
 21
15.0
 31
0.0
  0
LINE
  5
110
330
DB
100
AcDbEntity
  8
0
  6
Continuous
 62
     7
370
    25
100
AcDbLine
 10
75.3
 20
15.0
 30
0.0
 11
75.3
 21
-15.0
 31
0.0
  0
LINE
  5
111
330
DB
100
AcDbEntity
  8
0
  6
Continuous
 62
     7
370
    25
100
AcDbLine
 10
0.0
 20
3.0
 30
0.0
 11
75.3
 21
3.0
 31
0.0
  0
LINE
  5
112
330
DB
100
AcDbEntity
  8
0
  6
Continuous
 62
     7
370
    25
100
AcDbLine
 10
28.75
 20
14.0
 30
0.0
 11
0.0
 21
14.0
 31
0.0
  0
LINE
  5
113
330
DB
100
AcDbEntity
  8
0
  6
Continuous
 62
     7
370
    25
100
AcDbLine
 10
46.55
 20
8.0161785944
 30
0.0
 11
28.75
 21
8.0161785944
 31
0.0
  0
LINE
  5
114
330
DB
100
AcDbEntity
  8
0
  6
Continuous
 62
     7
370
    25
100
AcDbLine
 10
0.0
 20
15.0
 30
0.0
 11
0.0
 21
-37.0
 31
0.0
  0
LINE
  5
115
330
DB
100
AcDbEntity
  8
0
  6
Continuous
 62
     7
370
    25
100
AcDbLine
 10
28.75
 20
8.0161785944
 30
0.0
 11
28.75
 21
15.0
 31
0.0
  0
LINE
  5
116
330
DB
100
AcDbEntity
  8
0
  6
Continuous
 62
     7
370
    25
100
AcDbLine
 10
0.0
 20
15.0
 30
0.0
 11
28.75
 21
15.0
 31
0.0
  0
LINE
  5
117
330
DB
100
AcDbEntity
  8
0
  6
Continuous
 62
     7
370
    25
100
AcDbLine
 10
75.3
 20
0.0
 30
0.0
 11
0.0
 21
0.0
 31
0.0
  0
LINE
  5
118
330
DB
100
AcDbEntity
  8
0
  6
Continuous
 62
     7
370
    25
100
AcDbLine
 10
28.75
 20
10.2
 30
0.0
 11
46.55
 21
10.2
 31
0.0
  0
LINE
  5
119
330
DB
100
AcDbEntity
  8
0
  6
Continuous
 62
     7
370
    25
100
AcDbLine
 10
40.65
 20
0.0
 30
0.0
 11
40.65
 21
-1.0
 31
0.0
  0
LINE
  5
11A
330
DB
100
AcDbEntity
  8
0
  6
Continuous
 62
     7
370
    25
100
AcDbLine
 10
66.65
 20
0.0
 30
0.0
 11
66.65
 21
-1.0
 31
0.0
  0
LINE
  5
11B
330
DB
100
AcDbEntity
  8
0
  6
Continuous
 62
     7
370
    25
100
AcDbLine
 10
14.65
 20
0.0
 30
0.0
 11
14.65
 21
-1.0
 31
0.0
  0
LINE
  5
11C
330
DB
100
AcDbEntity
  8
0
  6
Continuous
 62
     7
370
    25
100
AcDbLine
 10
60.65
 20
0.0
 30
0.0
 11
60.65
 21
-1.0
 31
0.0
  0
LINE
  5
11D
330
DB
100
AcDbEntity
  8
0
  6
Continuous
 62
     7
370
    25
100
AcDbLine
 10
8.65
 20
0.0
 30
0.0
 11
8.65
 21
-1.0
 31
0.0
  0
LINE
  5
11E
330
DB
100
AcDbEntity
  8
0
  6
Continuous
 62
     7
370
    25
100
AcDbLine
 10
34.65
 20
0.0
 30
0.0
 11
34.65
 21
-1.0
 31
0.0
  0
LINE
  5
11F
330
DB
100
AcDbEntity
  8
0
  6
Continuous
 62
     7
370
    25
100
AcDbLine
 10
60.65
 20
-1.0
 30
0.0
 11
40.65
 21
-1.0
 31
0.0
  0
LINE
  5
120
330
DB
100
AcDbEntity
  8
0
  6
Continuous
 62
     7
370
    25
100
AcDbLine
 10
75.3
 20
-1.0
 30
0.0
 11
66.65
 21
-1.0
 31
0.0
  0
LINE
  5
121
330
DB
100
AcDbEntity
  8
0
  6
Continuous
 62
     7
370
    25
100
AcDbLine
 10
34.65
 20
-1.0
 30
0.0
 11
14.65
 21
-1.0
 31
0.0
  0
LINE
  5
122
330
DB
100
AcDbEntity
  8
0
  6
Continuous
 62
     7
370
    25
100
AcDbLine
 10
8.65
 20
-1.0
 30
0.0
 11
0.0
 21
-1.0
 31
0.0
  0
LINE
  5
123
330
DB
100
AcDbEntity
  8
0
  6
Continuous
 62
     7
370
    25
100
AcDbLine
 10
41.0
 20
-15.0
 30
0.0
 11
75.3
 21
-15.0
 31
0.0
  0
LINE
  5
124
330
DB
100
AcDbEntity
  8
0
  6
Continuous
 62
     7
370
    25
100
AcDbLine
 10
38.0
 20
-37.0
 30
0.0
 11
38.0
 21
-18.0
 31
0.0
  0
LINE
  5
125
330
DB
100
AcDbEntity
  8
0
  6
Continuous
 62
     7
370
    25
100
AcDbLine
 10
38.0
 20
-37.0
 30
0.0
 11
0.0
 21
-37.0
 31
0.0
  0
ARC
  5
126
330
DB
100
AcDbEntity
  8
0
  6
Continuous
 62
     7
370
    25
100
AcDbCircle
 10
37.65
 20
-5.0
 30
0.0
 40
5.000000000000002
100
AcDbArc
 50
53.1301023542
 51
126.8698976458
  0
ARC
  5
127
330
DB
100
AcDbEntity
  8
0
  6
Continuous
 62
     7
370
    25
100
AcDbCircle
 10
63.65
 20
-5.0
 30
0.0
 40
5.00000000000004
100
AcDbArc
 50
53.1301023542
 51
126.8698976458
  0
ARC
  5
128
330
DB
100
AcDbEntity
  8
0
  6
Continuous
 62
     7
370
    25
100
AcDbCircle
 10
11.65
 20
-5.0
 30
0.0
 40
5.000000000000002
100
AcDbArc
 50
53.1301023542
 51
126.8698976458
  0
ARC
  5
129
330
DB
100
AcDbEntity
  8
0
  6
Continuous
 62
     7
370
    25
100
AcDbCircle
 10
41.0
 20
-18.0
 30
0.0
 40
2.999999999999993
100
AcDbArc
 50
90.0
 51
180.0
  0
VIEWPORT
  5
332
330
DB
100
AcDbEntity
  8
0
100
AcDbViewport
 10
0.0
 20
0.0
 30
0.0
 40
205.6
 41
156.0
 68
     1
 69
     1
 12
-8.4919354839
 22
-11.0
 13
0.0
 23
0.0
 14
10.0
 24
10.0
 15
10.0
 25
10.0
 16
0.0
 26
0.0
 36
1.0
 17
0.0
 27
0.0
 37
0.0
 42
50.0
 43
0.0
 44
0.0
 45
53.04
 50
0.0
 51
0.0
 72
   100
 90
   557152
  1

281
     0
 71
     1
 74
     0
110
0.0
120
0.0
130
0.0
111
1.0
121
0.0
131
0.0
112
0.0
122
1.0
132
0.0
 79
     0
146
0.0
  0
MTEXT
  5
344
330
DB
100
AcDbEntity
  8
0
  6
Continuous
 62
     7
100
AcDbMText
 10
0.0
 20
-38.0195663917
 30
0.0
 40
4.83362
 41
0.0
 71
     1
 72
     1
  1
Produit d'éducation SOLIDWORKS – A titre éducatif uniquement.
  7
SLDTEXTSTYLE0
 73
     1
 44
1.0
  0
ENDBLK
  5
DE
330
DB
100
AcDbEntity
  8
0
100
AcDbBlockEnd
  0
BLOCK
  5
12C
330
12A
100
AcDbEntity
  8
0
100
AcDbBlockBegin
  2
*Paper_Space2
 70
     0
 10
0.0
 20
0.0
 30
0.0
  3
*Paper_Space2
  1

  0
CIRCLE
  5
158
330
12A
100
AcDbEntity
  8
0
  6
Continuous
 62
     7
370
    25
100
AcDbCircle
 10
19.0
 20
-27.0
 30
0.0
 40
3.499999999999993
  0
LINE
  5
15C
330
12A
100
AcDbEntity
  8
0
  6
Continuous
 62
     7
370
    25
100
AcDbLine
 10
75.3
 20
14.0
 30
0.0
 11
46.55
 21
14.0
 31
0.0
  0
LINE
  5
15D
330
12A
100
AcDbEntity
  8
0
  6
Continuous
 62
     7
370
    25
100
AcDbLine
 10
46.55
 20
15.0
 30
0.0
 11
46.55
 21
8.0161785944
 31
0.0
  0
LINE
  5
15E
330
12A
100
AcDbEntity
  8
0
  6
Continuous
 62
     7
370
    25
100
AcDbLine
 10
46.55
 20
15.0
 30
0.0
 11
75.3
 21
15.0
 31
0.0
  0
LINE
  5
15F
330
12A
100
AcDbEntity
  8
0
  6
Continuous
 62
     7
370
    25
100
AcDbLine
 10
75.3
 20
15.0
 30
0.0
 11
75.3
 21
-15.0
 31
0.0
  0
LINE
  5
160
330
12A
100
AcDbEntity
  8
0
  6
Continuous
 62
     7
370
    25
100
AcDbLine
 10
0.0
 20
3.0
 30
0.0
 11
75.3
 21
3.0
 31
0.0
  0
LINE
  5
161
330
12A
100
AcDbEntity
  8
0
  6
Continuous
 62
     7
370
    25
100
AcDbLine
 10
28.75
 20
14.0
 30
0.0
 11
0.0
 21
14.0
 31
0.0
  0
LINE
  5
162
330
12A
100
AcDbEntity
  8
0
  6
Continuous
 62
     7
370
    25
100
AcDbLine
 10
46.55
 20
8.0161785944
 30
0.0
 11
28.75
 21
8.0161785944
 31
0.0
  0
LINE
  5
163
330
12A
100
AcDbEntity
  8
0
  6
Continuous
 62
     7
370
    25
100
AcDbLine
 10
0.0
 20
15.0
 30
0.0
 11
0.0
 21
-37.0
 31
0.0
  0
LINE
  5
164
330
12A
100
AcDbEntity
  8
0
  6
Continuous
 62
     7
370
    25
100
AcDbLine
 10
28.75
 20
8.0161785944
 30
0.0
 11
28.75
 21
15.0
 31
0.0
  0
LINE
  5
165
330
12A
100
AcDbEntity
  8
0
  6
Continuous
 62
     7
370
    25
100
AcDbLine
 10
0.0
 20
15.0
 30
0.0
 11
28.75
 21
15.0
 31
0.0
  0
LINE
  5
166
330
12A
100
AcDbEntity
  8
0
  6
Continuous
 62
     7
370
    25
100
AcDbLine
 10
75.3
 20
0.0
 30
0.0
 11
0.0
 21
0.0
 31
0.0
  0
LINE
  5
167
330
12A
100
AcDbEntity
  8
0
  6
Continuous
 62
     7
370
    25
100
AcDbLine
 10
28.75
 20
10.2
 30
0.0
 11
46.55
 21
10.2
 31
0.0
  0
LINE
  5
168
330
12A
100
AcDbEntity
  8
0
  6
Continuous
 62
     7
370
    25
100
AcDbLine
 10
40.65
 20
0.0
 30
0.0
 11
40.65
 21
-1.0
 31
0.0
  0
LINE
  5
169
330
12A
100
AcDbEntity
  8
0
  6
Continuous
 62
     7
370
    25
100
AcDbLine
 10
66.65
 20
0.0
 30
0.0
 11
66.65
 21
-1.0
 31
0.0
  0
LINE
  5
16A
330
12A
100
AcDbEntity
  8
0
  6
Continuous
 62
     7
370
    25
100
AcDbLine
 10
14.65
 20
0.0
 30
0.0
 11
14.65
 21
-1.0
 31
0.0
  0
LINE
  5
16B
330
12A
100
AcDbEntity
  8
0
  6
Continuous
 62
     7
370
    25
100
AcDbLine
 10
60.65
 20
0.0
 30
0.0
 11
60.65
 21
-1.0
 31
0.0
  0
LINE
  5
16C
330
12A
100
AcDbEntity
  8
0
  6
Continuous
 62
     7
370
    25
100
AcDbLine
 10
8.65
 20
0.0
 30
0.0
 11
8.65
 21
-1.0
 31
0.0
  0
LINE
  5
16D
330
12A
100
AcDbEntity
  8
0
  6
Continuous
 62
     7
370
    25
100
AcDbLine
 10
34.65
 20
0.0
 30
0.0
 11
34.65
 21
-1.0
 31
0.0
  0
LINE
  5
16E
330
12A
100
AcDbEntity
  8
0
  6
Continuous
 62
     7
370
    25
100
AcDbLine
 10
60.65
 20
-1.0
 30
0.0
 11
40.65
 21
-1.0
 31
0.0
  0
LINE
  5
16F
330
12A
100
AcDbEntity
  8
0
  6
Continuous
 62
     7
370
    25
100
AcDbLine
 10
75.3
 20
-1.0
 30
0.0
 11
66.65
 21
-1.0
 31
0.0
  0
LINE
  5
170
330
12A
100
AcDbEntity
  8
0
  6
Continuous
 62
     7
370
    25
100
AcDbLine
 10
34.65
 20
-1.0
 30
0.0
 11
14.65
 21
-1.0
 31
0.0
  0
LINE
  5
171
330
12A
100
AcDbEntity
  8
0
  6
Continuous
 62
     7
370
    25
100
AcDbLine
 10
8.65
 20
-1.0
 30
0.0
 11
0.0
 21
-1.0
 31
0.0
  0
LINE
  5
172
330
12A
100
AcDbEntity
  8
0
  6
Continuous
 62
     7
370
    25
100
AcDbLine
 10
41.0
 20
-15.0
 30
0.0
 11
75.3
 21
-15.0
 31
0.0
  0
LINE
  5
173
330
12A
100
AcDbEntity
  8
0
  6
Continuous
 62
     7
370
    25
100
AcDbLine
 10
38.0
 20
-37.0
 30
0.0
 11
38.0
 21
-18.0
 31
0.0
  0
LINE
  5
174
330
12A
100
AcDbEntity
  8
0
  6
Continuous
 62
     7
370
    25
100
AcDbLine
 10
38.0
 20
-37.0
 30
0.0
 11
0.0
 21
-37.0
 31
0.0
  0
ARC
  5
175
330
12A
100
AcDbEntity
  8
0
  6
Continuous
 62
     7
370
    25
100
AcDbCircle
 10
37.65
 20
-5.0
 30
0.0
 40
5.000000000000002
100
AcDbArc
 50
53.1301023542
 51
126.8698976458
  0
ARC
  5
176
330
12A
100
AcDbEntity
  8
0
  6
Continuous
 62
     7
370
    25
100
AcDbCircle
 10
63.65
 20
-5.0
 30
0.0
 40
5.00000000000004
100
AcDbArc
 50
53.1301023542
 51
126.8698976458
  0
ARC
  5
177
330
12A
100
AcDbEntity
  8
0
  6
Continuous
 62
     7
370
    25
100
AcDbCircle
 10
11.65
 20
-5.0
 30
0.0
 40
5.000000000000002
100
AcDbArc
 50
53.1301023542
 51
126.8698976458
  0
ARC
  5
178
330
12A
100
AcDbEntity
  8
0
  6
Continuous
 62
     7
370
    25
100
AcDbCircle
 10
41.0
 20
-18.0
 30
0.0
 40
2.999999999999993
100
AcDbArc
 50
90.0
 51
180.0
  0
VIEWPORT
  5
334
330
12A
100
AcDbEntity
  8
0
100
AcDbViewport
 10
0.0
 20
0.0
 30
0.0
 40
205.6
 41
156.0
 68
     1
 69
     1
 12
-8.4919354839
 22
-11.0
 13
0.0
 23
0.0
 14
10.0
 24
10.0
 15
10.0
 25
10.0
 16
0.0
 26
0.0
 36
1.0
 17
0.0
 27
0.0
 37
0.0
 42
50.0
 43
0.0
 44
0.0
 45
53.04
 50
0.0
 51
0.0
 72
   100
 90
   557152
  1

281
     0
 71
     1
 74
     0
110
0.0
120
0.0
130
0.0
111
1.0
121
0.0
131
0.0
112
0.0
122
1.0
132
0.0
 79
     0
146
0.0
  0
MTEXT
  5
345
330
12A
100
AcDbEntity
  8
0
  6
Continuous
 62
     7
100
AcDbMText
 10
0.0
 20
-38.0195663917
 30
0.0
 40
4.83362
 41
0.0
 71
     1
 72
     1
  1
Produit d'éducation SOLIDWORKS – A titre éducatif uniquement.
  7
SLDTEXTSTYLE0
 73
     1
 44
1.0
  0
ENDBLK
  5
12D
330
12A
100
AcDbEntity
  8
0
100
AcDbBlockEnd
  0
BLOCK
  5
17B
330
179
100
AcDbEntity
  8
0
100
AcDbBlockBegin
  2
*Paper_Space3
 70
     0
 10
0.0
 20
0.0
 30
0.0
  3
*Paper_Space3
  1

  0
CIRCLE
  5
187
330
179
100
AcDbEntity
  8
0
  6
Continuous
 62
     7
370
    25
100
AcDbCircle
 10
14.9919354839
 20
6.0
 30
0.0
 40
3.950000000000001
  0
LINE
  5
18C
330
179
100
AcDbEntity
  8
0
  6
Continuous
 62
     7
370
    25
100
AcDbLine
 10
12.9919354839
 20
-1.0
 30
0.0
 11
12.9919354839
 21
-37.0
 31
0.0
  0
LINE
  5
18D
330
179
100
AcDbEntity
  8
0
  6
Continuous
 62
     7
370
    25
100
AcDbLine
 10
12.9919354839
 20
-37.0
 30
0.0
 11
5.9919354839
 21
-37.0
 31
0.0
  0
LINE
  5
18E
330
179
100
AcDbEntity
  8
0
  6
Continuous
 62
     7
370
    25
100
AcDbLine
 10
5.9919354839
 20
-37.0
 30
0.0
 11
5.9919354839
 21
0.0
 31
0.0
  0
LINE
  5
18F
330
179
100
AcDbEntity
  8
0
  6
Continuous
 62
     7
370
    25
100
AcDbLine
 10
1.9919354839
 20
0.0
 30
0.0
 11
1.9919354839
 21
15.0
 31
0.0
  0
LINE
  5
190
330
179
100
AcDbEntity
  8
0
  6
Continuous
 62
     7
370
    25
100
AcDbLine
 10
1.9919354839
 20
15.0
 30
0.0
 11
20.9919354839
 21
15.0
 31
0.0
  0
LINE
  5
191
330
179
100
AcDbEntity
  8
0
  6
Continuous
 62
     7
370
    25
100
AcDbLine
 10
21.9919354839
 20
14.0
 30
0.0
 11
20.9919354839
 21
15.0
 31
0.0
  0
LINE
  5
192
330
179
100
AcDbEntity
  8
0
  6
Continuous
 62
     7
370
    25
100
AcDbLine
 10
21.9919354839
 20
14.0
 30
0.0
 11
21.9919354839
 21
3.0
 31
0.0
  0
LINE
  5
193
330
179
100
AcDbEntity
  8
0
  6
Continuous
 62
     7
370
    25
100
AcDbLine
 10
18.9919354839
 20
0.0
 30
0.0
 11
21.9919354839
 21
3.0
 31
0.0
  0
LINE
  5
194
330
179
100
AcDbEntity
  8
0
  6
Continuous
 62
     7
370
    25
100
AcDbLine
 10
18.9919354839
 20
0.0
 30
0.0
 11
13.9919354839
 21
0.0
 31
0.0
  0
LINE
  5
195
330
179
100
AcDbEntity
  8
0
  6
Continuous
 62
     7
370
    25
100
AcDbLine
 10
5.9919354839
 20
0.0
 30
0.0
 11
-5.0080645161
 21
0.0
 31
0.0
  0
LINE
  5
196
330
179
100
AcDbEntity
  8
0
  6
Continuous
 62
     7
370
    25
100
AcDbLine
 10
1.9919354839
 20
8.0
 30
0.0
 11
-5.0080645161
 21
8.0
 31
0.0
  0
LINE
  5
197
330
179
100
AcDbEntity
  8
0
  6
Continuous
 62
     7
370
    25
100
AcDbLine
 10
-5.0080645161
 20
8.0
 30
0.0
 11
-5.0080645161
 21
0.0
 31
0.0
  0
ARC
  5
198
330
179
100
AcDbEntity
  8
0
  6
Continuous
 62
     7
370
    25
100
AcDbCircle
 10
13.9919354839
 20
-1.0
 30
0.0
 40
1.000000000000016
100
AcDbArc
 50
90.0
 51
180.0
  0
VIEWPORT
  5
336
330
179
100
AcDbEntity
  8
0
100
AcDbViewport
 10
0.0
 20
0.0
 30
0.0
 40
205.6
 41
156.0
 68
     1
 69
     1
 12
-8.4919354839
 22
-11.0
 13
0.0
 23
0.0
 14
10.0
 24
10.0
 15
10.0
 25
10.0
 16
0.0
 26
0.0
 36
1.0
 17
0.0
 27
0.0
 37
0.0
 42
50.0
 43
0.0
 44
0.0
 45
53.04
 50
0.0
 51
0.0
 72
   100
 90
   557152
  1

281
     0
 71
     1
 74
     0
110
0.0
120
0.0
130
0.0
111
1.0
121
0.0
131
0.0
112
0.0
122
1.0
132
0.0
 79
     0
146
0.0
  0
MTEXT
  5
346
330
179
100
AcDbEntity
  8
0
  6
Continuous
 62
     7
100
AcDbMText
 10
-5.0080645161
 20
-38.0195663917
 30
0.0
 40
4.83362
 41
0.0
 71
     1
 72
     1
  1
Produit d'éducation SOLIDWORKS – A titre éducatif uniquement.
  7
SLDTEXTSTYLE0
 73
     1
 44
1.0
  0
ENDBLK
  5
17C
330
179
100
AcDbEntity
  8
0
100
AcDbBlockEnd
  0
BLOCK
  5
19B
330
199
100
AcDbEntity
  8
0
100
AcDbBlockBegin
  2
*Paper_Space4
 70
     0
 10
0.0
 20
0.0
 30
0.0
  3
*Paper_Space4
  1

  0
SPLINE
  5
1A8
330
199
100
AcDbEntity
  8
0
  6
Continuous
 62
     7
370
    25
100
AcDbSpline
210
0.0
220
0.0
230
1.0
 70
     8
 71
     3
 72
    14
 73
    10
 74
     0
 42
0.00000001
 43
0.00000001
 40
0.0
 40
0.0
 40
0.0
 40
0.0
 40
0.25
 40
0.25
 40
0.5
 40
0.5
 40
0.75
 40
0.75
 40
1.0
 40
1.0
 40
1.0
 40
1.0
 10
8.650000000000006
 20
13.99193548387095
 30
0.0
 10
8.918165067603658
 20
13.99193548387095
 30
0.0
 10
9.18311175209585
 20
13.95395831983316
 30
0.0
 10
9.69859408709947
 20
13.8350938620467
 30
0.0
 10
9.951641088029639
 20
13.75330560731271
 30
0.0
 10
10.4495235410891
 20
13.56358749120553
 30
0.0
 10
10.69277434089897
 20
13.45623190624643
 30
0.0
 10
11.17400971595066
 20
13.22995578342664
 30
0.0
 10
11.41026846159991
 20
13.11180065376493
 30
0.0
 10
11.65
 20
12.99193548387095
 30
0.0
  0
SPLINE
  5
1AA
330
199
100
AcDbEntity
  8
0
  6
Continuous
 62
     7
370
    25
100
AcDbSpline
210
0.0
220
0.0
230
1.0
 70
     8
 71
     3
 72
    14
 73
    10
 74
     0
 42
0.00000001
 43
0.00000001
 40
0.0
 40
0.0
 40
0.0
 40
0.0
 40
0.25
 40
0.25
 40
0.5
 40
0.5
 40
0.75
 40
0.75
 40
1.0
 40
1.0
 40
1.0
 40
1.0
 10
60.65000000000001
 20
13.99193548387095
 30
0.0
 10
60.91816506760365
 20
13.99193548387095
 30
0.0
 10
61.18311175209586
 20
13.95395831983316
 30
0.0
 10
61.69859408709947
 20
13.8350938620467
 30
0.0
 10
61.95164108802965
 20
13.75330560731271
 30
0.0
 10
62.44952354108912
 20
13.56358749120553
 30
0.0
 10
62.69277434089897
 20
13.45623190624644
 30
0.0
 10
63.17400971595065
 20
13.22995578342664
 30
0.0
 10
63.41026846160347
 20
13.11180065377207
 30
0.0
 10
63.65
 20
12.99193548387095
 30
0.0
  0
SPLINE
  5
1AC
330
199
100
AcDbEntity
  8
0
  6
Continuous
 62
     7
370
    25
100
AcDbSpline
210
0.0
220
0.0
230
1.0
 70
     8
 71
     3
 72
    14
 73
    10
 74
     0
 42
0.00000001
 43
0.00000001
 40
0.0
 40
0.0
 40
0.0
 40
0.0
 40
0.25
 40
0.25
 40
0.5
 40
0.5
 40
0.75
 40
0.75
 40
1.0
 40
1.0
 40
1.0
 40
1.0
 10
34.65000000000001
 20
13.99193548387095
 30
0.0
 10
34.91816506760367
 20
13.99193548387095
 30
0.0
 10
35.18311175209585
 20
13.95395831983316
 30
0.0
 10
35.69859408709947
 20
13.8350938620467
 30
0.0
 10
35.95164108802964
 20
13.75330560731271
 30
0.0
 10
36.44952354108909
 20
13.56358749120553
 30
0.0
 10
36.69277434089896
 20
13.45623190624644
 30
0.0
 10
37.17400971595067
 20
13.22995578342665
 30
0.0
 10
37.41026846160683
 20
13.11180065377878
 30
0.0
 10
37.65
 20
12.99193548387095
 30
0.0
  0
SPLINE
  5
1B6
330
199
100
AcDbEntity
  8
0
  6
Continuous
 62
     7
370
    25
100
AcDbSpline
210
0.0
220
0.0
230
1.0
 70
     8
 71
     3
 72
    14
 73
    10
 74
     0
 42
0.00000001
 43
0.00000001
 40
0.0
 40
0.0
 40
0.0
 40
0.0
 40
0.25
 40
0.25
 40
0.5
 40
0.5
 40
0.75
 40
0.75
 40
1.0
 40
1.0
 40
1.0
 40
1.0
 10
66.64999999999998
 20
13.99193548387095
 30
0.0
 10
66.38183493239633
 20
13.99193548387095
 30
0.0
 10
66.11688824790416
 20
13.95395831983316
 30
0.0
 10
65.60140591290049
 20
13.8350938620467
 30
0.0
 10
65.34835891197035
 20
13.75330560731271
 30
0.0
 10
64.85047645891089
 20
13.56358749120553
 30
0.0
 10
64.60722565910103
 20
13.45623190624643
 30
0.0
 10
64.12599028404937
 20
13.22995578342664
 30
0.0
 10
63.88973153839652
 20
13.11180065377204
 30
0.0
 10
63.65
 20
12.99193548387095
 30
0.0
  0
SPLINE
  5
1B7
330
199
100
AcDbEntity
  8
0
  6
Continuous
 62
     7
370
    25
100
AcDbSpline
210
0.0
220
0.0
230
1.0
 70
     8
 71
     3
 72
    14
 73
    10
 74
     0
 42
0.00000001
 43
0.00000001
 40
0.0
 40
0.0
 40
0.0
 40
0.0
 40
0.25
 40
0.25
 40
0.5
 40
0.5
 40
0.75
 40
0.75
 40
1.0
 40
1.0
 40
1.0
 40
1.0
 10
14.64999999999998
 20
13.99193548387095
 30
0.0
 10
14.38183493239632
 20
13.99193548387095
 30
0.0
 10
14.11688824790414
 20
13.95395831983316
 30
0.0
 10
13.60140591290052
 20
13.83509386204669
 30
0.0
 10
13.34835891197035
 20
13.75330560731271
 30
0.0
 10
12.85047645891089
 20
13.56358749120553
 30
0.0
 10
12.60722565910102
 20
13.45623190624643
 30
0.0
 10
12.12599028404934
 20
13.22995578342663
 30
0.0
 10
11.88973153839983
 20
13.11180065376545
 30
0.0
 10
11.65
 20
12.99193548387095
 30
0.0
  0
SPLINE
  5
1B8
330
199
100
AcDbEntity
  8
0
  6
Continuous
 62
     7
370
    25
100
AcDbSpline
210
0.0
220
0.0
230
1.0
 70
     8
 71
     3
 72
    14
 73
    10
 74
     0
 42
0.00000001
 43
0.00000001
 40
0.0
 40
0.0
 40
0.0
 40
0.0
 40
0.25
 40
0.25
 40
0.5
 40
0.5
 40
0.75
 40
0.75
 40
1.0
 40
1.0
 40
1.0
 40
1.0
 10
40.64999999999996
 20
13.99193548387095
 30
0.0
 10
40.38183493239632
 20
13.99193548387095
 30
0.0
 10
40.11688824790413
 20
13.95395831983316
 30
0.0
 10
39.60140591290052
 20
13.8350938620467
 30
0.0
 10
39.34835891197035
 20
13.75330560731271
 30
0.0
 10
38.8504764589109
 20
13.56358749120553
 30
0.0
 10
38.60722565910103
 20
13.45623190624644
 30
0.0
 10
38.12599028404932
 20
13.22995578342664
 30
0.0
 10
37.88973153839318
 20
13.11180065377872
 30
0.0
 10
37.65
 20
12.99193548387095
 30
0.0
  0
LINE
  5
1C4
330
199
100
AcDbEntity
  8
0
  6
Continuous
 62
     7
370
    25
100
AcDbLine
 10
75.3
 20
12.9919354839
 30
0.0
 11
0.0
 21
12.9919354839
 31
0.0
  0
LINE
  5
1C5
330
199
100
AcDbEntity
  8
0
  6
Continuous
 62
     7
370
    25
100
AcDbLine
 10
38.0
 20
12.9919354839
 30
0.0
 11
38.0
 21
5.9919354839
 31
0.0
  0
LINE
  5
1C6
330
199
100
AcDbEntity
  8
0
  6
Continuous
 62
     7
370
    25
100
AcDbLine
 10
75.3
 20
5.9919354839
 30
0.0
 11
0.0
 21
5.9919354839
 31
0.0
  0
LINE
  5
1C7
330
199
100
AcDbEntity
  8
0
  6
Continuous
 62
     7
370
    25
100
AcDbLine
 10
0.0
 20
21.9919354839
 30
0.0
 11
0.0
 21
1.9919354839
 31
0.0
  0
LINE
  5
1C8
330
199
100
AcDbEntity
  8
0
  6
Continuous
 62
     7
370
    25
100
AcDbLine
 10
41.0
 20
12.9919354839
 30
0.0
 11
41.0
 21
5.9919354839
 31
0.0
  0
LINE
  5
1C9
330
199
100
AcDbEntity
  8
0
  6
Continuous
 62
     7
370
    25
100
AcDbLine
 10
75.3
 20
21.9919354839
 30
0.0
 11
75.3
 21
-5.0080645161
 31
0.0
  0
LINE
  5
1CA
330
199
100
AcDbEntity
  8
0
  6
Continuous
 62
     7
370
    25
100
AcDbLine
 10
8.65
 20
13.9919354839
 30
0.0
 11
8.65
 21
12.9919354839
 31
0.0
  0
LINE
  5
1CB
330
199
100
AcDbEntity
  8
0
  6
Continuous
 62
     7
370
    25
100
AcDbLine
 10
60.65
 20
13.9919354839
 30
0.0
 11
60.65
 21
12.9919354839
 31
0.0
  0
LINE
  5
1CC
330
199
100
AcDbEntity
  8
0
  6
Continuous
 62
     7
370
    25
100
AcDbLine
 10
34.65
 20
13.9919354839
 30
0.0
 11
34.65
 21
12.9919354839
 31
0.0
  0
LINE
  5
1CD
330
199
100
AcDbEntity
  8
0
  6
Continuous
 62
     7
370
    25
100
AcDbLine
 10
40.65
 20
13.9919354839
 30
0.0
 11
60.65
 21
13.9919354839
 31
0.0
  0
LINE
  5
1CE
330
199
100
AcDbEntity
  8
0
  6
Continuous
 62
     7
370
    25
100
AcDbLine
 10
40.65
 20
13.9919354839
 30
0.0
 11
40.65
 21
12.9919354839
 31
0.0
  0
LINE
  5
1CF
330
199
100
AcDbEntity
  8
0
  6
Continuous
 62
     7
370
    25
100
AcDbLine
 10
14.65
 20
13.9919354839
 30
0.0
 11
34.65
 21
13.9919354839
 31
0.0
  0
LINE
  5
1D0
330
199
100
AcDbEntity
  8
0
  6
Continuous
 62
     7
370
    25
100
AcDbLine
 10
14.65
 20
13.9919354839
 30
0.0
 11
14.65
 21
12.9919354839
 31
0.0
  0
LINE
  5
1D1
330
199
100
AcDbEntity
  8
0
  6
Continuous
 62
     7
370
    25
100
AcDbLine
 10
0.0
 20
13.9919354839
 30
0.0
 11
8.65
 21
13.9919354839
 31
0.0
  0
LINE
  5
1D2
330
199
100
AcDbEntity
  8
0
  6
Continuous
 62
     7
370
    25
100
AcDbLine
 10
66.65
 20
13.9919354839
 30
0.0
 11
66.65
 21
12.9919354839
 31
0.0
  0
LINE
  5
1D3
330
199
100
AcDbEntity
  8
0
  6
Continuous
 62
     7
370
    25
100
AcDbLine
 10
66.65
 20
13.9919354839
 30
0.0
 11
75.3
 21
13.9919354839
 31
0.0
  0
LINE
  5
1D4
330
199
100
AcDbEntity
  8
0
  6
Continuous
 62
     7
370
    25
100
AcDbLine
 10
75.3
 20
-5.0080645161
 30
0.0
 11
72.3
 21
-5.0080645161
 31
0.0
  0
LINE
  5
1D5
330
199
100
AcDbEntity
  8
0
  6
Continuous
 62
     7
370
    25
100
AcDbLine
 10
72.3
 20
1.9919354839
 30
0.0
 11
72.3
 21
-5.0080645161
 31
0.0
  0
LINE
  5
1D6
330
199
100
AcDbEntity
  8
0
  6
Continuous
 62
     7
370
    25
100
AcDbLine
 10
72.3
 20
1.9919354839
 30
0.0
 11
0.0
 21
1.9919354839
 31
0.0
  0
LINE
  5
1D7
330
199
100
AcDbEntity
  8
0
  6
Continuous
 62
     7
370
    25
100
AcDbLine
 10
75.3
 20
18.9919354839
 30
0.0
 11
0.0
 21
18.9919354839
 31
0.0
  0
LINE
  5
1D8
330
199
100
AcDbEntity
  8
0
  6
Continuous
 62
     7
370
    25
100
AcDbLine
 10
0.0
 20
21.9919354839
 30
0.0
 11
75.3
 21
21.9919354839
 31
0.0
  0
VIEWPORT
  5
338
330
199
100
AcDbEntity
  8
0
100
AcDbViewport
 10
0.0
 20
0.0
 30
0.0
 40
205.6
 41
156.0
 68
     1
 69
     1
 12
-8.4919354839
 22
-11.0
 13
0.0
 23
0.0
 14
10.0
 24
10.0
 15
10.0
 25
10.0
 16
0.0
 26
0.0
 36
1.0
 17
0.0
 27
0.0
 37
0.0
 42
50.0
 43
0.0
 44
0.0
 45
53.04
 50
0.0
 51
0.0
 72
   100
 90
   557152
  1

281
     0
 71
     1
 74
     0
110
0.0
120
0.0
130
0.0
111
1.0
121
0.0
131
0.0
112
0.0
122
1.0
132
0.0
 79
     0
146
0.0
  0
MTEXT
  5
347
330
199
100
AcDbEntity
  8
0
  6
Continuous
 62
     7
100
AcDbMText
 10
0.0
 20
-6.0276309078
 30
0.0
 40
4.83362
 41
0.0
 71
     1
 72
     1
  1
Produit d'éducation SOLIDWORKS – A titre éducatif uniquement.
  7
SLDTEXTSTYLE0
 73
     1
 44
1.0
  0
ENDBLK
  5
19C
330
199
100
AcDbEntity
  8
0
100
AcDbBlockEnd
  0
BLOCK
  5
1DB
330
1D9
100
AcDbEntity
  8
0
100
AcDbBlockBegin
  2
*Paper_Space5
 70
     0
 10
0.0
 20
0.0
 30
0.0
  3
*Paper_Space5
  1

  0
LWPOLYLINE
  5
1ED
330
1D9
100
AcDbEntity
  8
0
  6
Continuous
 62
     7
370
    25
100
AcDbPolyline
 90
       49
 70
   128
 43
0.0
 10
45.4373131653
 20
-30.3458833884
 10
45.413418049
 20
-29.9386868917
 10
45.3421415521
 20
-29.5660463541
 10
45.2247032352
 20
-29.2343377583
 10
45.0631125006
 20
-28.9492367305
 10
44.8601342104
 20
-28.7156214284
 10
44.6192413796
 20
-28.5374890744
 10
44.3445557512
 20
-28.4178875625
 10
44.0407772724
 20
-28.3588633079
 10
43.7131036774
 20
-28.3614262318
 10
43.3671415521
 20
-28.4255324819
 10
43.0088104044
 20
-28.5500851825
 10
42.6442413796
 20
-28.7329532023
 10
42.2796723548
 20
-28.9710076189
 10
41.9213412071
 20
-29.2601752552
 10
41.5753790818
 20
-29.5955083726
 10
41.2477054867
 20
-29.9712693287
 10
40.943927008
 20
-30.3810287493
 10
40.6692413796
 20
-30.8177755371
 10
40.4283485487
 20
-31.2740368335
 10
40.2253702586
 20
-31.7420058811
 10
40.063779524
 20
-32.2136755998
 10
39.9463412071
 20
-32.6809755901
 10
39.8750647102
 20
-33.1359102194
 10
39.8511695939
 20
-33.5706954301
 10
39.8750647102
 20
-33.9778919268
 10
39.9463412071
 20
-34.3505324645
 10
40.063779524
 20
-34.6822410603
 10
40.2253702586
 20
-34.967342088
 10
40.4283485487
 20
-35.2009573902
 10
40.6692413796
 20
-35.3790897442
 10
40.943927008
 20
-35.498691256
 10
41.2477054867
 20
-35.5577155107
 10
41.5753790818
 20
-35.5551525868
 10
41.9213412071
 20
-35.4910463367
 10
42.2796723548
 20
-35.3664936361
 10
42.6442413796
 20
-35.1836256162
 10
43.0088104044
 20
-34.9455711997
 10
43.3671415521
 20
-34.6564035634
 10
43.7131036774
 20
-34.3210704459
 10
44.0407772724
 20
-33.9453094898
 10
44.3445557512
 20
-33.5355500692
 10
44.6192413796
 20
-33.0988032815
 10
44.8601342104
 20
-32.6425419851
 10
45.0631125006
 20
-32.1745729375
 10
45.2247032352
 20
-31.7029032187
 10
45.3421415521
 20
-31.2356032285
 10
45.413418049
 20
-30.7806685992
 10
45.4373131653
 20
-30.3458833884
  0
LWPOLYLINE
  5
1F9
330
1D9
100
AcDbEntity
  8
0
  6
Continuous
 62
     7
370
    25
100
AcDbPolyline
 90
       11
 70
   128
 43
0.0
 10
17.6833720037
 20
-35.5128494972
 10
17.7094889773
 20
-35.1447211299
 10
17.7871968114
 20
-34.8158113205
 10
17.9145820813
 20
-34.5342189202
 10
18.0885081388
 20
-34.3068776684
 10
18.3046923473
 20
-34.1393854612
 10
18.5578115339
 20
-34.0358665127
 10
18.8416330644
 20
-33.998869803
 10
19.1491683106
 20
-34.0293063137
 10
19.4728447341
 20
-34.1264265971
 10
19.8046923473
 20
-34.2878392293
  0
LWPOLYLINE
  5
1FD
330
1D9
100
AcDbEntity
  8
0
  6
Continuous
 62
     7
370
    25
100
AcDbPolyline
 90
       26
 70
   128
 43
0.0
 10
2.5153506052
 20
-16.9572511842
 10
2.4897883299
 20
-17.0758215925
 10
2.3713237433
 20
-17.4613724341
 10
2.2080860326
 20
-17.8021566927
 10
2.0022764593
 20
-18.0935788906
 10
1.7566703667
 20
-18.3317091976
 10
1.4745797543
 20
-18.5133364254
 10
1.1598086156
 20
-18.6360113296
 10
0.8166016413
 20
-18.6980796385
 10
0.4495869795
 20
-18.6987043606
 10
0.0637138248
 20
-18.6378770715
 10
-0.3358143209
 20
-18.5164180275
 10
-0.7436098183
 20
-18.3359651046
 10
-1.1541735428
 20
-18.0989517114
 10
-1.5619690402
 20
-17.8085739749
 10
-1.961497186
 20
-17.4687476406
 10
-2.3473703406
 20
-17.0840552685
 10
-2.7143850025
 20
-16.6596844375
 10
-3.0575919767
 20
-16.2013577907
 10
-3.3723631154
 20
-15.7152558656
 10
-3.6544537278
 20
-15.2079337493
 10
-3.9000598204
 20
-14.6862326837
 10
-4.1058693937
 20
-14.1571878104
 10
-4.2691071044
 20
-13.6279333028
 10
-4.387571691
 20
-13.1056061608
 10
-4.4131339663
 20
-12.9575221777
  0
LWPOLYLINE
  5
1FE
330
1D9
100
AcDbEntity
  8
0
  6
Continuous
 62
     7
370
    25
100
AcDbPolyline
 90
       26
 70
   128
 43
0.0
 10
20.900126916
 20
-27.5705566379
 10
20.8745646407
 20
-27.6891270462
 10
20.7561000541
 20
-28.0746778878
 10
20.5928623435
 20
-28.4154621464
 10
20.3870527702
 20
-28.7068843443
 10
20.1414466775
 20
-28.9450146513
 10
19.8593560651
 20
-29.1266418791
 10
19.5445849265
 20
-29.2493167833
 10
19.2013779522
 20
-29.3113850922
 10
18.8343632903
 20
-29.3120098143
 10
18.4484901357
 20
-29.2511825252
 10
18.04896199
 20
-29.1297234812
 10
17.6411664925
 20
-28.9492705582
 10
17.230602768
 20
-28.7122571651
 10
16.8228072706
 20
-28.4218794286
 10
16.4232791249
 20
-28.0820530943
 10
16.0374059703
 20
-27.6973607222
 10
15.6703913084
 20
-27.2729898912
 10
15.3271843341
 20
-26.8146632444
 10
15.0124131955
 20
-26.3285613193
 10
14.7303225831
 20
-25.821239203
 10
14.4847164904
 20
-25.2995381374
 10
14.2789069171
 20
-24.7704932641
 10
14.1156692064
 20
-24.2412387565
 10
13.9972046198
 20
-23.7189116145
 10
13.9716423446
 20
-23.5708276314
  0
LWPOLYLINE
  5
1FF
330
1D9
100
AcDbEntity
  8
0
  6
Continuous
 62
     7
370
    25
100
AcDbPolyline
 90
       26
 70
   128
 43
0.0
 10
39.2849032269
 20
-38.1838620916
 10
39.2593409516
 20
-38.3024324999
 10
39.140876365
 20
-38.6879833415
 10
38.9776386543
 20
-39.0287676001
 10
38.771829081
 20
-39.3201897979
 10
38.5262229884
 20
-39.558320105
 10
38.244132376
 20
-39.7399473328
 10
37.9293612373
 20
-39.862622237
 10
37.586154263
 20
-39.9246905459
 10
37.2191396012
 20
-39.925315268
 10
36.8332664465
 20
-39.8644879789
 10
36.4337383008
 20
-39.7430289349
 10
36.0259428034
 20
-39.5625760119
 10
35.6153790789
 20
-39.3255626187
 10
35.2075835815
 20
-39.0351848823
 10
34.8080554357
 20
-38.695358548
 10
34.4221822811
 20
-38.3106661759
 10
34.0551676192
 20
-37.8862953449
 10
33.711960645
 20
-37.4279686981
 10
33.3971895063
 20
-36.941866773
 10
33.1150988939
 20
-36.4345446567
 10
32.8694928013
 20
-35.9128435911
 10
32.663683228
 20
-35.3837987178
 10
32.5004455173
 20
-34.8545442102
 10
32.3819809307
 20
-34.3322170682
 10
32.3564186554
 20
-34.1841330851
  0
LWPOLYLINE
  5
200
330
1D9
100
AcDbEntity
  8
0
  6
Continuous
 62
     7
370
    25
100
AcDbPolyline
 90
       47
 70
   128
 43
0.0
 10
4.2483431612
 20
-32.2479469003
 10
4.5853384245
 20
-32.469108693
 10
4.9160561037
 20
-32.7393877962
 10
5.2343355541
 20
-33.0537494217
 10
5.5342478318
 20
-33.4063376072
 10
5.8102061385
 20
-33.7905843018
 10
6.0570698931
 20
-34.1993317168
 10
6.270240491
 20
-34.624965661
 10
6.4457469671
 20
-35.0595573796
 10
6.580319968
 20
-35.4950112509
 10
6.6714526533
 20
-35.9232155934
 10
6.7174473934
 20
-36.3361937704
 10
6.7174473934
 20
-36.7262527797
 10
6.6714526533
 20
-37.08612656
 10
6.580319968
 20
-37.4091113438
 10
6.4457469671
 20
-37.6891905356
 10
6.270240491
 20
-37.9211467899
 10
6.0570698931
 20
-38.1006592008
 10
5.8102061385
 20
-38.2243837915
 10
5.5342478318
 20
-38.2900158071
 10
5.2343355541
 20
-38.2963326473
 10
4.9160561037
 20
-38.2432166414
 10
4.5853384245
 20
-38.1316572399
 10
4.2483431612
 20
-37.9637325835
 10
3.9113478978
 20
-37.7425707908
 10
3.5806302187
 20
-37.4722916875
 10
3.2623507682
 20
-37.1579300621
 10
2.9624384905
 20
-36.8053418766
 10
2.6864801838
 20
-36.421095182
 10
2.4396164292
 20
-36.012347767
 10
2.2264458314
 20
-35.5867138228
 10
2.0509393552
 20
-35.1521221042
 10
1.9163663543
 20
-34.7166682328
 10
1.825233669
 20
-34.2884638903
 10
1.7792389289
 20
-33.8754857134
 10
1.7792389289
 20
-33.4854267041
 10
1.825233669
 20
-33.1255529238
 10
1.9163663543
 20
-32.80256814
 10
2.0509393552
 20
-32.5224889482
 10
2.2264458314
 20
-32.2905326938
 10
2.4396164292
 20
-32.111020283
 10
2.6864801838
 20
-31.9872956922
 10
2.9624384905
 20
-31.9216636766
 10
3.2623507682
 20
-31.9153468364
 10
3.5806302187
 20
-31.9684628424
 10
3.9113478978
 20
-32.0800222439
 10
4.2483431612
 20
-32.2479469003
  0
LWPOLYLINE
  5
206
330
1D9
100
AcDbEntity
  8
0
  6
Continuous
 62
     7
370
    25
100
AcDbPolyline
 90
       43
 70
   128
 43
0.0
 10
18.8500981927
 20
-11.5271190707
 10
19.1899579795
 20
-11.6959601372
 10
19.5696126514
 20
-11.8336737611
 10
19.9805813504
 20
-11.9371836476
 10
20.4136837147
 20
-12.0041775568
 10
20.8592449534
 20
-12.0331589556
 10
21.3073119645
 20
-12.0234804473
 10
21.7478756715
 20
-11.9753582338
 10
22.1710946092
 20
-11.889867286
 10
22.5675147658
 20
-11.7689173301
 10
22.9282807701
 20
-11.6152101886
 10
23.2453337057
 20
-11.4321794248
 10
23.5115911339
 20
-11.2239136435
 10
23.7211053038
 20
-10.9950651583
 10
23.8691960151
 20
-10.7507460661
 10
23.9525551659
 20
-10.4964140517
 10
23.9693206506
 20
-10.2377504719
 10
23.9191179559
 20
-9.9805334439
 10
23.8030685271
 20
-9.7305087708
 10
23.6237647167
 20
-9.4932615909
 10
23.3852118755
 20
-9.274091614
 10
23.0927388798
 20
-9.0778947352
 10
22.7528790929
 20
-8.9090536686
 10
22.373224421
 20
-8.7713400447
 10
21.9622557221
 20
-8.6678301582
 10
21.5291533577
 20
-8.600836249
 10
21.0835921191
 20
-8.5718548503
 10
20.6355251079
 20
-8.5815333586
 10
20.1949614009
 20
-8.629655572
 10
19.7717424633
 20
-8.7151465199
 10
19.3753223067
 20
-8.8360964757
 10
19.0145563024
 20
-8.9898036173
 10
18.6975033668
 20
-9.1728343811
 10
18.4312459385
 20
-9.3811001623
 10
18.2217317686
 20
-9.6099486475
 10
18.0736410574
 20
-9.8542677398
 10
17.9902819065
 20
-10.1085997542
 10
17.9735164219
 20
-10.3672633339
 10
18.0237191165
 20
-10.624480362
 10
18.1397685453
 20
-10.874505035
 10
18.3190723557
 20
-11.111752215
 10
18.5576251969
 20
-11.3309221919
 10
18.8500981927
 20
-11.5271190707
  0
LINE
  5
216
330
1D9
100
AcDbEntity
  8
0
  6
Continuous
 62
     7
370
    25
100
AcDbLine
 10
37.6944939113
 20
-28.2833913056
 30
0.0
 11
17.3651739522
 21
-16.5475246981
 31
0.0
  0
LINE
  5
217
330
1D9
100
AcDbEntity
  8
0
  6
Continuous
 62
     7
370
    25
100
AcDbLine
 10
17.3651739522
 20
-16.5475246981
 30
0.0
 11
18.0722807334
 21
-15.3227798303
 31
0.0
  0
LINE
  5
218
330
1D9
100
AcDbEntity
  8
0
  6
Continuous
 62
     7
370
    25
100
AcDbLine
 10
18.0722807334
 20
-15.3227798303
 30
0.0
 11
38.4016006925
 21
-27.0586464378
 31
0.0
  0
LINE
  5
219
330
1D9
100
AcDbEntity
  8
0
  6
Continuous
 62
     7
370
    25
100
AcDbLine
 10
38.4016006925
 20
-27.0586464378
 30
0.0
 11
37.6944939113
 21
-28.2833913056
 31
0.0
  0
LINE
  5
21A
330
1D9
100
AcDbEntity
  8
0
  6
Continuous
 62
     7
370
    25
100
AcDbLine
 10
51.836629535
 20
-19.3027693755
 30
0.0
 11
38.4016006925
 21
-27.0586464378
 31
0.0
  0
LINE
  5
21B
330
1D9
100
AcDbEntity
  8
0
  6
Continuous
 62
     7
370
    25
100
AcDbLine
 10
51.836629535
 20
-19.3027693755
 30
0.0
 11
51.836629535
 21
-25.0185550587
 31
0.0
  0
LINE
  5
21C
330
1D9
100
AcDbEntity
  8
0
  6
Continuous
 62
     7
370
    25
100
AcDbLine
 10
51.836629535
 20
-25.0185550587
 30
0.0
 11
56.7863770033
 21
-22.1611266673
 31
0.0
  0
LINE
  5
21D
330
1D9
100
AcDbEntity
  8
0
  6
Continuous
 62
     7
370
    25
100
AcDbLine
 10
56.7863770033
 20
-28.6934531624
 30
0.0
 11
56.7863770033
 21
-22.1611266673
 31
0.0
  0
LINE
  5
21E
330
1D9
100
AcDbEntity
  8
0
  6
Continuous
 62
     7
370
    25
100
AcDbLine
 10
49.0082024103
 20
-33.1836977774
 30
0.0
 11
56.7863770033
 21
-28.6934531624
 31
0.0
  0
LINE
  5
21F
330
1D9
100
AcDbEntity
  8
0
  6
Continuous
 62
     7
370
    25
100
AcDbLine
 10
49.0082024103
 20
-45.4318099557
 30
0.0
 11
49.0082024103
 21
-33.1836977774
 31
0.0
  0
LINE
  5
220
330
1D9
100
AcDbEntity
  8
0
  6
Continuous
 62
     7
370
    25
100
AcDbLine
 10
44.058454942
 20
-48.2892383471
 30
0.0
 11
49.0082024103
 21
-45.4318099557
 31
0.0
  0
LINE
  5
221
330
1D9
100
AcDbEntity
  8
0
  6
Continuous
 62
     7
370
    25
100
AcDbLine
 10
44.058454942
 20
-36.8576669807
 30
0.0
 11
44.058454942
 21
-48.2892383471
 31
0.0
  0
LINE
  5
222
330
1D9
100
AcDbEntity
  8
0
  6
Continuous
 62
     7
370
    25
100
AcDbLine
 10
39.8158142548
 20
-38.4903505042
 30
0.0
 11
43.3513481608
 21
-36.4493302247
 31
0.0
  0
LINE
  5
223
330
1D9
100
AcDbEntity
  8
0
  6
Continuous
 62
     7
370
    25
100
AcDbLine
 10
37.6944939113
 20
-37.2653402363
 30
0.0
 11
39.8158142548
 21
-38.4903505042
 31
0.0
  0
LINE
  5
224
330
1D9
100
AcDbEntity
  8
0
  6
Continuous
 62
     7
370
    25
100
AcDbLine
 10
37.6944939113
 20
-28.2833913056
 30
0.0
 11
37.6944939113
 21
-37.2653402363
 31
0.0
  0
LINE
  5
225
330
1D9
100
AcDbEntity
  8
0
  6
Continuous
 62
     7
370
    25
100
AcDbLine
 10
17.3651739522
 20
-16.5475246981
 30
0.0
 11
17.3651739522
 21
-21.4335590868
 31
0.0
  0
LINE
  5
226
330
1D9
100
AcDbEntity
  8
0
  6
Continuous
 62
     7
370
    25
100
AcDbLine
 10
-15.5506467121
 20
-6.5275748262
 30
0.0
 11
37.6944939113
 21
-37.2653402363
 31
0.0
  0
LINE
  5
227
330
1D9
100
AcDbEntity
  8
0
  6
Continuous
 62
     7
370
    25
100
AcDbLine
 10
-15.5506467121
 20
2.4543741045
 30
0.0
 11
-15.5506467121
 21
-6.5275748262
 31
0.0
  0
LINE
  5
228
330
1D9
100
AcDbEntity
  8
0
  6
Continuous
 62
     7
370
    25
100
AcDbLine
 10
4.7786732471
 20
-9.2814925029
 30
0.0
 11
-15.5506467121
 21
2.4543741045
 31
0.0
  0
LINE
  5
229
330
1D9
100
AcDbEntity
  8
0
  6
Continuous
 62
     7
370
    25
100
AcDbLine
 10
4.7786732471
 20
-14.1675268916
 30
0.0
 11
4.7786732471
 21
-9.2814925029
 31
0.0
  0
LINE
  5
22A
330
1D9
100
AcDbEntity
  8
0
  6
Continuous
 62
     7
370
    25
100
AcDbLine
 10
17.3651739522
 20
-21.4335590868
 30
0.0
 11
4.7786732471
 21
-14.1675268916
 31
0.0
  0
LINE
  5
22B
330
1D9
100
AcDbEntity
  8
0
  6
Continuous
 62
     7
370
    25
100
AcDbLine
 10
31.5073095759
 20
-7.566902768
 30
0.0
 11
51.836629535
 21
-19.3027693755
 31
0.0
  0
LINE
  5
22C
330
1D9
100
AcDbEntity
  8
0
  6
Continuous
 62
     7
370
    25
100
AcDbLine
 10
18.0722807334
 20
-15.3227798303
 30
0.0
 11
31.5073095759
 21
-7.566902768
 31
0.0
  0
LINE
  5
22D
330
1D9
100
AcDbEntity
  8
0
  6
Continuous
 62
     7
370
    25
100
AcDbLine
 10
39.8158142548
 20
-38.4903505042
 30
0.0
 11
-13.4293263685
 21
-7.7525850941
 31
0.0
  0
LINE
  5
22E
330
1D9
100
AcDbEntity
  8
0
  6
Continuous
 62
     7
370
    25
100
AcDbLine
 10
-13.4293263685
 20
-7.7525850941
 30
0.0
 11
-15.5506467121
 21
-6.5275748262
 31
0.0
  0
LINE
  5
22F
330
1D9
100
AcDbEntity
  8
0
  6
Continuous
 62
     7
370
    25
100
AcDbLine
 10
19.8046923473
 20
-34.2878392293
 30
0.0
 11
44.058454942
 21
-48.2892383471
 31
0.0
  0
LINE
  5
230
330
1D9
100
AcDbEntity
  8
0
  6
Continuous
 62
     7
370
    25
100
AcDbLine
 10
17.6833720037
 20
-51.0271249231
 30
0.0
 11
17.6833720037
 21
-35.5128494972
 31
0.0
  0
LINE
  5
231
330
1D9
100
AcDbEntity
  8
0
  6
Continuous
 62
     7
370
    25
100
AcDbLine
 10
17.6833720037
 20
-51.0271249231
 30
0.0
 11
-9.1866856814
 21
-35.5153707984
 31
0.0
  0
LINE
  5
232
330
1D9
100
AcDbEntity
  8
0
  6
Continuous
 62
     7
370
    25
100
AcDbLine
 10
-9.1866856814
 20
-10.2018094296
 30
0.0
 11
-9.1866856814
 21
-35.5153707984
 31
0.0
  0
LINE
  5
233
330
1D9
100
AcDbEntity
  8
0
  6
Continuous
 62
     7
370
    25
100
AcDbLine
 10
51.836629535
 20
-22.5693307232
 30
0.0
 11
54.6650566598
 21
-20.9365144996
 31
0.0
  0
LINE
  5
234
330
1D9
100
AcDbEntity
  8
0
  6
Continuous
 62
     7
370
    25
100
AcDbLine
 10
56.7863770033
 20
-22.1611266673
 30
0.0
 11
54.6650566598
 21
-20.9365144996
 31
0.0
  0
LINE
  5
235
330
1D9
100
AcDbEntity
  8
0
  6
Continuous
 62
     7
370
    25
100
AcDbLine
 10
4.7786732471
 20
-14.1675268916
 30
0.0
 11
9.0213139342
 21
-9.9351232526
 31
0.0
  0
LINE
  5
236
330
1D9
100
AcDbEntity
  8
0
  6
Continuous
 62
     7
370
    25
100
AcDbLine
 10
9.0213139342
 20
-9.9351232526
 30
0.0
 11
18.213150406
 21
-15.2414574993
 31
0.0
  0
LINE
  5
237
330
1D9
100
AcDbEntity
  8
0
  6
Continuous
 62
     7
370
    25
100
AcDbLine
 10
9.0213139342
 20
-9.9351232526
 30
0.0
 11
18.9208088708
 21
-4.2202664698
 31
0.0
  0
LINE
  5
238
330
1D9
100
AcDbEntity
  8
0
  6
Continuous
 62
     7
370
    25
100
AcDbLine
 10
28.1126453426
 20
-9.5266007165
 30
0.0
 11
18.9208088708
 21
-4.2202664698
 31
0.0
  0
LINE
  5
239
330
1D9
100
AcDbEntity
  8
0
  6
Continuous
 62
     7
370
    25
100
AcDbLine
 10
-15.5506467121
 20
2.4543741045
 30
0.0
 11
-14.8435399309
 21
3.6791189723
 31
0.0
  0
LINE
  5
23A
330
1D9
100
AcDbEntity
  8
0
  6
Continuous
 62
     7
370
    25
100
AcDbLine
 10
-14.8435399309
 20
3.6791189723
 30
0.0
 11
5.4857800282
 21
-8.0567476351
 31
0.0
  0
LINE
  5
23B
330
1D9
100
AcDbEntity
  8
0
  6
Continuous
 62
     7
370
    25
100
AcDbLine
 10
5.4857800282
 20
-8.0567476351
 30
0.0
 11
4.7786732471
 21
-9.2814925029
 31
0.0
  0
LINE
  5
23C
330
1D9
100
AcDbEntity
  8
0
  6
Continuous
 62
     7
370
    25
100
AcDbLine
 10
5.4857800282
 20
-8.0567476351
 30
0.0
 11
18.9208088708
 21
-0.3008705728
 31
0.0
  0
LINE
  5
23D
330
1D9
100
AcDbEntity
  8
0
  6
Continuous
 62
     7
370
    25
100
AcDbLine
 10
18.9208088708
 20
-4.2202664698
 30
0.0
 11
18.9208088708
 21
-0.3008705728
 31
0.0
  0
LINE
  5
23E
330
1D9
100
AcDbEntity
  8
0
  6
Continuous
 62
     7
370
    25
100
AcDbLine
 10
-1.4085110883
 20
11.4349960347
 30
0.0
 11
-14.8435399309
 21
3.6791189723
 31
0.0
  0
LINE
  5
23F
330
1D9
100
AcDbEntity
  8
0
  6
Continuous
 62
     7
370
    25
100
AcDbLine
 10
-1.4085110883
 20
11.4349960347
 30
0.0
 11
18.9208088708
 21
-0.3008705728
 31
0.0
  0
LINE
  5
240
330
1D9
100
AcDbEntity
  8
0
  6
Continuous
 62
     7
370
    25
100
AcDbLine
 10
17.6833720037
 20
-51.0271249231
 30
0.0
 11
22.633119472
 21
-48.1696965317
 31
0.0
  0
LINE
  5
241
330
1D9
100
AcDbEntity
  8
0
  6
Continuous
 62
     7
370
    25
100
AcDbLine
 10
22.633119472
 20
-48.1696965317
 30
0.0
 11
22.633119472
 21
-35.920655453
 31
0.0
  0
LINE
  5
242
330
1D9
100
AcDbEntity
  8
0
  6
Continuous
 62
     8
370
    25
100
AcDbLine
 10
44.058454942
 20
-36.8576669807
 30
0.0
 11
43.3512332267
 21
-36.4493965747
 31
0.0
  0
LINE
  5
243
330
1D9
100
AcDbEntity
  8
0
  6
Continuous
 62
     8
370
    25
100
AcDbLine
 10
19.8050371495
 20
-34.2880382794
 30
0.0
 11
17.6833720037
 21
-35.5128494972
 31
0.0
  0
ARC
  5
244
330
1D9
100
AcDbEntity
  8
0
  6
Continuous
 62
     7
370
    25
100
AcDbCircle
 10
43.6273805745
 20
-36.7877397838
 30
0.0
 40
0.4367091974284922
100
AcDbArc
 50
350.7859630095
 51
129.2032852357
  0
ARC
  5
245
330
1D9
100
AcDbEntity
  8
0
  6
Continuous
 62
     7
370
    25
100
AcDbCircle
 10
20.9714185362
 20
-14.2745040569
 30
0.0
 40
4.117797288419029
100
AcDbArc
 50
50.0225310034
 51
129.9774689966
  0
ARC
  5
246
330
1D9
100
AcDbEntity
  8
0
  6
Continuous
 62
     7
370
    25
100
AcDbCircle
 10
16.0546289389
 20
-28.290216037
 30
0.0
 40
11.95920026366303
100
AcDbArc
 50
202.1249149641
 51
217.8697085032
  0
ARC
  5
247
330
1D9
100
AcDbEntity
  8
0
  6
Continuous
 62
     7
370
    25
100
AcDbCircle
 10
10.1430736314
 20
-31.7028842753
 30
0.0
 40
5.569251205859499
100
AcDbArc
 50
188.2679053788
 51
231.7267180885
  0
VIEWPORT
  5
33A
330
1D9
100
AcDbEntity
  8
0
100
AcDbViewport
 10
0.0
 20
0.0
 30
0.0
 40
205.6
 41
156.0
 68
     1
 69
     1
 12
-8.4919354839
 22
-11.0
 13
0.0
 23
0.0
 14
10.0
 24
10.0
 15
10.0
 25
10.0
 16
0.0
 26
0.0
 36
1.0
 17
0.0
 27
0.0
 37
0.0
 42
50.0
 43
0.0
 44
0.0
 45
53.04
 50
0.0
 51
0.0
 72
   100
 90
   557152
  1

281
     0
 71
     1
 74
     0
110
0.0
120
0.0
130
0.0
111
1.0
121
0.0
131
0.0
112
0.0
122
1.0
132
0.0
 79
     0
146
0.0
  0
MTEXT
  5
348
330
1D9
100
AcDbEntity
  8
0
  6
Continuous
 62
     7
100
AcDbMText
 10
-15.5506467121
 20
-52.0466913147
 30
0.0
 40
4.83362
 41
0.0
 71
     1
 72
     1
  1
Produit d'éducation SOLIDWORKS – A titre éducatif uniquement.
  7
SLDTEXTSTYLE0
 73
     1
 44
1.0
  0
ENDBLK
  5
1DC
330
1D9
100
AcDbEntity
  8
0
100
AcDbBlockEnd
  0
BLOCK
  5
24A
330
248
100
AcDbEntity
  8
0
100
AcDbBlockBegin
  2
*Paper_Space6
 70
     0
 10
0.0
 20
0.0
 30
0.0
  3
*Paper_Space6
  1

  0
LWPOLYLINE
  5
258
330
248
100
AcDbEntity
  8
0
  6
Continuous
 62
     7
370
    25
100
AcDbPolyline
 90
        9
 70
   128
 43
0.0
 10
60.0667127898
 20
-24.4730045052
 10
60.1577605435
 20
-24.4006093357
 10
60.2453093831
 20
-24.3639367307
 10
60.3259948558
 20
-24.3643959977
 10
60.396716264
 20
-24.4019694874
 10
60.4547558239
 20
-24.4752132717
 10
60.4978831075
 20
-24.5813126329
 10
60.5244407577
 20
-24.7161902322
 10
60.5334081787
 20
-24.8746627991
  0
LWPOLYLINE
  5
25C
330
248
100
AcDbEntity
  8
0
  6
Continuous
 62
     7
370
    25
100
AcDbPolyline
 90
       49
 70
   128
 43
0.0
 10
61.4434641871
 20
-17.9862491309
 10
61.4276932443
 20
-17.5597050584
 10
61.3806502611
 20
-17.1712451205
 10
61.303140156
 20
-16.8275159744
 10
61.1964891483
 20
-16.5343989213
 10
61.0625220664
 20
-16.2969092751
 10
60.9035311242
 20
-16.1191105496
 10
60.7222367008
 20
-16.0040449301
 10
60.521740794
 20
-15.9536812215
 10
60.3054739444
 20
-15.9688811606
 10
60.0771365378
 20
-16.0493846723
 10
59.8406354904
 20
-16.1938143192
 10
59.6000174009
 20
-16.39969887
 10
59.3593993113
 20
-16.663515583
 10
59.1228982639
 20
-16.9807504811
 10
58.8945608573
 20
-17.3459755871
 10
58.6782940077
 20
-17.7529417983
 10
58.4777981009
 20
-18.19468581
 10
58.2965036775
 20
-18.6636492596
 10
58.1375127353
 20
-19.1518080526
 10
58.0035456534
 20
-19.6508096565
 10
57.8968946457
 20
-20.1521160157
 10
57.8193845406
 20
-20.6471496393
 10
57.7723415574
 20
-21.1274403648
 10
57.7565706146
 20
-21.5847702847
 10
57.7723415574
 20
-22.0113143573
 10
57.8193845406
 20
-22.3997742952
 10
57.8968946457
 20
-22.7435034412
 10
58.0035456534
 20
-23.0366204943
 10
58.1375127353
 20
-23.2741101405
 10
58.2965036775
 20
-23.4519088661
 10
58.4777981009
 20
-23.5669744855
 10
58.6782940077
 20
-23.6173381942
 10
58.8945608573
 20
-23.6021382551
 10
59.1228982639
 20
-23.5216347434
 10
59.3593993113
 20
-23.3772050964
 10
59.6000174009
 20
-23.1713205456
 10
59.8406354904
 20
-22.9075038326
 10
60.0771365378
 20
-22.5902689346
 10
60.3054739444
 20
-22.2250438285
 10
60.521740794
 20
-21.8180776173
 10
60.7222367008
 20
-21.3763336056
 10
60.9035311242
 20
-20.907370156
 10
61.0625220664
 20
-20.4192113631
 10
61.1964891483
 20
-19.9202097591
 10
61.303140156
 20
-19.4189033999
 10
61.3806502611
 20
-18.9238697763
 10
61.4276932443
 20
-18.4435790508
 10
61.4434641871
 20
-17.9862491309
  0
LWPOLYLINE
  5
26E
330
248
100
AcDbEntity
  8
0
  6
Continuous
 62
     7
370
    25
100
AcDbPolyline
 90
       32
 70
   128
 43
0.0
 10
8.586171701
 20
-13.3934305991
 10
8.633600269
 20
-13.7107056934
 10
8.6622743745
 20
-14.2154147791
 10
8.6313167105
 20
-14.7037885067
 10
8.5411447415
 20
-15.1692411538
 10
8.3929744369
 20
-15.6054960887
 10
8.1888038741
 20
-16.0066704111
 10
7.9313862943
 20
-16.367354283
 10
7.6241929752
 20
-16.6826838802
 10
7.2713664202
 20
-16.9484069814
 10
6.8776644977
 20
-17.160940309
 10
6.4483962802
 20
-17.3174178499
 10
5.9893504522
 20
-17.4157295035
 10
5.5067172492
 20
-17.4545495365
 10
5.0070049829
 20
-17.4333544607
 10
4.4969522759
 20
-17.3524300918
 10
3.983437192
 20
-17.2128676953
 10
3.473384485
 20
-17.0165492709
 10
2.9736722187
 20
-16.7661221738
 10
2.4910390157
 20
-16.4649634148
 10
2.0319931877
 20
-16.1171341214
 10
1.6027249702
 20
-15.7273247737
 10
1.2090230477
 20
-15.3007919531
 10
0.8561964927
 20
-14.8432874569
 10
0.5490031735
 20
-14.3609807361
 10
0.2915855938
 20
-13.8603756994
 10
0.087415031
 20
-13.3482230088
 10
-0.0607552736
 20
-12.8314290461
 10
-0.1509272426
 20
-12.316962781
 10
-0.1818849066
 20
-11.8117617939
 10
-0.1532108011
 20
-11.3226387231
 10
-0.1057822331
 20
-11.0311437658
  0
LWPOLYLINE
  5
26F
330
248
100
AcDbEntity
  8
0
  6
Continuous
 62
     7
370
    25
100
AcDbPolyline
 90
       32
 70
   128
 43
0.0
 10
31.5810428646
 20
-19.6429438609
 10
31.6284714326
 20
-19.9602189552
 10
31.6571455381
 20
-20.4649280409
 10
31.6261878741
 20
-20.9533017685
 10
31.5360159051
 20
-21.4187544156
 10
31.3878456005
 20
-21.8550093505
 10
31.1836750377
 20
-22.2561836729
 10
30.9262574579
 20
-22.6168675448
 10
30.6190641388
 20
-22.932197142
 10
30.2662375838
 20
-23.1979202432
 10
29.8725356613
 20
-23.4104535708
 10
29.4432674438
 20
-23.5669311117
 10
28.9842216158
 20
-23.6652427652
 10
28.5015884128
 20
-23.7040627983
 10
28.0018761465
 20
-23.6828677225
 10
27.4918234395
 20
-23.6019433536
 10
26.9783083556
 20
-23.4623809571
 10
26.4682556486
 20
-23.2660625327
 10
25.9685433823
 20
-23.0156354356
 10
25.4859101793
 20
-22.7144766766
 10
25.0268643513
 20
-22.3666473832
 10
24.5975961338
 20
-21.9768380355
 10
24.2038942113
 20
-21.5503052148
 10
23.8510676563
 20
-21.0928007187
 10
23.5438743372
 20
-20.6104939979
 10
23.2864567574
 20
-20.1098889612
 10
23.0822861946
 20
-19.5977362706
 10
22.93411589
 20
-19.0809423079
 10
22.843943921
 20
-18.5664760427
 10
22.812986257
 20
-18.0612750557
 10
22.8416603625
 20
-17.5721519849
 10
22.8890889305
 20
-17.2806570276
  0
LWPOLYLINE
  5
270
330
248
100
AcDbEntity
  8
0
  6
Continuous
 62
     7
370
    25
100
AcDbPolyline
 90
       32
 70
   128
 43
0.0
 10
54.5759140282
 20
-25.8924571226
 10
54.6233425962
 20
-26.209732217
 10
54.6520167017
 20
-26.7144413026
 10
54.6210590378
 20
-27.2028150303
 10
54.5308870687
 20
-27.6682676774
 10
54.3827167641
 20
-28.1045226123
 10
54.1785462013
 20
-28.5056969347
 10
53.9211286216
 20
-28.8663808065
 10
53.6139353024
 20
-29.1817104038
 10
53.2611087475
 20
-29.447433505
 10
52.8674068249
 20
-29.6599668326
 10
52.4381386074
 20
-29.8164443734
 10
51.9790927794
 20
-29.914756027
 10
51.4964595764
 20
-29.9535760601
 10
50.9967473101
 20
-29.9323809843
 10
50.4866946031
 20
-29.8514566154
 10
49.9731795192
 20
-29.7118942189
 10
49.4631268122
 20
-29.5155757945
 10
48.9634145459
 20
-29.2651486974
 10
48.4807813429
 20
-28.9639899383
 10
48.0217355149
 20
-28.616160645
 10
47.5924672974
 20
-28.2263512973
 10
47.1987653749
 20
-27.7998184766
 10
46.84593882
 20
-27.3423139805
 10
46.5387455008
 20
-26.8600072596
 10
46.281327921
 20
-26.359402223
 10
46.0771573582
 20
-25.8472495323
 10
45.9289870536
 20
-25.3304555697
 10
45.8388150846
 20
-24.8159893045
 10
45.8078574207
 20
-24.3107883175
 10
45.8365315261
 20
-23.8216652467
 10
45.8839600941
 20
-23.5301702894
  0
LWPOLYLINE
  5
271
330
248
100
AcDbEntity
  8
0
  6
Continuous
 62
     7
370
    25
100
AcDbPolyline
 90
       47
 70
   128
 43
0.0
 10
10.7406679283
 20
-30.6283271942
 10
11.1621668104
 20
-30.7708245175
 10
11.5758139658
 20
-30.9665533027
 10
11.9739039307
 20
-31.2118674929
 10
12.3490210423
 20
-31.5021973489
 10
12.6941775784
 20
-31.8321345748
 10
13.002943926
 20
-32.1955330644
 10
13.2695683521
 20
-32.5856233913
 10
13.4890841482
 20
-32.9951389109
 10
13.6574021503
 20
-33.4164511239
 10
13.7713869125
 20
-33.8417117808
 10
13.8289151144
 20
-34.2629990803
 10
13.8289151144
 20
-34.6724652371
 10
13.7713869125
 20
-35.0624826715
 10
13.6574021503
 20
-35.4257860965
 10
13.4890841482
 20
-35.7556078567
 10
13.2695683521
 20
-36.0458039969
 10
13.002943926
 20
-36.2909687119
 10
12.6941775784
 20
-36.4865350471
 10
12.3490210423
 20
-36.6288599715
 10
11.9739039307
 20
-36.7152922413
 10
11.5758139658
 20
-36.7442217866
 10
11.1621668104
 20
-36.7151097049
 10
10.7406679283
 20
-36.6284982991
 10
10.3191690462
 20
-36.4860009759
 10
9.9055218907
 20
-36.2902721907
 10
9.5074319258
 20
-36.0449580005
 10
9.1323148143
 20
-35.7546281444
 10
8.7871582781
 20
-35.4246909185
 10
8.4783919305
 20
-35.061292429
 10
8.2117675044
 20
-34.671202102
 10
7.9922517083
 20
-34.2616865824
 10
7.8239337062
 20
-33.8403743695
 10
7.709948944
 20
-33.4151137125
 10
7.6524207421
 20
-32.993826413
 10
7.6524207421
 20
-32.5843602562
 10
7.709948944
 20
-32.1943428219
 10
7.8239337062
 20
-31.8310393969
 10
7.9922517083
 20
-31.5012176366
 10
8.2117675044
 20
-31.2110214965
 10
8.4783919305
 20
-30.9658567814
 10
8.7871582781
 20
-30.7702904463
 10
9.1323148143
 20
-30.6279655218
 10
9.5074319258
 20
-30.5415332521
 10
9.9055218907
 20
-30.5126037067
 10
10.3191690462
 20
-30.5417157884
 10
10.7406679283
 20
-30.6283271942
  0
LWPOLYLINE
  5
274
330
248
100
AcDbEntity
  8
0
  6
Continuous
 62
     7
370
    25
100
AcDbPolyline
 90
       43
 70
   128
 43
0.0
 10
28.1684566754
 20
-5.3135950828
 10
28.5795415244
 20
-5.405806138
 10
29.0127190286
 20
-5.4654313951
 10
29.4583127183
 20
-5.4911389244
 10
29.9063687668
 20
-5.4823544621
 10
30.3468783424
 20
-5.4392742386
 10
30.7700011891
 20
-5.3628605949
 10
31.1662854416
 20
-5.2548204856
 10
31.5268787647
 20
-5.1175673481
 10
31.8437260993
 20
-4.9541671908
 10
32.1097495996
 20
-4.7682701032
 10
32.3190067402
 20
-4.5640287189
 10
32.4668230622
 20
-4.3460054531
 10
32.5498965935
 20
-4.1190705852
 10
32.5663716084
 20
-3.8882934652
 10
32.5158800825
 20
-3.6588292725
 10
32.399549913
 20
-3.4358038581
 10
32.2199797236
 20
-3.2241992412
 10
31.9811808156
 20
-3.0287423193
 10
31.6884875621
 20
-2.8537992769
 10
31.3484382466
 20
-2.7032780527
 10
30.968629009
 20
-2.580541042
 10
30.55754416
 20
-2.4883299868
 10
30.1243666558
 20
-2.4287047297
 10
29.6787729661
 20
-2.4029972004
 10
29.2307169176
 20
-2.4117816627
 10
28.790207342
 20
-2.4548618862
 10
28.3670844953
 20
-2.5312755299
 10
27.9708002428
 20
-2.6393156392
 10
27.6102069197
 20
-2.7765687766
 10
27.2933595851
 20
-2.9399689339
 10
27.0273360848
 20
-3.1258660216
 10
26.8180789442
 20
-3.3301074058
 10
26.6702626222
 20
-3.5481306717
 10
26.5871890909
 20
-3.7750655396
 10
26.570714076
 20
-4.0058426596
 10
26.6212056019
 20
-4.2353068523
 10
26.7375357715
 20
-4.4583322666
 10
26.9171059609
 20
-4.6699368836
 10
27.1559048688
 20
-4.8653938055
 10
27.4485981223
 20
-5.0403368478
 10
27.7886474378
 20
-5.1908580721
 10
28.1684566754
 20
-5.3135950828
  0
LINE
  5
287
330
248
100
AcDbEntity
  8
0
  6
Continuous
 62
     7
370
    25
100
AcDbLine
 10
56.3331496783
 20
-16.1167343498
 30
0.0
 11
30.9061286801
 21
-9.2062148777
 31
0.0
  0
LINE
  5
288
330
248
100
AcDbEntity
  8
0
  6
Continuous
 62
     7
370
    25
100
AcDbLine
 10
30.9061286801
 20
-9.2062148777
 30
0.0
 11
31.372824069
 21
-7.8935385702
 31
0.0
  0
LINE
  5
289
330
248
100
AcDbEntity
  8
0
  6
Continuous
 62
     7
370
    25
100
AcDbLine
 10
31.372824069
 20
-7.8935385702
 30
0.0
 11
56.7998450673
 21
-14.8040580423
 31
0.0
  0
LINE
  5
28A
330
248
100
AcDbEntity
  8
0
  6
Continuous
 62
     7
370
    25
100
AcDbLine
 10
56.7998450673
 20
-14.8040580423
 30
0.0
 11
56.3331496783
 21
-16.1167343498
 31
0.0
  0
LINE
  5
28B
330
248
100
AcDbEntity
  8
0
  6
Continuous
 62
     7
370
    25
100
AcDbLine
 10
65.6670574569
 20
-6.149386913
 30
0.0
 11
56.7998450673
 21
-14.8040580423
 31
0.0
  0
LINE
  5
28C
330
248
100
AcDbEntity
  8
0
  6
Continuous
 62
     7
370
    25
100
AcDbLine
 10
65.6670574569
 20
-6.149386913
 30
0.0
 11
65.6670574569
 21
-12.149558018
 31
0.0
  0
LINE
  5
28D
330
248
100
AcDbEntity
  8
0
  6
Continuous
 62
     7
370
    25
100
AcDbLine
 10
65.6670574569
 20
-12.149558018
 30
0.0
 11
68.9339251795
 21
-8.9609949703
 31
0.0
  0
LINE
  5
28E
330
248
100
AcDbEntity
  8
0
  6
Continuous
 62
     7
370
    25
100
AcDbLine
 10
68.9339251795
 20
-15.8183333759
 30
0.0
 11
68.9339251795
 21
-8.9609949703
 31
0.0
  0
LINE
  5
28F
330
248
100
AcDbEntity
  8
0
  6
Continuous
 62
     7
370
    25
100
AcDbLine
 10
63.8002759012
 20
-20.8289324508
 30
0.0
 11
68.9339251795
 21
-15.8183333759
 31
0.0
  0
LINE
  5
290
330
248
100
AcDbEntity
  8
0
  6
Continuous
 62
     7
370
    25
100
AcDbLine
 10
63.8002759012
 20
-33.6864419613
 30
0.0
 11
63.8002759012
 21
-20.8289324508
 31
0.0
  0
LINE
  5
291
330
248
100
AcDbEntity
  8
0
  6
Continuous
 62
     7
370
    25
100
AcDbLine
 10
60.5334081787
 20
-36.875005009
 30
0.0
 11
63.8002759012
 21
-33.6864419613
 31
0.0
  0
LINE
  5
292
330
248
100
AcDbEntity
  8
0
  6
Continuous
 62
     7
370
    25
100
AcDbLine
 10
60.5334081787
 20
-24.8746627991
 30
0.0
 11
60.5334081787
 21
-36.875005009
 31
0.0
  0
LINE
  5
293
330
248
100
AcDbEntity
  8
0
  6
Continuous
 62
     7
370
    25
100
AcDbLine
 10
57.7332358451
 20
-26.7505495392
 30
0.0
 11
60.0667127898
 21
-24.4730045052
 31
0.0
  0
LINE
  5
294
330
248
100
AcDbEntity
  8
0
  6
Continuous
 62
     7
370
    25
100
AcDbLine
 10
56.3331496783
 20
-25.5455746576
 30
0.0
 11
57.7332358451
 21
-26.7505495392
 31
0.0
  0
LINE
  5
295
330
248
100
AcDbEntity
  8
0
  6
Continuous
 62
     7
370
    25
100
AcDbLine
 10
56.3331496783
 20
-16.1167343498
 30
0.0
 11
56.3331496783
 21
-25.5455746576
 31
0.0
  0
LINE
  5
296
330
248
100
AcDbEntity
  8
0
  6
Continuous
 62
     7
370
    25
100
AcDbLine
 10
30.9061286801
 20
-9.2062148777
 30
0.0
 11
30.9061286801
 21
-14.3353509198
 31
0.0
  0
LINE
  5
297
330
248
100
AcDbEntity
  8
0
  6
Continuous
 62
     7
370
    25
100
AcDbLine
 10
-10.263534884
 20
-7.4460227879
 30
0.0
 11
56.3331496783
 21
-25.5455746576
 31
0.0
  0
LINE
  5
298
330
248
100
AcDbEntity
  8
0
  6
Continuous
 62
     7
370
    25
100
AcDbLine
 10
-10.263534884
 20
1.9828175199
 30
0.0
 11
-10.263534884
 21
-7.4460227879
 31
0.0
  0
LINE
  5
299
330
248
100
AcDbEntity
  8
0
  6
Continuous
 62
     7
370
    25
100
AcDbLine
 10
15.1634861143
 20
-4.9277019523
 30
0.0
 11
-10.263534884
 21
1.9828175199
 31
0.0
  0
LINE
  5
29A
330
248
100
AcDbEntity
  8
0
  6
Continuous
 62
     7
370
    25
100
AcDbLine
 10
15.1634861143
 20
-10.0568379944
 30
0.0
 11
15.1634861143
 21
-4.9277019523
 31
0.0
  0
LINE
  5
29B
330
248
100
AcDbEntity
  8
0
  6
Continuous
 62
     7
370
    25
100
AcDbLine
 10
30.9061286801
 20
-14.3353509198
 30
0.0
 11
15.1634861143
 21
-10.0568379944
 31
0.0
  0
LINE
  5
29C
330
248
100
AcDbEntity
  8
0
  6
Continuous
 62
     7
370
    25
100
AcDbLine
 10
40.2400364587
 20
0.7611325591
 30
0.0
 11
65.6670574569
 21
-6.149386913
 31
0.0
  0
LINE
  5
29D
330
248
100
AcDbEntity
  8
0
  6
Continuous
 62
     7
370
    25
100
AcDbLine
 10
31.372824069
 20
-7.8935385702
 30
0.0
 11
40.2400364587
 21
0.7611325591
 31
0.0
  0
LINE
  5
29E
330
248
100
AcDbEntity
  8
0
  6
Continuous
 62
     7
370
    25
100
AcDbLine
 10
57.7332358451
 20
-26.7505495392
 30
0.0
 11
-8.8634487172
 21
-8.6509976695
 31
0.0
  0
LINE
  5
29F
330
248
100
AcDbEntity
  8
0
  6
Continuous
 62
     7
370
    25
100
AcDbLine
 10
-8.8634487172
 20
-8.6509976695
 30
0.0
 11
-10.263534884
 21
-7.4460227879
 31
0.0
  0
LINE
  5
2A0
330
248
100
AcDbEntity
  8
0
  6
Continuous
 62
     7
370
    25
100
AcDbLine
 10
15.1634861143
 20
-10.0568379944
 30
0.0
 11
17.9636584478
 21
-5.4518836541
 31
0.0
  0
LINE
  5
2A1
330
248
100
AcDbEntity
  8
0
  6
Continuous
 62
     7
370
    25
100
AcDbLine
 10
17.9636584478
 20
-5.4518836541
 30
0.0
 11
30.9829146822
 21
-8.9902385297
 31
0.0
  0
LINE
  5
2A2
330
248
100
AcDbEntity
  8
0
  6
Continuous
 62
     7
370
    25
100
AcDbLine
 10
30.1978666052
 20
-28.6304548213
 30
0.0
 11
60.5334081787
 21
-36.875005009
 31
0.0
  0
LINE
  5
2A3
330
248
100
AcDbEntity
  8
0
  6
Continuous
 62
     7
370
    25
100
AcDbLine
 10
27.5446122401
 20
-46.7670377527
 30
0.0
 11
27.5446122401
 21
-30.4808590394
 31
0.0
  0
LINE
  5
2A4
330
248
100
AcDbEntity
  8
0
  6
Continuous
 62
     7
370
    25
100
AcDbLine
 10
27.5446122401
 20
-46.7670377527
 30
0.0
 11
-6.0632763836
 21
-37.6331337547
 31
0.0
  0
LINE
  5
2A5
330
248
100
AcDbEntity
  8
0
  6
Continuous
 62
     7
370
    25
100
AcDbLine
 10
-6.0632763836
 20
-9.4120245094
 30
0.0
 11
-6.0632763836
 21
-37.6331337547
 31
0.0
  0
LINE
  5
2A6
330
248
100
AcDbEntity
  8
0
  6
Continuous
 62
     7
370
    25
100
AcDbLine
 10
17.9636584478
 20
-5.4518836541
 30
0.0
 11
24.4973938929
 21
0.9252424411
 31
0.0
  0
LINE
  5
2A7
330
248
100
AcDbEntity
  8
0
  6
Continuous
 62
     7
370
    25
100
AcDbLine
 10
36.9427351183
 20
-2.4571346326
 30
0.0
 11
24.4973938929
 21
0.9252424411
 31
0.0
  0
LINE
  5
2A8
330
248
100
AcDbEntity
  8
0
  6
Continuous
 62
     7
370
    25
100
AcDbLine
 10
-10.263534884
 20
1.9828175199
 30
0.0
 11
-9.796839495
 21
3.2954938274
 31
0.0
  0
LINE
  5
2A9
330
248
100
AcDbEntity
  8
0
  6
Continuous
 62
     7
370
    25
100
AcDbLine
 10
-9.796839495
 20
3.2954938274
 30
0.0
 11
15.6301815032
 21
-3.6150256448
 31
0.0
  0
LINE
  5
2AA
330
248
100
AcDbEntity
  8
0
  6
Continuous
 62
     7
370
    25
100
AcDbLine
 10
15.6301815032
 20
-3.6150256448
 30
0.0
 11
15.1634861143
 21
-4.9277019523
 31
0.0
  0
LINE
  5
2AB
330
248
100
AcDbEntity
  8
0
  6
Continuous
 62
     7
370
    25
100
AcDbLine
 10
15.6301815032
 20
-3.6150256448
 30
0.0
 11
24.4973938929
 21
5.0396454845
 31
0.0
  0
LINE
  5
2AC
330
248
100
AcDbEntity
  8
0
  6
Continuous
 62
     7
370
    25
100
AcDbLine
 10
24.4973938929
 20
0.9252424411
 30
0.0
 11
24.4973938929
 21
5.0396454845
 31
0.0
  0
LINE
  5
2AD
330
248
100
AcDbEntity
  8
0
  6
Continuous
 62
     7
370
    25
100
AcDbLine
 10
65.6670574569
 20
-8.8388027344
 30
0.0
 11
66.2806708144
 21
-8.2398972863
 31
0.0
  0
LINE
  5
2AE
330
248
100
AcDbEntity
  8
0
  6
Continuous
 62
     7
370
    25
100
AcDbLine
 10
68.9339251795
 20
-8.9609949703
 30
0.0
 11
66.2806708144
 21
-8.2398972863
 31
0.0
  0
LINE
  5
2AF
330
248
100
AcDbEntity
  8
0
  6
Continuous
 62
     7
370
    25
100
AcDbLine
 10
-0.9296271054
 20
11.9501649567
 30
0.0
 11
-9.796839495
 21
3.2954938274
 31
0.0
  0
LINE
  5
2B0
330
248
100
AcDbEntity
  8
0
  6
Continuous
 62
     7
370
    25
100
AcDbLine
 10
-0.9296271054
 20
11.9501649567
 30
0.0
 11
24.4973938929
 21
5.0396454845
 31
0.0
  0
LINE
  5
2B1
330
248
100
AcDbEntity
  8
0
  6
Continuous
 62
     7
370
    25
100
AcDbLine
 10
27.5446122401
 20
-46.7670377527
 30
0.0
 11
30.8114799627
 21
-43.5784747051
 31
0.0
  0
LINE
  5
2B2
330
248
100
AcDbEntity
  8
0
  6
Continuous
 62
     7
370
    25
100
AcDbLine
 10
30.8114799627
 20
-43.5784747051
 30
0.0
 11
30.8114799627
 21
-28.7972217837
 31
0.0
  0
LINE
  5
2B3
330
248
100
AcDbEntity
  8
0
  6
Continuous
 62
     8
370
    25
100
AcDbLine
 10
60.5334081787
 20
-24.8746627991
 30
0.0
 11
59.8464703995
 21
-24.68796783
 31
0.0
  0
LINE
  5
2B4
330
248
100
AcDbEntity
  8
0
  6
Continuous
 62
     8
370
    25
100
AcDbLine
 10
29.5413398193
 20
-28.5319917096
 30
0.0
 11
27.5446122401
 21
-30.4808590394
 31
0.0
  0
ARC
  5
2B5
330
248
100
AcDbEntity
  8
0
  6
Continuous
 62
     7
370
    25
100
AcDbCircle
 10
29.5023852293
 20
-30.4606431761
 30
0.0
 40
1.957877360350789
100
AcDbArc
 50
69.192940872
 51
180.5916122484
  0
ARC
  5
2B6
330
248
100
AcDbEntity
  8
0
  6
Continuous
 62
     7
370
    25
100
AcDbCircle
 10
54.9577939743
 20
-21.0473918243
 30
0.0
 40
5.726275220837121
100
AcDbArc
 50
221.3056754945
 51
266.9346740552
  0
ARC
  5
2B7
330
248
100
AcDbEntity
  8
0
  6
Continuous
 62
     7
370
    25
100
AcDbCircle
 10
29.5685428422
 20
-8.7391943838
 30
0.0
 40
4.659836509942815
100
AcDbArc
 50
57.6121393617
 51
122.3878606383
  0
ARC
  5
2B8
330
248
100
AcDbEntity
  8
0
  6
Continuous
 62
     7
370
    25
100
AcDbCircle
 10
31.9629228107
 20
-14.7978785625
 30
0.0
 40
5.726275220836847
100
AcDbArc
 50
221.3056754945
 51
266.9346740552
  0
ARC
  5
2B9
330
248
100
AcDbEntity
  8
0
  6
Continuous
 62
     7
370
    25
100
AcDbCircle
 10
8.9680516471
 20
-8.5483653007
 30
0.0
 40
5.726275220836889
100
AcDbArc
 50
221.3056754945
 51
266.9346740552
  0
ARC
  5
2BA
330
248
100
AcDbEntity
  8
0
  6
Continuous
 62
     7
370
    25
100
AcDbCircle
 10
13.5870375893
 20
-30.850268698
 30
0.0
 40
4.054081768992097
100
AcDbArc
 50
175.5567745154
 51
273.0532927226
  0
VIEWPORT
  5
33C
330
248
100
AcDbEntity
  8
0
100
AcDbViewport
 10
0.0
 20
0.0
 30
0.0
 40
205.6
 41
156.0
 68
     1
 69
     1
 12
-8.4919354839
 22
-11.0
 13
0.0
 23
0.0
 14
10.0
 24
10.0
 15
10.0
 25
10.0
 16
0.0
 26
0.0
 36
1.0
 17
0.0
 27
0.0
 37
0.0
 42
50.0
 43
0.0
 44
0.0
 45
53.04
 50
0.0
 51
0.0
 72
   100
 90
   557152
  1

281
     0
 71
     1
 74
     0
110
0.0
120
0.0
130
0.0
111
1.0
121
0.0
131
0.0
112
0.0
122
1.0
132
0.0
 79
     0
146
0.0
  0
MTEXT
  5
349
330
248
100
AcDbEntity
  8
0
  6
Continuous
 62
     7
100
AcDbMText
 10
-10.263534884
 20
-47.7866041444
 30
0.0
 40
4.83362
 41
0.0
 71
     1
 72
     1
  1
Produit d'éducation SOLIDWORKS – A titre éducatif uniquement.
  7
SLDTEXTSTYLE0
 73
     1
 44
1.0
  0
ENDBLK
  5
24B
330
248
100
AcDbEntity
  8
0
100
AcDbBlockEnd
  0
BLOCK
  5
2BD
330
2BB
100
AcDbEntity
  8
0
100
AcDbBlockBegin
  2
*Paper_Space7
 70
     0
 10
0.0
 20
0.0
 30
0.0
  3
*Paper_Space7
  1

  0
LWPOLYLINE
  5
2CB
330
2BB
100
AcDbEntity
  8
0
  6
Continuous
 62
     7
370
    25
100
AcDbPolyline
 90
        9
 70
   128
 43
0.0
 10
65.4898040782
 20
-13.2369424954
 10
65.558778923
 20
-13.1942282114
 10
65.6251031032
 20
-13.1893870361
 10
65.6862278177
 20
-13.2226050132
 10
65.7398040781
 20
-13.2926055944
 10
65.7837729787
 20
-13.3966986967
 10
65.8164448193
 20
-13.5308840805
 10
65.8365640394
 20
-13.6900050768
 10
65.8433574687
 20
-13.8679467548
  0
LWPOLYLINE
  5
2CF
330
2BB
100
AcDbEntity
  8
0
  6
Continuous
 62
     7
370
    25
100
AcDbPolyline
 90
       49
 70
   128
 43
0.0
 10
66.5327865802
 20
-6.6602641383
 10
66.520839022
 20
-6.1847088612
 10
66.4852007736
 20
-5.7383639784
 10
66.4264816152
 20
-5.3288665748
 10
66.3456862479
 20
-4.9632232643
 10
66.2441971028
 20
-4.6476903055
 10
66.1237506874
 20
-4.3876665548
 10
65.9864078733
 20
-4.1876010905
 10
65.8345186339
 20
-4.0509170884
 10
65.6706818364
 20
-3.9799532494
 10
65.4977007738
 20
-3.9759237847
 10
65.3185352
 20
-4.0388976394
 10
65.1362506877
 20
-4.1677973135
 10
64.9539661753
 20
-4.3604172978
 10
64.7748006015
 20
-4.6134618109
 10
64.6018195389
 20
-4.9226011911
 10
64.4379827414
 20
-5.2825459779
 10
64.2860935021
 20
-5.6871374162
 10
64.1487506879
 20
-6.1294528342
 10
64.0283042725
 20
-6.6019240926
 10
63.9268151274
 20
-7.0964670771
 10
63.8460197601
 20
-7.6046200202
 10
63.7873006017
 20
-8.1176882841
 10
63.7516623533
 20
-8.6268931285
 10
63.7397147951
 20
-9.1235219175
 10
63.7516623533
 20
-9.5990771946
 10
63.7873006017
 20
-10.0454220774
 10
63.8460197601
 20
-10.454919481
 10
63.9268151274
 20
-10.8205627915
 10
64.0283042725
 20
-11.1360957503
 10
64.1487506879
 20
-11.396119501
 10
64.2860935021
 20
-11.5961849653
 10
64.4379827414
 20
-11.7328689674
 10
64.6018195389
 20
-11.8038328064
 10
64.7748006015
 20
-11.8078622711
 10
64.9539661753
 20
-11.7448884163
 10
65.1362506877
 20
-11.6159887423
 10
65.3185352
 20
-11.423368758
 10
65.4977007738
 20
-11.1703242449
 10
65.6706818364
 20
-10.8611848646
 10
65.8345186339
 20
-10.5012400779
 10
65.9864078733
 20
-10.0966486396
 10
66.1237506874
 20
-9.6543332216
 10
66.2441971028
 20
-9.1818619632
 10
66.3456862479
 20
-8.6873189787
 10
66.4264816152
 20
-8.1791660356
 10
66.4852007736
 20
-7.6660977717
 10
66.520839022
 20
-7.1568929273
 10
66.5327865802
 20
-6.6602641383
  0
LWPOLYLINE
  5
2E1
330
2BB
100
AcDbEntity
  8
0
  6
Continuous
 62
     7
370
    25
100
AcDbPolyline
 90
       38
 70
   128
 43
0.0
 10
10.2212656795
 20
-8.0555027812
 10
10.4898611177
 20
-8.5618094846
 10
10.7035823073
 20
-9.0919902521
 10
10.8579782638
 20
-9.6362759072
 10
10.9509669567
 20
-10.1873267549
 10
10.981294433
 20
-10.7377118711
 10
10.9485517265
 20
-11.2800093096
 10
10.8531803728
 20
-11.8069061861
 10
10.6964664552
 20
-12.3112972933
 10
10.4805232616
 20
-12.7863809143
 10
10.2082627874
 20
-13.2257505436
 10
9.8833564666
 20
-13.6234812792
 10
9.5101856628
 20
-13.97420972
 10
9.0937825864
 20
-14.2732062908
 10
8.6397624353
 20
-14.5164390212
 10
8.1542476739
 20
-14.7006279165
 10
7.6437854715
 20
-14.8232891882
 10
7.1152594138
 20
-14.8827687485
 10
6.5757966778
 20
-14.8782645152
 10
6.0326719216
 20
-14.8098372278
 10
5.4932091856
 20
-14.6784096287
 10
4.9646831279
 20
-14.4857540199
 10
4.4542209255
 20
-14.2344683633
 10
3.9687061641
 20
-13.9279412475
 10
3.514686013
 20
-13.5703061924
 10
3.0982829366
 20
-13.1663859087
 10
2.7251121328
 20
-12.7216272639
 10
2.400205812
 20
-12.2420278307
 10
2.1279453378
 20
-11.7340550104
 10
1.9120021442
 20
-11.2045588192
 10
1.7552882266
 20
-10.6606795165
 10
1.6599168729
 20
-10.1097513177
 10
1.6271741664
 20
-9.5592034927
 10
1.6575016427
 20
-9.0164601822
 10
1.7504903356
 20
-8.4888402827
 10
1.9048862921
 20
-7.9834587518
 10
2.1186074817
 20
-7.5071306621
 10
2.3872029198
 20
-7.0685036475
  0
LWPOLYLINE
  5
2E2
330
2BB
100
AcDbEntity
  8
0
  6
Continuous
 62
     7
370
    25
100
AcDbPolyline
 90
       38
 70
   128
 43
0.0
 10
34.5420386944
 20
-11.1196321649
 10
34.8106341325
 20
-11.6259388683
 10
35.0243553222
 20
-12.1561196358
 10
35.1787512786
 20
-12.7004052909
 10
35.2717399715
 20
-13.2514561386
 10
35.3020674479
 20
-13.8018412548
 10
35.2693247414
 20
-14.3441386933
 10
35.1739533877
 20
-14.8710355698
 10
35.01723947
 20
-15.3754266771
 10
34.8012962765
 20
-15.850510298
 10
34.5290358023
 20
-16.2898799273
 10
34.2041294814
 20
-16.6876106629
 10
33.8309586776
 20
-17.0383391037
 10
33.4145556012
 20
-17.3373356745
 10
32.9605354501
 20
-17.5805684049
 10
32.4750206887
 20
-17.7647573002
 10
31.9645584863
 20
-17.8874185719
 10
31.4360324286
 20
-17.9468981322
 10
30.8965696926
 20
-17.9423938989
 10
30.3534449364
 20
-17.8739666115
 10
29.8139822004
 20
-17.7425390124
 10
29.2854561427
 20
-17.5498834036
 10
28.7749939403
 20
-17.2985977471
 10
28.2894791789
 20
-16.9920706312
 10
27.8354590278
 20
-16.6344355761
 10
27.4190559514
 20
-16.2305152925
 10
27.0458851476
 20
-15.7857566476
 10
26.7209788268
 20
-15.3061572144
 10
26.4487183526
 20
-14.7981843941
 10
26.232775159
 20
-14.268688203
 10
26.0760612414
 20
-13.7248089002
 10
25.9806898877
 20
-13.1738807014
 10
25.9479471812
 20
-12.6233328764
 10
25.9782746575
 20
-12.0805895659
 10
26.0712633504
 20
-11.5529696664
 10
26.2256593069
 20
-11.0475881355
 10
26.4393804965
 20
-10.5712600458
 10
26.7079759347
 20
-10.1326330312
  0
LWPOLYLINE
  5
2E3
330
2BB
100
AcDbEntity
  8
0
  6
Continuous
 62
     7
370
    25
100
AcDbPolyline
 90
       38
 70
   128
 43
0.0
 10
58.8628117092
 20
-14.1837615486
 10
59.1314071474
 20
-14.690068252
 10
59.345128337
 20
-15.2202490195
 10
59.4995242935
 20
-15.7645346746
 10
59.5925129864
 20
-16.3155855223
 10
59.6228404627
 20
-16.8659706386
 10
59.5900977562
 20
-17.408268077
 10
59.4947264025
 20
-17.9351649535
 10
59.3380124848
 20
-18.4395560608
 10
59.1220692913
 20
-18.9146396817
 10
58.8498088171
 20
-19.354009311
 10
58.5249024963
 20
-19.7517400466
 10
58.1517316925
 20
-20.1024684874
 10
57.7353286161
 20
-20.4014650582
 10
57.281308465
 20
-20.6446977886
 10
56.7957937036
 20
-20.8288866839
 10
56.2853315011
 20
-20.9515479556
 10
55.7568054435
 20
-21.011027516
 10
55.2173427075
 20
-21.0065232826
 10
54.6742179512
 20
-20.9380959952
 10
54.1347552152
 20
-20.8066683962
 10
53.6062291576
 20
-20.6140127873
 10
53.0957669552
 20
-20.3627271308
 10
52.6102521937
 20
-20.056200015
 10
52.1562320426
 20
-19.6985649598
 10
51.7398289663
 20
-19.2946446762
 10
51.3666581624
 20
-18.8498860313
 10
51.0417518416
 20
-18.3702865982
 10
50.7694913674
 20
-17.8623137778
 10
50.5535481739
 20
-17.3328175867
 10
50.3968342562
 20
-16.7889382839
 10
50.3014629025
 20
-16.2380100851
 10
50.268720196
 20
-15.6874622601
 10
50.2990476723
 20
-15.1447189496
 10
50.3920363653
 20
-14.6170990501
 10
50.5464323217
 20
-14.1117175192
 10
50.7601535114
 20
-13.6353894296
 10
51.0287489495
 20
-13.1967624149
  0
LWPOLYLINE
  5
2E4
330
2BB
100
AcDbEntity
  8
0
  6
Continuous
 62
     7
370
    25
100
AcDbPolyline
 90
       47
 70
   128
 43
0.0
 10
13.1795297481
 20
-28.446131564
 10
13.625332578
 20
-28.5330322512
 10
14.0628309447
 20
-28.6797837631
 10
14.4838750813
 20
-28.8836523966
 10
14.8806217323
 20
-29.1408404649
 10
15.2456802582
 20
-29.4465570408
 10
15.5722503094
 20
-29.795107203
 10
15.8542485038
 20
-30.1799981215
 10
16.0864217485
 20
-30.5940600066
 10
16.2644450953
 20
-31.0295796689
 10
16.3850023061
 20
-31.4784442011
 10
16.445847628
 20
-31.9322921063
 10
16.445847628
 20
-32.3826690567
 10
16.3850023061
 20
-32.8211853819
 10
16.2644450953
 20
-33.2396723523
 10
16.0864217485
 20
-33.6303343477
 10
15.8542485038
 20
-33.9858940741
 10
15.5722503094
 20
-34.2997281267
 10
15.2456802582
 20
-34.5659903707
 10
14.8806217323
 20
-34.7797208444
 10
14.4838750813
 20
-34.9369381535
 10
14.0628309447
 20
-35.0347136369
 10
13.625332578
 20
-35.0712259225
 10
13.1795297481
 20
-35.0457948553
 10
12.7337269182
 20
-34.9588941681
 10
12.2962285516
 20
-34.8121426562
 10
11.8751844149
 20
-34.6082740227
 10
11.478437764
 20
-34.3510859544
 10
11.113379238
 20
-34.0453693785
 10
10.7868091868
 20
-33.6968192163
 10
10.5048109924
 20
-33.3119282978
 10
10.2726377477
 20
-32.8978664127
 10
10.0946144009
 20
-32.4623467504
 10
9.9740571902
 20
-32.0134822182
 10
9.9132118682
 20
-31.559634313
 10
9.9132118682
 20
-31.1092573626
 10
9.9740571902
 20
-30.6707410375
 10
10.0946144009
 20
-30.252254067
 10
10.2726377477
 20
-29.8615920716
 10
10.5048109924
 20
-29.5060323452
 10
10.7868091868
 20
-29.1921982927
 10
11.113379238
 20
-28.9259360486
 10
11.478437764
 20
-28.7122055749
 10
11.8751844149
 20
-28.5549882658
 10
12.2962285516
 20
-28.4572127824
 10
12.7337269182
 20
-28.4207004969
 10
13.1795297481
 20
-28.446131564
  0
LWPOLYLINE
  5
2EF
330
2BB
100
AcDbEntity
  8
0
  6
Continuous
 62
     7
370
    25
100
AcDbPolyline
 90
       43
 70
   128
 43
0.0
 10
31.3321140956
 20
1.7522191254
 10
31.7622096155
 20
1.7099725323
 10
32.2063909077
 20
1.689565269
 10
32.6547356963
 20
1.6914532001
 10
33.0972286993
 20
1.7155941524
 10
33.5239853545
 20
1.7614488568
 10
33.9254726232
 20
1.827992995
 10
34.2927219433
 20
1.913740081
 10
34.6175295719
 20
2.0167746665
 10
34.8926398433
 20
2.1347951291
 10
35.1119072487
 20
2.2651650868
 10
35.2704337164
 20
2.4049722901
 10
35.3646780273
 20
2.5510936772
 10
35.3925349191
 20
2.7002651376
 10
35.3533821148
 20
2.8491544275
 10
35.2480942235
 20
2.9944356061
 10
35.0790232027
 20
3.132863332
 10
34.8499458195
 20
3.2613453586
 10
34.5659792842
 20
3.3770116097
 10
34.2334669399
 20
3.4772782923
 10
33.859836563
 20
3.5599056145
 10
33.4534344386
 20
3.6230478184
 10
33.0233389187
 20
3.6652944115
 10
32.5791576264
 20
3.6857016748
 10
32.1308128379
 20
3.6838137437
 10
31.6883198349
 20
3.6596727915
 10
31.2615631797
 20
3.6138180871
 10
30.860075911
 20
3.5472739488
 10
30.4928265909
 20
3.4615268629
 10
30.1680189622
 20
3.3584922774
 10
29.8929086908
 20
3.2404718147
 10
29.6736412855
 20
3.110101857
 10
29.5151148177
 20
2.9702946537
 10
29.4208705069
 20
2.8241732667
 10
29.3930136151
 20
2.6750018062
 10
29.4321664193
 20
2.5261125164
 10
29.5374543106
 20
2.3808313377
 10
29.7065253315
 20
2.2424036118
 10
29.9356027147
 20
2.1139215852
 10
30.21956925
 20
1.9982553341
 10
30.5520815942
 20
1.8979886515
 10
30.9257119712
 20
1.8153613293
 10
31.3321140956
 20
1.7522191254
  0
LINE
  5
2FA
330
2BB
100
AcDbEntity
  8
0
  6
Continuous
 62
     7
370
    25
100
AcDbLine
 10
62.6613769541
 20
-2.5320541702
 30
0.0
 11
35.7682144858
 21
0.8561658214
 31
0.0
  0
LINE
  5
2FB
330
2BB
100
AcDbEntity
  8
0
  6
Continuous
 62
     7
370
    25
100
AcDbLine
 10
35.7682144858
 20
0.8561658214
 30
0.0
 11
36.1217678763
 21
2.1107796452
 31
0.0
  0
LINE
  5
2FC
330
2BB
100
AcDbEntity
  8
0
  6
Continuous
 62
     7
370
    25
100
AcDbLine
 10
36.1217678763
 20
2.1107796452
 30
0.0
 11
63.0149303446
 21
-1.2774403464
 31
0.0
  0
LINE
  5
2FD
330
2BB
100
AcDbEntity
  8
0
  6
Continuous
 62
     7
370
    25
100
AcDbLine
 10
63.0149303446
 20
-1.2774403464
 30
0.0
 11
62.6613769541
 21
-2.5320541702
 31
0.0
  0
LINE
  5
2FE
330
2BB
100
AcDbEntity
  8
0
  6
Continuous
 62
     7
370
    25
100
AcDbLine
 10
69.7324447643
 20
4.6468505148
 30
0.0
 11
63.0149303446
 21
-1.2774403464
 31
0.0
  0
LINE
  5
2FF
330
2BB
100
AcDbEntity
  8
0
  6
Continuous
 62
     7
370
    25
100
AcDbLine
 10
69.7324447643
 20
4.6468505148
 30
0.0
 11
69.7324447643
 21
-1.9528127765
 31
0.0
  0
LINE
  5
300
330
2BB
100
AcDbEntity
  8
0
  6
Continuous
 62
     7
370
    25
100
AcDbLine
 10
69.7324447643
 20
-1.9528127765
 30
0.0
 11
72.2073184979
 21
0.2298206987
 31
0.0
  0
LINE
  5
301
330
2BB
100
AcDbEntity
  8
0
  6
Continuous
 62
     7
370
    25
100
AcDbLine
 10
72.2073184979
 20
-7.3126516342
 30
0.0
 11
72.2073184979
 21
0.2298206987
 31
0.0
  0
LINE
  5
302
330
2BB
100
AcDbEntity
  8
0
  6
Continuous
 62
     7
370
    25
100
AcDbLine
 10
68.3182312023
 20
-10.7425042381
 30
0.0
 11
72.2073184979
 21
-7.3126516342
 31
0.0
  0
LINE
  5
303
330
2BB
100
AcDbEntity
  8
0
  6
Continuous
 62
     7
370
    25
100
AcDbLine
 10
68.3182312023
 20
-24.8846398622
 30
0.0
 11
68.3182312023
 21
-10.7425042381
 31
0.0
  0
LINE
  5
304
330
2BB
100
AcDbEntity
  8
0
  6
Continuous
 62
     7
370
    25
100
AcDbLine
 10
65.8433574687
 20
-27.0672733374
 30
0.0
 11
68.3182312023
 21
-24.8846398622
 31
0.0
  0
LINE
  5
305
330
2BB
100
AcDbEntity
  8
0
  6
Continuous
 62
     7
370
    25
100
AcDbLine
 10
65.8433574687
 20
-13.8679467548
 30
0.0
 11
65.8433574687
 21
-27.0672733374
 31
0.0
  0
LINE
  5
306
330
2BB
100
AcDbEntity
  8
0
  6
Continuous
 62
     7
370
    25
100
AcDbLine
 10
63.7220371256
 20
-14.7959664062
 30
0.0
 11
65.4898040782
 21
-13.2369424954
 31
0.0
  0
LINE
  5
307
330
2BB
100
AcDbEntity
  8
0
  6
Continuous
 62
     7
370
    25
100
AcDbLine
 10
62.6613769541
 20
-12.9029536279
 30
0.0
 11
63.7220371256
 21
-14.7959664062
 31
0.0
  0
LINE
  5
308
330
2BB
100
AcDbEntity
  8
0
  6
Continuous
 62
     7
370
    25
100
AcDbLine
 10
62.6613769541
 20
-2.5320541702
 30
0.0
 11
62.6613769541
 21
-12.9029536279
 31
0.0
  0
LINE
  5
309
330
2BB
100
AcDbEntity
  8
0
  6
Continuous
 62
     7
370
    25
100
AcDbLine
 10
35.7682144858
 20
0.8561658214
 30
0.0
 11
35.7682144858
 21
-4.7854351032
 31
0.0
  0
LINE
  5
30A
330
2BB
100
AcDbEntity
  8
0
  6
Continuous
 62
     7
370
    25
100
AcDbLine
 10
-7.7753233542
 20
-4.0287635282
 30
0.0
 11
62.6613769541
 21
-12.9029536279
 31
0.0
  0
LINE
  5
30B
330
2BB
100
AcDbEntity
  8
0
  6
Continuous
 62
     7
370
    25
100
AcDbLine
 10
-7.7753233542
 20
6.3421359296
 30
0.0
 11
-7.7753233542
 21
-4.0287635282
 31
0.0
  0
LINE
  5
30C
330
2BB
100
AcDbEntity
  8
0
  6
Continuous
 62
     7
370
    25
100
AcDbLine
 10
19.1178391141
 20
2.953915938
 30
0.0
 11
-7.7753233542
 21
6.3421359296
 31
0.0
  0
LINE
  5
30D
330
2BB
100
AcDbEntity
  8
0
  6
Continuous
 62
     7
370
    25
100
AcDbLine
 10
19.1178391141
 20
-2.6876849866
 30
0.0
 11
19.1178391141
 21
2.953915938
 31
0.0
  0
LINE
  5
30E
330
2BB
100
AcDbEntity
  8
0
  6
Continuous
 62
     7
370
    25
100
AcDbLine
 10
35.7682144858
 20
-4.7854351032
 30
0.0
 11
19.1178391141
 21
-2.6876849866
 31
0.0
  0
LINE
  5
30F
330
2BB
100
AcDbEntity
  8
0
  6
Continuous
 62
     7
370
    25
100
AcDbLine
 10
42.839282296
 20
8.0350705064
 30
0.0
 11
69.7324447643
 21
4.6468505148
 31
0.0
  0
LINE
  5
310
330
2BB
100
AcDbEntity
  8
0
  6
Continuous
 62
     7
370
    25
100
AcDbLine
 10
36.1217678763
 20
2.1107796452
 30
0.0
 11
42.839282296
 21
8.0350705064
 31
0.0
  0
LINE
  5
311
330
2BB
100
AcDbEntity
  8
0
  6
Continuous
 62
     7
370
    25
100
AcDbLine
 10
63.7220371256
 20
-14.7959664062
 30
0.0
 11
-6.7146631827
 21
-5.9217763065
 31
0.0
  0
LINE
  5
312
330
2BB
100
AcDbEntity
  8
0
  6
Continuous
 62
     7
370
    25
100
AcDbLine
 10
-6.7146631827
 20
-5.9217763065
 30
0.0
 11
-7.7753233542
 21
-4.0287635282
 31
0.0
  0
LINE
  5
313
330
2BB
100
AcDbEntity
  8
0
  6
Continuous
 62
     7
370
    25
100
AcDbLine
 10
19.1178391141
 20
-2.6876849866
 30
0.0
 11
21.2391594571
 21
1.2420702728
 31
0.0
  0
LINE
  5
314
330
2BB
100
AcDbEntity
  8
0
  6
Continuous
 62
     7
370
    25
100
AcDbLine
 10
21.2391594571
 20
1.2420702728
 30
0.0
 11
35.7682144858
 21
-0.588418602
 31
0.0
  0
LINE
  5
315
330
2BB
100
AcDbEntity
  8
0
  6
Continuous
 62
     7
370
    25
100
AcDbLine
 10
33.7586453761
 20
-23.0249795735
 30
0.0
 11
65.8433574687
 21
-27.0672733374
 31
0.0
  0
LINE
  5
316
330
2BB
100
AcDbEntity
  8
0
  6
Continuous
 62
     7
370
    25
100
AcDbLine
 10
30.9524023359
 20
-43.4132250985
 30
0.0
 11
30.9524023359
 21
-25.4998533079
 31
0.0
  0
LINE
  5
317
330
2BB
100
AcDbEntity
  8
0
  6
Continuous
 62
     7
370
    25
100
AcDbLine
 10
30.9524023359
 20
-43.4132250985
 30
0.0
 11
-4.5933428396
 21
-38.9348821531
 31
0.0
  0
LINE
  5
318
330
2BB
100
AcDbEntity
  8
0
  6
Continuous
 62
     7
370
    25
100
AcDbLine
 10
-4.5933428396
 20
-6.1890375482
 30
0.0
 11
-4.5933428396
 21
-38.9348821531
 31
0.0
  0
LINE
  5
319
330
2BB
100
AcDbEntity
  8
0
  6
Continuous
 62
     7
370
    25
100
AcDbLine
 10
-7.7753233542
 20
6.3421359296
 30
0.0
 11
-7.4217699637
 21
7.5967497533
 31
0.0
  0
LINE
  5
31A
330
2BB
100
AcDbEntity
  8
0
  6
Continuous
 62
     7
370
    25
100
AcDbLine
 10
-7.4217699637
 20
7.5967497533
 30
0.0
 11
19.4713925046
 21
4.2085297617
 31
0.0
  0
LINE
  5
31B
330
2BB
100
AcDbEntity
  8
0
  6
Continuous
 62
     7
370
    25
100
AcDbLine
 10
19.4713925046
 20
4.2085297617
 30
0.0
 11
19.1178391141
 21
2.953915938
 31
0.0
  0
LINE
  5
31C
330
2BB
100
AcDbEntity
  8
0
  6
Continuous
 62
     7
370
    25
100
AcDbLine
 10
26.1889069243
 20
5.6073372232
 30
0.0
 11
26.1889069243
 21
10.1328206229
 31
0.0
  0
LINE
  5
31D
330
2BB
100
AcDbEntity
  8
0
  6
Continuous
 62
     7
370
    25
100
AcDbLine
 10
21.2391594571
 20
1.2420702728
 30
0.0
 11
26.1889069243
 21
5.6073372232
 31
0.0
  0
LINE
  5
31E
330
2BB
100
AcDbEntity
  8
0
  6
Continuous
 62
     7
370
    25
100
AcDbLine
 10
19.4713925046
 20
4.2085297617
 30
0.0
 11
26.1889069243
 21
10.1328206229
 31
0.0
  0
LINE
  5
31F
330
2BB
100
AcDbEntity
  8
0
  6
Continuous
 62
     7
370
    25
100
AcDbLine
 10
-0.704255544
 20
13.5210406145
 30
0.0
 11
26.1889069243
 21
10.1328206229
 31
0.0
  0
LINE
  5
320
330
2BB
100
AcDbEntity
  8
0
  6
Continuous
 62
     7
370
    25
100
AcDbLine
 10
-0.704255544
 20
13.5210406145
 30
0.0
 11
-7.4217699637
 21
7.5967497533
 31
0.0
  0
LINE
  5
321
330
2BB
100
AcDbEntity
  8
0
  6
Continuous
 62
     7
370
    25
100
AcDbLine
 10
38.3492934316
 20
4.0752725313
 30
0.0
 11
26.1889069243
 21
5.6073372232
 31
0.0
  0
LINE
  5
322
330
2BB
100
AcDbEntity
  8
0
  6
Continuous
 62
     7
370
    25
100
AcDbLine
 10
72.2073184979
 20
0.2298206987
 30
0.0
 11
69.7324447643
 21
0.5416254807
 31
0.0
  0
LINE
  5
323
330
2BB
100
AcDbEntity
  8
0
  6
Continuous
 62
     7
370
    25
100
AcDbLine
 10
33.4272760695
 20
-23.3172198327
 30
0.0
 11
30.9524023359
 21
-25.4998533079
 31
0.0
  0
LINE
  5
324
330
2BB
100
AcDbEntity
  8
0
  6
Continuous
 62
     7
370
    25
100
AcDbLine
 10
33.4448730368
 20
-23.0031840505
 30
0.0
 11
33.4272760695
 21
-23.3172198327
 31
0.0
  0
LINE
  5
325
330
2BB
100
AcDbEntity
  8
0
  6
Continuous
 62
     7
370
    25
100
AcDbLine
 10
30.9524023359
 20
-43.4132250985
 30
0.0
 11
33.4272760695
 21
-41.2305916233
 31
0.0
  0
LINE
  5
326
330
2BB
100
AcDbEntity
  8
0
  6
Continuous
 62
     7
370
    25
100
AcDbLine
 10
33.4272760695
 20
-41.2305916233
 30
0.0
 11
33.4272760695
 21
-23.3172198327
 31
0.0
  0
LINE
  5
327
330
2BB
100
AcDbEntity
  8
0
  6
Continuous
 62
     8
370
    25
100
AcDbLine
 10
65.8433574687
 20
-13.8679467548
 30
0.0
 11
64.9079431219
 21
-13.7500956247
 31
0.0
  0
ARC
  5
328
330
2BB
100
AcDbEntity
  8
0
  6
Continuous
 62
     7
370
    25
100
AcDbCircle
 10
33.3982842443
 20
-25.4447955825
 30
0.0
 40
2.446501514984543
100
AcDbArc
 50
81.5297123691
 51
181.2895318533
  0
ARC
  5
329
330
2BB
100
AcDbEntity
  8
0
  6
Continuous
 62
     7
370
    25
100
AcDbCircle
 10
58.0420195413
 20
-13.4937368723
 30
0.0
 40
5.298354587389086
100
AcDbArc
 50
179.1257972878
 51
283.1808384782
  0
ARC
  5
32A
330
2BB
100
AcDbEntity
  8
0
  6
Continuous
 62
     7
370
    25
100
AcDbCircle
 10
32.3927742671
 20
-6.8970614899
 30
0.0
 40
8.699551267330921
100
AcDbArc
 50
83.3993478421
 51
96.6006521579
  0
ARC
  5
32B
330
2BB
100
AcDbEntity
  8
0
  6
Continuous
 62
     7
370
    25
100
AcDbCircle
 10
33.7212465265
 20
-10.4296074885
 30
0.0
 40
5.298354587389662
100
AcDbArc
 50
179.1257972878
 51
283.1808384781
  0
ARC
  5
32C
330
2BB
100
AcDbEntity
  8
0
  6
Continuous
 62
     7
370
    25
100
AcDbCircle
 10
9.4004735116
 20
-7.3654781048
 30
0.0
 40
5.298354587389731
100
AcDbArc
 50
179.1257972878
 51
283.1808384781
  0
ARC
  5
32D
330
2BB
100
AcDbEntity
  8
0
  6
Continuous
 62
     7
370
    25
100
AcDbCircle
 10
14.9745518569
 20
-30.1629025104
 30
0.0
 40
3.634728201451214
100
AcDbArc
 50
154.9304102463
 51
287.8888339737
  0
VIEWPORT
  5
33E
330
2BB
100
AcDbEntity
  8
0
100
AcDbViewport
 10
0.0
 20
0.0
 30
0.0
 40
205.6
 41
156.0
 68
     1
 69
     1
 12
-8.4919354839
 22
-11.0
 13
0.0
 23
0.0
 14
10.0
 24
10.0
 15
10.0
 25
10.0
 16
0.0
 26
0.0
 36
1.0
 17
0.0
 27
0.0
 37
0.0
 42
50.0
 43
0.0
 44
0.0
 45
53.04
 50
0.0
 51
0.0
 72
   100
 90
   557152
  1

281
     0
 71
     1
 74
     0
110
0.0
120
0.0
130
0.0
111
1.0
121
0.0
131
0.0
112
0.0
122
1.0
132
0.0
 79
     0
146
0.0
  0
MTEXT
  5
34A
330
2BB
100
AcDbEntity
  8
0
  6
Continuous
 62
     7
100
AcDbMText
 10
-7.7753233542
 20
-44.4327914902
 30
0.0
 40
4.83362
 41
0.0
 71
     1
 72
     1
  1
Produit d'éducation SOLIDWORKS – A titre éducatif uniquement.
  7
SLDTEXTSTYLE0
 73
     1
 44
1.0
  0
ENDBLK
  5
2BE
330
2BB
100
AcDbEntity
  8
0
100
AcDbBlockEnd
  0
ENDSEC
  0
SECTION
  2
ENTITIES
  0
CIRCLE
  5
7F
330
1F
100
AcDbEntity
  8
0
  6
Continuous
 62
     7
370
    25
100
AcDbCircle
 10
-14.9919354839
 20
6.0
 30
0.0
 40
3.950000000000001
  0
LINE
  5
87
330
1F
100
AcDbEntity
  8
0
  6
Continuous
 62
     7
370
    25
100
AcDbLine
 10
-20.9919354839
 20
15.0
 30
0.0
 11
-21.9919354839
 21
14.0
 31
0.0
  0
LINE
  5
88
330
1F
100
AcDbEntity
  8
0
  6
Continuous
 62
     7
370
    25
100
AcDbLine
 10
-1.9919354839
 20
15.0
 30
0.0
 11
-20.9919354839
 21
15.0
 31
0.0
  0
LINE
  5
89
330
1F
100
AcDbEntity
  8
0
  6
Continuous
 62
     7
370
    25
100
AcDbLine
 10
-1.9919354839
 20
15.0
 30
0.0
 11
-1.9919354839
 21
8.0
 31
0.0
  0
LINE
  5
8A
330
1F
100
AcDbEntity
  8
0
  6
Continuous
 62
     7
370
    25
100
AcDbLine
 10
-1.9919354839
 20
8.0
 30
0.0
 11
5.0080645161
 21
8.0
 31
0.0
  0
LINE
  5
8B
330
1F
100
AcDbEntity
  8
0
  6
Continuous
 62
     7
370
    25
100
AcDbLine
 10
-5.9919354839
 20
0.0
 30
0.0
 11
5.0080645161
 21
0.0
 31
0.0
  0
LINE
  5
8C
330
1F
100
AcDbEntity
  8
0
  6
Continuous
 62
     7
370
    25
100
AcDbLine
 10
-5.9919354839
 20
-37.0
 30
0.0
 11
-5.9919354839
 21
0.0
 31
0.0
  0
LINE
  5
8D
330
1F
100
AcDbEntity
  8
0
  6
Continuous
 62
     7
370
    25
100
AcDbLine
 10
-12.9919354839
 20
-15.0
 30
0.0
 11
-5.9919354839
 21
-15.0
 31
0.0
  0
LINE
  5
8E
330
1F
100
AcDbEntity
  8
0
  6
Continuous
 62
     7
370
    25
100
AcDbLine
 10
-12.9919354839
 20
-37.0
 30
0.0
 11
-12.9919354839
 21
-1.0
 31
0.0
  0
LINE
  5
8F
330
1F
100
AcDbEntity
  8
0
  6
Continuous
 62
     7
370
    25
100
AcDbLine
 10
-18.9919354839
 20
0.0
 30
0.0
 11
-13.9919354839
 21
0.0
 31
0.0
  0
LINE
  5
90
330
1F
100
AcDbEntity
  8
0
  6
Continuous
 62
     7
370
    25
100
AcDbLine
 10
-21.9919354839
 20
3.0
 30
0.0
 11
-18.9919354839
 21
0.0
 31
0.0
  0
LINE
  5
91
330
1F
100
AcDbEntity
  8
0
  6
Continuous
 62
     7
370
    25
100
AcDbLine
 10
-21.9919354839
 20
14.0
 30
0.0
 11
-21.9919354839
 21
3.0
 31
0.0
  0
LINE
  5
92
330
1F
100
AcDbEntity
  8
0
  6
Continuous
 62
     7
370
    25
100
AcDbLine
 10
5.0080645161
 20
0.0
 30
0.0
 11
5.0080645161
 21
8.0
 31
0.0
  0
LINE
  5
93
330
1F
100
AcDbEntity
  8
0
  6
Continuous
 62
     7
370
    25
100
AcDbLine
 10
-5.9919354839
 20
-18.0
 30
0.0
 11
-12.9919354839
 21
-18.0
 31
0.0
  0
LINE
  5
94
330
1F
100
AcDbEntity
  8
0
  6
Continuous
 62
     7
370
    25
100
AcDbLine
 10
-12.9919354839
 20
-37.0
 30
0.0
 11
-5.9919354839
 21
-37.0
 31
0.0
  0
ARC
  5
95
330
1F
100
AcDbEntity
  8
0
  6
Continuous
 62
     7
370
    25
100
AcDbCircle
 10
-13.9919354839
 20
-1.0
 30
0.0
 40
0.9999999999999877
100
AcDbArc
 50
0.0
 51
90.0
  0
MTEXT
  5
342
330
1F
100
AcDbEntity
  8
0
  6
Continuous
 62
     7
100
AcDbMText
 10
-21.9919354839
 20
-38.0195663917
 30
0.0
 40
4.83362
 41
0.0
 71
     1
 72
     1
  1
Produit d'éducation SOLIDWORKS – A titre éducatif uniquement.
  7
SLDTEXTSTYLE0
 73
     1
 44
1.0
  0
CIRCLE
  5
A5
330
1B
100
AcDbEntity
 67
     1
  8
0
  6
Continuous
 62
     7
370
    25
100
AcDbCircle
 10
37.65
 20
-7.9919354839
 30
0.0
 40
3.000000000000007
  0
LINE
  5
AB
330
1B
100
AcDbEntity
 67
     1
  8
0
  6
Continuous
 62
     7
370
    25
100
AcDbLine
 10
28.75
 20
-21.9919354839
 30
0.0
 11
28.75
 21
-1.9919354839
 31
0.0
  0
LINE
  5
AC
330
1B
100
AcDbEntity
 67
     1
  8
0
  6
Continuous
 62
     7
370
    25
100
AcDbLine
 10
0.0
 20
-20.9919354839
 30
0.0
 11
28.75
 21
-20.9919354839
 31
0.0
  0
LINE
  5
AD
330
1B
100
AcDbEntity
 67
     1
  8
0
  6
Continuous
 62
     7
370
    25
100
AcDbLine
 10
0.0
 20
-1.9919354839
 30
0.0
 11
0.0
 21
-21.9919354839
 31
0.0
  0
LINE
  5
AE
330
1B
100
AcDbEntity
 67
     1
  8
0
  6
Continuous
 62
     7
370
    25
100
AcDbLine
 10
46.55
 20
-20.9919354839
 30
0.0
 11
75.3
 21
-20.9919354839
 31
0.0
  0
LINE
  5
AF
330
1B
100
AcDbEntity
 67
     1
  8
0
  6
Continuous
 62
     7
370
    25
100
AcDbLine
 10
46.55
 20
-21.9919354839
 30
0.0
 11
46.55
 21
-1.9919354839
 31
0.0
  0
LINE
  5
B0
330
1B
100
AcDbEntity
 67
     1
  8
0
  6
Continuous
 62
     7
370
    25
100
AcDbLine
 10
0.0
 20
-1.9919354839
 30
0.0
 11
75.3
 21
-1.9919354839
 31
0.0
  0
LINE
  5
B1
330
1B
100
AcDbEntity
 67
     1
  8
0
  6
Continuous
 62
     7
370
    25
100
AcDbLine
 10
75.3
 20
5.0080645161
 30
0.0
 11
75.3
 21
-21.9919354839
 31
0.0
  0
LINE
  5
B2
330
1B
100
AcDbEntity
 67
     1
  8
0
  6
Continuous
 62
     7
370
    25
100
AcDbLine
 10
75.3
 20
-21.9919354839
 30
0.0
 11
0.0
 21
-21.9919354839
 31
0.0
  0
LINE
  5
B3
330
1B
100
AcDbEntity
 67
     1
  8
0
  6
Continuous
 62
     7
370
    25
100
AcDbLine
 10
28.75
 20
-15.9919354839
 30
0.0
 11
46.55
 21
-15.9919354839
 31
0.0
  0
LINE
  5
B4
330
1B
100
AcDbEntity
 67
     1
  8
0
  6
Continuous
 62
     7
370
    25
100
AcDbLine
 10
72.3
 20
-1.9919354839
 30
0.0
 11
72.3
 21
5.0080645161
 31
0.0
  0
LINE
  5
B5
330
1B
100
AcDbEntity
 67
     1
  8
0
  6
Continuous
 62
     7
370
    25
100
AcDbLine
 10
75.3
 20
5.0080645161
 30
0.0
 11
72.3
 21
5.0080645161
 31
0.0
  0
VIEWPORT
  5
32E
330
1B
100
AcDbEntity
 67
     1
  8
0
100
AcDbViewport
 10
0.0
 20
0.0
 30
0.0
 40
205.6
 41
156.0
 68
     1
 69
     1
 12
-8.4919354839
 22
-11.0
 13
0.0
 23
0.0
 14
10.0
 24
10.0
 15
10.0
 25
10.0
 16
0.0
 26
0.0
 36
1.0
 17
0.0
 27
0.0
 37
0.0
 42
50.0
 43
0.0
 44
0.0
 45
53.04
 50
0.0
 51
0.0
 72
   100
 90
   557152
  1

281
     0
 71
     1
 74
     0
110
0.0
120
0.0
130
0.0
111
1.0
121
0.0
131
0.0
112
0.0
122
1.0
132
0.0
 79
     0
146
0.0
  0
MTEXT
  5
341
330
1B
100
AcDbEntity
 67
     1
  8
0
  6
Continuous
 62
     7
100
AcDbMText
 10
0.0
 20
-23.0115018756
 30
0.0
 40
4.83362
 41
0.0
 71
     1
 72
     1
  1
Produit d'éducation SOLIDWORKS – A titre éducatif uniquement.
  7
SLDTEXTSTYLE0
 73
     1
 44
1.0
  0
ENDSEC
  0
SECTION
  2
OBJECTS
  0
DICTIONARY
  5
C
330
0
100
AcDbDictionary
281
     1
  3
ACAD_GROUP
350
D
  3
ACAD_LAYOUT
350
1A
  3
ACAD_MLINESTYLE
350
17
  3
ACAD_PLOTSETTINGS
350
19
  3
ACAD_PLOTSTYLENAME
350
E
  3
ACAD_SCALELIST
350
47
  3
DWGPROPS
350
34B
  0
DICTIONARY
  5
D
102
{ACAD_REACTORS
330
C
102
}
330
C
100
AcDbDictionary
281
     1
  0
DICTIONARY
  5
1A
102
{ACAD_REACTORS
330
C
102
}
330
C
100
AcDbDictionary
281
     1
  3
_Arrière
350
26
  3
_Dessous
350
19A
  3
_Dessus
350
1E
  3
_Dimétrique
350
2BC
  3
_Face
350
12B
  3
_Gauche
350
17A
  3
_Isométrique
350
1DA
  3
_Normal à
350
DC
  3
_Trimétrique
350
249
  3
Model
350
22
  0
DICTIONARY
  5
17
102
{ACAD_REACTORS
330
C
102
}
330
C
100
AcDbDictionary
281
     1
  3
Standard
350
18
  0
DICTIONARY
  5
19
102
{ACAD_REACTORS
330
C
102
}
330
C
100
AcDbDictionary
281
     1
  0
ACDBDICTIONARYWDFLT
  5
E
102
{ACAD_REACTORS
330
C
102
}
330
C
100
AcDbDictionary
281
     1
  3
Normal
350
F
100
AcDbDictionaryWithDefault
340
F
  0
DICTIONARY
  5
47
102
{ACAD_REACTORS
330
C
102
}
330
C
100
AcDbDictionary
281
     1
  3
A0
350
48
  3
A1
350
49
  3
A2
350
4A
  3
A3
350
4B
  3
A4
350
4C
  3
A5
350
4D
  3
A6
350
4E
  3
A7
350
4F
  3
A8
350
50
  3
A9
350
51
  3
B0
350
52
  3
B1
350
53
  3
B2
350
54
  3
B3
350
55
  3
B4
350
56
  3
B5
350
57
  3
B6
350
58
  3
B7
350
59
  3
B8
350
5A
  3
B9
350
5B
  3
C0
350
5C
  3
C1
350
5D
  3
C2
350
5E
  3
C3
350
5F
  3
C4
350
60
  3
C5
350
61
  3
C6
350
62
  3
C7
350
63
  3
C8
350
64
  3
C9
350
65
  3
D0
350
66
  3
D1
350
67
  3
D2
350
68
  0
XRECORD
  5
34B
102
{ACAD_REACTORS
330
C
102
}
330
C
100
AcDbXrecord
280
     1
  1
DWGPROPS COOKIE
  2

  3

  4

  6

  7

  8
Alain BATAILLE
  9

300
=
301
=
302
=
303
=
304
=
305
=
306
=
307
=
308
=
309
=
 40
0.0
 41
2459856.719701898
 42
2459856.720231111
  1

 90
        0
  0
LAYOUT
  5
26
102
{ACAD_REACTORS
330
1A
102
}
330
1A
100
AcDbPlotSettings
  1

  2
none_device
  4
ISO_A4_(210.00_x_297.00_MM)
  6

 40
7.5
 41
20.0
 42
7.5
 43
20.0
 44
210.0
 45
297.0
 46
0.0
 47
0.0
 48
0.0
 49
0.0
140
0.0
141
0.0
142
1.0
143
0.2929961089
 70
   688
 72
     1
 73
     1
 74
     1
  7

 75
     0
147
3.4130146082
148
0.0
149
21.9919354839
100
AcDbLayout
  1
_Arrière
 70
     1
 71
     2
 10
0.0
 20
0.0
 11
0.0
 21
0.0
 12
0.0
 22
0.0
 32
0.0
 14
0.0
 24
0.0
 34
0.0
 15
0.0
 25
0.0
 35
0.0
146
0.0
 13
0.0
 23
0.0
 33
0.0
 16
1.0
 26
0.0
 36
0.0
 17
0.0
 27
1.0
 37
0.0
 76
     0
330
23
331
330
  0
LAYOUT
  5
19A
102
{ACAD_REACTORS
330
1A
102
}
330
1A
100
AcDbPlotSettings
  1

  2
none_device
  4
ISO_A4_(210.00_x_297.00_MM)
  6

 40
7.5
 41
20.0
 42
7.5
 43
20.0
 44
210.0
 45
297.0
 46
0.0
 47
0.0
 48
0.0
 49
0.0
140
0.0
141
0.0
142
1.0
143
0.2929961089
 70
   688
 72
     1
 73
     1
 74
     1
  7

 75
     0
147
3.4130146082
148
0.0
149
21.9919354839
100
AcDbLayout
  1
_Dessous
 70
     1
 71
     6
 10
0.0
 20
0.0
 11
0.0
 21
0.0
 12
0.0
 22
0.0
 32
0.0
 14
0.0
 24
0.0
 34
0.0
 15
0.0
 25
0.0
 35
0.0
146
0.0
 13
0.0
 23
0.0
 33
0.0
 16
1.0
 26
0.0
 36
0.0
 17
0.0
 27
1.0
 37
0.0
 76
     0
330
199
331
338
  0
LAYOUT
  5
1E
102
{ACAD_REACTORS
330
1A
102
}
330
1A
100
AcDbPlotSettings
  1

  2
none_device
  4
ISO_A4_(210.00_x_297.00_MM)
  6

 40
7.5
 41
20.0
 42
7.5
 43
20.0
 44
210.0
 45
297.0
 46
0.0
 47
0.0
 48
0.0
 49
0.0
140
0.0
141
0.0
142
1.0
143
0.2929961089
 70
   688
 72
     1
 73
     1
 74
     1
  7

 75
     0
147
3.4130146082
148
0.0
149
21.9919354839
100
AcDbLayout
  1
_Dessus
 70
     1
 71
     1
 10
-5.859922179
 20
-24.189406301
 11
81.159922179
 21
37.3397765784
 12
0.0
 22
0.0
 32
0.0
 14
0.0
 24
-21.9919354839
 34
0.0
 15
75.3
 25
5.0080645161
 35
0.0
146
0.0
 13
0.0
 23
0.0
 33
0.0
 16
1.0
 26
0.0
 36
0.0
 17
0.0
 27
1.0
 37
0.0
 76
     0
330
1B
331
32E
  0
LAYOUT
  5
2BC
102
{ACAD_REACTORS
330
1A
102
}
330
1A
100
AcDbPlotSettings
  1

  2
none_device
  4
ISO_A4_(210.00_x_297.00_MM)
  6

 40
7.5
 41
20.0
 42
7.5
 43
20.0
 44
210.0
 45
297.0
 46
0.0
 47
0.0
 48
0.0
 49
0.0
140
0.0
141
0.0
142
1.0
143
0.2929961089
 70
   688
 72
     1
 73
     1
 74
     1
  7

 75
     0
147
3.4130146082
148
0.0
149
21.9919354839
100
AcDbLayout
  1
_Dimétrique
 70
     1
 71
     9
 10
0.0
 20
0.0
 11
0.0
 21
0.0
 12
0.0
 22
0.0
 32
0.0
 14
0.0
 24
0.0
 34
0.0
 15
0.0
 25
0.0
 35
0.0
146
0.0
 13
0.0
 23
0.0
 33
0.0
 16
1.0
 26
0.0
 36
0.0
 17
0.0
 27
1.0
 37
0.0
 76
     0
330
2BB
331
33E
  0
LAYOUT
  5
12B
102
{ACAD_REACTORS
330
1A
102
}
330
1A
100
AcDbPlotSettings
  1

  2
none_device
  4
ISO_A4_(210.00_x_297.00_MM)
  6

 40
7.5
 41
20.0
 42
7.5
 43
20.0
 44
210.0
 45
297.0
 46
0.0
 47
0.0
 48
0.0
 49
0.0
140
0.0
141
0.0
142
1.0
143
0.2929961089
 70
   688
 72
     1
 73
     1
 74
     1
  7

 75
     0
147
3.4130146082
148
0.0
149
21.9919354839
100
AcDbLayout
  1
_Face
 70
     1
 71
     4
 10
0.0
 20
0.0
 11
0.0
 21
0.0
 12
0.0
 22
0.0
 32
0.0
 14
0.0
 24
0.0
 34
0.0
 15
0.0
 25
0.0
 35
0.0
146
0.0
 13
0.0
 23
0.0
 33
0.0
 16
1.0
 26
0.0
 36
0.0
 17
0.0
 27
1.0
 37
0.0
 76
     0
330
12A
331
334
  0
LAYOUT
  5
17A
102
{ACAD_REACTORS
330
1A
102
}
330
1A
100
AcDbPlotSettings
  1

  2
none_device
  4
ISO_A4_(210.00_x_297.00_MM)
  6

 40
7.5
 41
20.0
 42
7.5
 43
20.0
 44
210.0
 45
297.0
 46
0.0
 47
0.0
 48
0.0
 49
0.0
140
0.0
141
0.0
142
1.0
143
0.2929961089
 70
   688
 72
     1
 73
     1
 74
     1
  7

 75
     0
147
3.4130146082
148
0.0
149
21.9919354839
100
AcDbLayout
  1
_Gauche
 70
     1
 71
     5
 10
0.0
 20
0.0
 11
0.0
 21
0.0
 12
0.0
 22
0.0
 32
0.0
 14
0.0
 24
0.0
 34
0.0
 15
0.0
 25
0.0
 35
0.0
146
0.0
 13
0.0
 23
0.0
 33
0.0
 16
1.0
 26
0.0
 36
0.0
 17
0.0
 27
1.0
 37
0.0
 76
     0
330
179
331
336
  0
LAYOUT
  5
1DA
102
{ACAD_REACTORS
330
1A
102
}
330
1A
100
AcDbPlotSettings
  1

  2
none_device
  4
ISO_A4_(210.00_x_297.00_MM)
  6

 40
7.5
 41
20.0
 42
7.5
 43
20.0
 44
210.0
 45
297.0
 46
0.0
 47
0.0
 48
0.0
 49
0.0
140
0.0
141
0.0
142
1.0
143
0.2929961089
 70
   688
 72
     1
 73
     1
 74
     1
  7

 75
     0
147
3.4130146082
148
0.0
149
21.9919354839
100
AcDbLayout
  1
_Isométrique
 70
     1
 71
     7
 10
0.0
 20
0.0
 11
0.0
 21
0.0
 12
0.0
 22
0.0
 32
0.0
 14
0.0
 24
0.0
 34
0.0
 15
0.0
 25
0.0
 35
0.0
146
0.0
 13
0.0
 23
0.0
 33
0.0
 16
1.0
 26
0.0
 36
0.0
 17
0.0
 27
1.0
 37
0.0
 76
     0
330
1D9
331
33A
  0
LAYOUT
  5
DC
102
{ACAD_REACTORS
330
1A
102
}
330
1A
100
AcDbPlotSettings
  1

  2
none_device
  4
ISO_A4_(210.00_x_297.00_MM)
  6

 40
7.5
 41
20.0
 42
7.5
 43
20.0
 44
210.0
 45
297.0
 46
0.0
 47
0.0
 48
0.0
 49
0.0
140
0.0
141
0.0
142
1.0
143
0.2929961089
 70
   688
 72
     1
 73
     1
 74
     1
  7

 75
     0
147
3.4130146082
148
0.0
149
21.9919354839
100
AcDbLayout
  1
_Normal à
 70
     1
 71
     3
 10
0.0
 20
0.0
 11
0.0
 21
0.0
 12
0.0
 22
0.0
 32
0.0
 14
0.0
 24
0.0
 34
0.0
 15
0.0
 25
0.0
 35
0.0
146
0.0
 13
0.0
 23
0.0
 33
0.0
 16
1.0
 26
0.0
 36
0.0
 17
0.0
 27
1.0
 37
0.0
 76
     0
330
DB
331
332
  0
LAYOUT
  5
249
102
{ACAD_REACTORS
330
1A
102
}
330
1A
100
AcDbPlotSettings
  1

  2
none_device
  4
ISO_A4_(210.00_x_297.00_MM)
  6

 40
7.5
 41
20.0
 42
7.5
 43
20.0
 44
210.0
 45
297.0
 46
0.0
 47
0.0
 48
0.0
 49
0.0
140
0.0
141
0.0
142
1.0
143
0.2929961089
 70
   688
 72
     1
 73
     1
 74
     1
  7

 75
     0
147
3.4130146082
148
0.0
149
21.9919354839
100
AcDbLayout
  1
_Trimétrique
 70
     1
 71
     8
 10
0.0
 20
0.0
 11
0.0
 21
0.0
 12
0.0
 22
0.0
 32
0.0
 14
0.0
 24
0.0
 34
0.0
 15
0.0
 25
0.0
 35
0.0
146
0.0
 13
0.0
 23
0.0
 33
0.0
 16
1.0
 26
0.0
 36
0.0
 17
0.0
 27
1.0
 37
0.0
 76
     0
330
248
331
33C
  0
LAYOUT
  5
22
102
{ACAD_REACTORS
330
1A
102
}
330
1A
100
AcDbPlotSettings
  1

  2
none_device
  4
ANSI_A_(11.00_x_8.50_Inches)
  6

 40
6.35
 41
19.05
 42
6.35000508
 43
19.05000254
 44
279.4
 45
215.9
 46
168.2552817342
 47
134.1144410377
 48
0.0
 49
0.0
140
0.0
141
0.0
142
0.1618269231
143
1.0
 70
  1696
 72
     0
 73
     0
 74
     0
  7

 75
     0
147
0.0179189148
148
-1300.4909072572
149
0.0
100
AcDbLayout
  1
Model
 70
     1
 71
     0
 10
0.0
 20
0.0
 11
420.0
 21
297.0
 12
0.0
 22
0.0
 32
0.0
 14
-21.9919354839
 24
-37.0
 34
0.0
 15
5.0080645161
 25
15.0
 35
0.0
146
0.0
 13
0.0
 23
0.0
 33
0.0
 16
1.0
 26
0.0
 36
0.0
 17
0.0
 27
1.0
 37
0.0
 76
     0
330
1F
331
29
  0
MLINESTYLE
  5
18
102
{ACAD_REACTORS
330
17
102
}
330
17
100
AcDbMlineStyle
  2
Standard
 70
     0
  3

 62
   256
 51
90.0
 52
90.0
 71
     2
 49
0.5
 62
   256
  6
BYLAYER
 49
-0.5
 62
   256
  6
BYLAYER
  0
ACDBPLACEHOLDER
  5
F
102
{ACAD_REACTORS
330
E
102
}
330
E
  0
SCALE
  5
48
102
{ACAD_REACTORS
330
47
102
}
330
47
100
AcDbScale
 70
     0
300
1:1
140
1.0
141
1.0
290
     1
  0
SCALE
  5
49
102
{ACAD_REACTORS
330
47
102
}
330
47
100
AcDbScale
 70
     0
300
1:2
140
1.0
141
2.0
290
     0
  0
SCALE
  5
4A
102
{ACAD_REACTORS
330
47
102
}
330
47
100
AcDbScale
 70
     0
300
1:4
140
1.0
141
4.0
290
     0
  0
SCALE
  5
4B
102
{ACAD_REACTORS
330
47
102
}
330
47
100
AcDbScale
 70
     0
300
1:5
140
1.0
141
5.0
290
     0
  0
SCALE
  5
4C
102
{ACAD_REACTORS
330
47
102
}
330
47
100
AcDbScale
 70
     0
300
1:8
140
1.0
141
8.0
290
     0
  0
SCALE
  5
4D
102
{ACAD_REACTORS
330
47
102
}
330
47
100
AcDbScale
 70
     0
300
1:10
140
1.0
141
10.0
290
     0
  0
SCALE
  5
4E
102
{ACAD_REACTORS
330
47
102
}
330
47
100
AcDbScale
 70
     0
300
1:16
140
1.0
141
16.0
290
     0
  0
SCALE
  5
4F
102
{ACAD_REACTORS
330
47
102
}
330
47
100
AcDbScale
 70
     0
300
1:20
140
1.0
141
20.0
290
     0
  0
SCALE
  5
50
102
{ACAD_REACTORS
330
47
102
}
330
47
100
AcDbScale
 70
     0
300
1:30
140
1.0
141
30.0
290
     0
  0
SCALE
  5
51
102
{ACAD_REACTORS
330
47
102
}
330
47
100
AcDbScale
 70
     0
300
1:40
140
1.0
141
40.0
290
     0
  0
SCALE
  5
52
102
{ACAD_REACTORS
330
47
102
}
330
47
100
AcDbScale
 70
     0
300
1:50
140
1.0
141
50.0
290
     0
  0
SCALE
  5
53
102
{ACAD_REACTORS
330
47
102
}
330
47
100
AcDbScale
 70
     0
300
1:100
140
1.0
141
100.0
290
     0
  0
SCALE
  5
54
102
{ACAD_REACTORS
330
47
102
}
330
47
100
AcDbScale
 70
     0
300
2:1
140
2.0
141
1.0
290
     0
  0
SCALE
  5
55
102
{ACAD_REACTORS
330
47
102
}
330
47
100
AcDbScale
 70
     0
300
4:1
140
4.0
141
1.0
290
     0
  0
SCALE
  5
56
102
{ACAD_REACTORS
330
47
102
}
330
47
100
AcDbScale
 70
     0
300
8:1
140
8.0
141
1.0
290
     0
  0
SCALE
  5
57
102
{ACAD_REACTORS
330
47
102
}
330
47
100
AcDbScale
 70
     0
300
10:1
140
10.0
141
1.0
290
     0
  0
SCALE
  5
58
102
{ACAD_REACTORS
330
47
102
}
330
47
100
AcDbScale
 70
     0
300
100:1
140
100.0
141
1.0
290
     0
  0
SCALE
  5
59
102
{ACAD_REACTORS
330
47
102
}
330
47
100
AcDbScale
 70
     0
300
1/128" = 1'-0"
140
0.0078125
141
12.0
290
     0
  0
SCALE
  5
5A
102
{ACAD_REACTORS
330
47
102
}
330
47
100
AcDbScale
 70
     0
300
1/64" = 1'-0"
140
0.015625
141
12.0
290
     0
  0
SCALE
  5
5B
102
{ACAD_REACTORS
330
47
102
}
330
47
100
AcDbScale
 70
     0
300
1/32" = 1'-0"
140
0.03125
141
12.0
290
     0
  0
SCALE
  5
5C
102
{ACAD_REACTORS
330
47
102
}
330
47
100
AcDbScale
 70
     0
300
1/16" = 1'-0"
140
0.0625
141
12.0
290
     0
  0
SCALE
  5
5D
102
{ACAD_REACTORS
330
47
102
}
330
47
100
AcDbScale
 70
     0
300
3/32" = 1'-0"
140
0.09375
141
12.0
290
     0
  0
SCALE
  5
5E
102
{ACAD_REACTORS
330
47
102
}
330
47
100
AcDbScale
 70
     0
300
1/8" = 1'-0"
140
0.125
141
12.0
290
     0
  0
SCALE
  5
5F
102
{ACAD_REACTORS
330
47
102
}
330
47
100
AcDbScale
 70
     0
300
3/16" = 1'-0"
140
0.1875
141
12.0
290
     0
  0
SCALE
  5
60
102
{ACAD_REACTORS
330
47
102
}
330
47
100
AcDbScale
 70
     0
300
1/4" = 1'-0"
140
0.25
141
12.0
290
     0
  0
SCALE
  5
61
102
{ACAD_REACTORS
330
47
102
}
330
47
100
AcDbScale
 70
     0
300
3/8" = 1'-0"
140
0.375
141
12.0
290
     0
  0
SCALE
  5
62
102
{ACAD_REACTORS
330
47
102
}
330
47
100
AcDbScale
 70
     0
300
1/2" = 1'-0"
140
0.5
141
12.0
290
     0
  0
SCALE
  5
63
102
{ACAD_REACTORS
330
47
102
}
330
47
100
AcDbScale
 70
     0
300
3/4" = 1'-0"
140
0.75
141
12.0
290
     0
  0
SCALE
  5
64
102
{ACAD_REACTORS
330
47
102
}
330
47
100
AcDbScale
 70
     0
300
1" = 1'-0"
140
1.0
141
12.0
290
     0
  0
SCALE
  5
65
102
{ACAD_REACTORS
330
47
102
}
330
47
100
AcDbScale
 70
     0
300
1-1/2" = 1'-0"
140
1.5
141
12.0
290
     0
  0
SCALE
  5
66
102
{ACAD_REACTORS
330
47
102
}
330
47
100
AcDbScale
 70
     0
300
3" = 1'-0"
140
3.0
141
12.0
290
     0
  0
SCALE
  5
67
102
{ACAD_REACTORS
330
47
102
}
330
47
100
AcDbScale
 70
     0
300
6" = 1'-0"
140
6.0
141
12.0
290
     0
  0
SCALE
  5
68
102
{ACAD_REACTORS
330
47
102
}
330
47
100
AcDbScale
 70
     0
300
1'-0" = 1'-0"
140
12.0
141
12.0
290
     0
  0
ENDSEC
  0
EOF
