ISO-10303-21;
HEADER;
FILE_DESCRIPTION (( 'STEP AP214' ),
    '1' );
FILE_NAME ('sur épéseur.STEP',
    '2022-10-03T17:20:02',
    ( '' ),
    ( '' ),
    'SwSTEP 2.0',
    'SolidWorks 2018',
    '' );
FILE_SCHEMA (( 'AUTOMOTIVE_DESIGN' ));
ENDSEC;

DATA;
#1 = CARTESIAN_POINT ( 'NONE',  ( 0.000000000000000000, 0.000000000000000000, 0.000000000000000000 ) ) ;
#2 =( GEOMETRIC_REPRESENTATION_CONTEXT ( 3 ) GLOBAL_UNCERTAINTY_ASSIGNED_CONTEXT ( ( #208 ) ) GLOBAL_UNIT_ASSIGNED_CONTEXT ( ( #204, #155, #4 ) ) REPRESENTATION_CONTEXT ( 'NONE', 'WORKASPACE' ) );
#3 = CARTESIAN_POINT ( 'NONE',  ( 0.000000000000000000, 5.000000000000000000, 0.000000000000000000 ) ) ;
#4 =( NAMED_UNIT ( * ) SI_UNIT ( $, .STERADIAN. ) SOLID_ANGLE_UNIT ( ) );
#5 = AXIS2_PLACEMENT_3D ( 'NONE', #138, #123, #55 ) ;
#6 = ADVANCED_FACE ( 'NONE', ( #179, #95 ), #88, .F. ) ;
#7 =( LENGTH_UNIT ( ) NAMED_UNIT ( * ) SI_UNIT ( .MILLI., .METRE. ) );
#8 = LINE ( 'NONE', #147, #175 ) ;
#9 = EDGE_LOOP ( 'NONE', ( #238, #143, #159, #83 ) ) ;
#10 = ADVANCED_FACE ( 'NONE', ( #28 ), #33, .F. ) ;
#11 = MECHANICAL_DESIGN_GEOMETRIC_PRESENTATION_REPRESENTATION (  '', ( #29 ), #89 ) ;
#12 =( NAMED_UNIT ( * ) PLANE_ANGLE_UNIT ( ) SI_UNIT ( $, .RADIAN. ) );
#13 = EDGE_LOOP ( 'NONE', ( #133, #54 ) ) ;
#14 = CARTESIAN_POINT ( 'NONE',  ( 0.000000000000000000, 5.000000000000000000, -15.00000000000000000 ) ) ;
#15 = DIRECTION ( 'NONE',  ( 0.000000000000000000, -0.000000000000000000, 1.000000000000000000 ) ) ;
#16 = CIRCLE ( 'NONE', #214, 15.00000000000000000 ) ;
#17 = DIRECTION ( 'NONE',  ( 0.000000000000000000, 0.000000000000000000, 1.000000000000000000 ) ) ;
#18 = ORIENTED_EDGE ( 'NONE', *, *, #78, .F. ) ;
#19 = FILL_AREA_STYLE_COLOUR ( '', #113 ) ;
#20 = DIRECTION ( 'NONE',  ( -0.000000000000000000, 1.000000000000000000, -0.000000000000000000 ) ) ;
#21 = CARTESIAN_POINT ( 'NONE',  ( 0.000000000000000000, 4.999999999999999112, 0.000000000000000000 ) ) ;
#22 = ORIENTED_EDGE ( 'NONE', *, *, #171, .F. ) ;
#23 = CARTESIAN_POINT ( 'NONE',  ( 8.878689293818308102E-16, 5.000000000000000000, -7.249999999999997335 ) ) ;
#24 = CIRCLE ( 'NONE', #225, 7.249999999999997335 ) ;
#25 = EDGE_LOOP ( 'NONE', ( #187, #184 ) ) ;
#26 = PRODUCT_CONTEXT ( 'NONE', #45, 'mechanical' ) ;
#27 = EDGE_CURVE ( 'NONE', #68, #144, #132, .T. ) ;
#28 = FACE_OUTER_BOUND ( 'NONE', #9, .T. ) ;
#29 = STYLED_ITEM ( 'NONE', ( #141 ), #232 ) ;
#30 = CARTESIAN_POINT ( 'NONE',  ( 0.000000000000000000, 8.673617379884035472E-16, 0.000000000000000000 ) ) ;
#31 = VECTOR ( 'NONE', #154, 1000.000000000000000 ) ;
#32 =( LENGTH_UNIT ( ) NAMED_UNIT ( * ) SI_UNIT ( .MILLI., .METRE. ) );
#33 = CYLINDRICAL_SURFACE ( 'NONE', #190, 7.249999999999997335 ) ;
#34 = VERTEX_POINT ( 'NONE', #64 ) ;
#35 = PRESENTATION_LAYER_ASSIGNMENT (  '', '', ( #62 ) ) ;
#36 = ORIENTED_EDGE ( 'NONE', *, *, #126, .F. ) ;
#37 =( GEOMETRIC_REPRESENTATION_CONTEXT ( 3 ) GLOBAL_UNCERTAINTY_ASSIGNED_CONTEXT ( ( #66 ) ) GLOBAL_UNIT_ASSIGNED_CONTEXT ( ( #7, #210, #43 ) ) REPRESENTATION_CONTEXT ( 'NONE', 'WORKASPACE' ) );
#38 = DIRECTION ( 'NONE',  ( 0.000000000000000000, 1.000000000000000000, 0.000000000000000000 ) ) ;
#39 = CARTESIAN_POINT ( 'NONE',  ( 0.000000000000000000, 4.999999999999999112, 7.249999999999997335 ) ) ;
#40 = FILL_AREA_STYLE_COLOUR ( '', #87 ) ;
#41 = AXIS2_PLACEMENT_3D ( 'NONE', #81, #227, #178 ) ;
#42 = DIRECTION ( 'NONE',  ( 0.000000000000000000, 0.000000000000000000, 1.000000000000000000 ) ) ;
#43 =( NAMED_UNIT ( * ) SI_UNIT ( $, .STERADIAN. ) SOLID_ANGLE_UNIT ( ) );
#44 = PRESENTATION_STYLE_ASSIGNMENT (( #71 ) ) ;
#45 = APPLICATION_CONTEXT ( 'automotive_design' ) ;
#46 = SHAPE_DEFINITION_REPRESENTATION ( #82, #232 ) ;
#47 = SURFACE_SIDE_STYLE ('',( #75 ) ) ;
#48 = CARTESIAN_POINT ( 'NONE',  ( 0.000000000000000000, 5.000000000000000000, 0.000000000000000000 ) ) ;
#49 = CIRCLE ( 'NONE', #242, 7.249999999999997335 ) ;
#50 = FILL_AREA_STYLE_COLOUR ( '', #158 ) ;
#51 = SURFACE_STYLE_FILL_AREA ( #207 ) ;
#52 = FACE_OUTER_BOUND ( 'NONE', #61, .T. ) ;
#53 = SURFACE_STYLE_USAGE ( .BOTH. , #160 ) ;
#54 = ORIENTED_EDGE ( 'NONE', *, *, #104, .T. ) ;
#55 = DIRECTION ( 'NONE',  ( 0.000000000000000000, 0.000000000000000000, 1.000000000000000000 ) ) ;
#56 = DIRECTION ( 'NONE',  ( 0.000000000000000000, 0.000000000000000000, 1.000000000000000000 ) ) ;
#57 = UNCERTAINTY_MEASURE_WITH_UNIT (LENGTH_MEASURE( 1.000000000000000082E-05 ), #196, 'distance_accuracy_value', 'NONE');
#58 = DIRECTION ( 'NONE',  ( 0.000000000000000000, 1.000000000000000000, 0.000000000000000000 ) ) ;
#59 = DIRECTION ( 'NONE',  ( 0.000000000000000000, 0.000000000000000000, 1.000000000000000000 ) ) ;
#60 =( NAMED_UNIT ( * ) SI_UNIT ( $, .STERADIAN. ) SOLID_ANGLE_UNIT ( ) );
#61 = EDGE_LOOP ( 'NONE', ( #22, #18, #76, #100 ) ) ;
#62 = STYLED_ITEM ( 'NONE', ( #70 ), #10 ) ;
#63 = ORIENTED_EDGE ( 'NONE', *, *, #164, .T. ) ;
#64 = CARTESIAN_POINT ( 'NONE',  ( 0.000000000000000000, 8.673617379884035472E-16, 7.249999999999998224 ) ) ;
#65 = EDGE_LOOP ( 'NONE', ( #213, #197, #63, #91 ) ) ;
#66 = UNCERTAINTY_MEASURE_WITH_UNIT (LENGTH_MEASURE( 1.000000000000000082E-05 ), #7, 'distance_accuracy_value', 'NONE');
#67 = CARTESIAN_POINT ( 'NONE',  ( 0.000000000000000000, 5.000000000000000000, 0.000000000000000000 ) ) ;
#68 = VERTEX_POINT ( 'NONE', #14 ) ;
#69 = LINE ( 'NONE', #188, #234 ) ;
#70 = PRESENTATION_STYLE_ASSIGNMENT (( #130 ) ) ;
#71 = SURFACE_STYLE_USAGE ( .BOTH. , #170 ) ;
#72 = PRESENTATION_LAYER_ASSIGNMENT (  '', '', ( #195 ) ) ;
#73 = CARTESIAN_POINT ( 'NONE',  ( 8.878689293818308102E-16, 4.999999999999999112, -7.249999999999997335 ) ) ;
#74 = DIRECTION ( 'NONE',  ( 0.000000000000000000, 0.000000000000000000, 1.000000000000000000 ) ) ;
#75 = SURFACE_STYLE_FILL_AREA ( #239 ) ;
#76 = ORIENTED_EDGE ( 'NONE', *, *, #107, .T. ) ;
#77 = FILL_AREA_STYLE_COLOUR ( '', #209 ) ;
#78 = EDGE_CURVE ( 'NONE', #34, #235, #110, .T. ) ;
#79 = CYLINDRICAL_SURFACE ( 'NONE', #240, 7.249999999999997335 ) ;
#80 = ADVANCED_FACE ( 'NONE', ( #52 ), #79, .F. ) ;
#81 = CARTESIAN_POINT ( 'NONE',  ( 0.000000000000000000, 0.000000000000000000, 0.000000000000000000 ) ) ;
#82 = PRODUCT_DEFINITION_SHAPE ( 'NONE', 'NONE',  #152 ) ;
#83 = ORIENTED_EDGE ( 'NONE', *, *, #107, .F. ) ;
#84 = EDGE_LOOP ( 'NONE', ( #118, #36, #122, #231 ) ) ;
#85 = UNCERTAINTY_MEASURE_WITH_UNIT (LENGTH_MEASURE( 1.000000000000000082E-05 ), #167, 'distance_accuracy_value', 'NONE');
#86 = EDGE_CURVE ( 'NONE', #201, #229, #8, .T. ) ;
#87 = COLOUR_RGB ( '',0.4274509803921568429, 0.4588235294117646856, 0.4941176470588235503 ) ;
#88 = PLANE ( 'NONE',  #233 ) ;
#89 =( GEOMETRIC_REPRESENTATION_CONTEXT ( 3 ) GLOBAL_UNCERTAINTY_ASSIGNED_CONTEXT ( ( #85 ) ) GLOBAL_UNIT_ASSIGNED_CONTEXT ( ( #167, #12, #60 ) ) REPRESENTATION_CONTEXT ( 'NONE', 'WORKASPACE' ) );
#90 = DIRECTION ( 'NONE',  ( 0.000000000000000000, 0.000000000000000000, 1.000000000000000000 ) ) ;
#91 = ORIENTED_EDGE ( 'NONE', *, *, #27, .F. ) ;
#92 = DIRECTION ( 'NONE',  ( -0.000000000000000000, 1.000000000000000000, -0.000000000000000000 ) ) ;
#93 = UNCERTAINTY_MEASURE_WITH_UNIT (LENGTH_MEASURE( 1.000000000000000082E-05 ), #32, 'distance_accuracy_value', 'NONE');
#94 = CYLINDRICAL_SURFACE ( 'NONE', #109, 15.00000000000000000 ) ;
#95 = FACE_OUTER_BOUND ( 'NONE', #153, .T. ) ;
#96 = EDGE_CURVE ( 'NONE', #144, #229, #162, .T. ) ;
#97 = DIRECTION ( 'NONE',  ( -0.000000000000000000, 1.000000000000000000, -0.000000000000000000 ) ) ;
#98 = CARTESIAN_POINT ( 'NONE',  ( 1.836970198721029589E-15, 5.000000000000000000, 15.00000000000000000 ) ) ;
#99 = SURFACE_STYLE_FILL_AREA ( #243 ) ;
#100 = ORIENTED_EDGE ( 'NONE', *, *, #120, .T. ) ;
#101 = DIRECTION ( 'NONE',  ( 0.000000000000000000, 1.000000000000000000, 0.000000000000000000 ) ) ;
#102 = DIRECTION ( 'NONE',  ( 0.000000000000000000, 0.000000000000000000, -1.000000000000000000 ) ) ;
#103 = CARTESIAN_POINT ( 'NONE',  ( 0.000000000000000000, 5.000000000000000000, 0.000000000000000000 ) ) ;
#104 = EDGE_CURVE ( 'NONE', #235, #34, #128, .T. ) ;
#105 = CIRCLE ( 'NONE', #134, 15.00000000000000000 ) ;
#106 = CARTESIAN_POINT ( 'NONE',  ( 0.000000000000000000, 5.000000000000000000, 0.000000000000000000 ) ) ;
#107 = EDGE_CURVE ( 'NONE', #34, #114, #69, .T. ) ;
#108 = SURFACE_STYLE_FILL_AREA ( #230 ) ;
#109 = AXIS2_PLACEMENT_3D ( 'NONE', #106, #203, #189 ) ;
#110 = CIRCLE ( 'NONE', #199, 7.249999999999998224 ) ;
#111 = MECHANICAL_DESIGN_GEOMETRIC_PRESENTATION_REPRESENTATION (  '', ( #62 ), #145 ) ;
#112 = DIRECTION ( 'NONE',  ( 0.000000000000000000, 1.000000000000000000, 0.000000000000000000 ) ) ;
#113 = COLOUR_RGB ( '',0.7921568627450980005, 0.8196078431372548767, 0.9333333333333333481 ) ;
#114 = VERTEX_POINT ( 'NONE', #39 ) ;
#115 = EDGE_LOOP ( 'NONE', ( #222, #125 ) ) ;
#116 = PRESENTATION_LAYER_ASSIGNMENT (  '', '', ( #29 ) ) ;
#117 = PRESENTATION_LAYER_ASSIGNMENT (  '', '', ( #182 ) ) ;
#118 = ORIENTED_EDGE ( 'NONE', *, *, #86, .F. ) ;
#119 = PLANE ( 'NONE',  #193 ) ;
#120 = EDGE_CURVE ( 'NONE', #114, #165, #24, .T. ) ;
#121 = DIRECTION ( 'NONE',  ( -0.000000000000000000, 1.000000000000000000, -0.000000000000000000 ) ) ;
#122 = ORIENTED_EDGE ( 'NONE', *, *, #27, .T. ) ;
#123 = DIRECTION ( 'NONE',  ( -0.000000000000000000, 1.000000000000000000, -0.000000000000000000 ) ) ;
#124 = PRODUCT ( 'sur épéseur', 'sur épéseur', '', ( #26 ) ) ;
#125 = ORIENTED_EDGE ( 'NONE', *, *, #221, .F. ) ;
#126 = EDGE_CURVE ( 'NONE', #68, #201, #105, .T. ) ;
#127 = MECHANICAL_DESIGN_GEOMETRIC_PRESENTATION_REPRESENTATION (  '', ( #182 ), #139 ) ;
#128 = CIRCLE ( 'NONE', #5, 7.249999999999998224 ) ;
#129 = ADVANCED_FACE ( 'NONE', ( #215 ), #172, .T. ) ;
#130 = SURFACE_STYLE_USAGE ( .BOTH. , #47 ) ;
#131 = CARTESIAN_POINT ( 'NONE',  ( 0.000000000000000000, 0.000000000000000000, 0.000000000000000000 ) ) ;
#132 = LINE ( 'NONE', #183, #186 ) ;
#133 = ORIENTED_EDGE ( 'NONE', *, *, #78, .T. ) ;
#134 = AXIS2_PLACEMENT_3D ( 'NONE', #103, #101, #226 ) ;
#135 =( NAMED_UNIT ( * ) SI_UNIT ( $, .STERADIAN. ) SOLID_ANGLE_UNIT ( ) );
#136 = CARTESIAN_POINT ( 'NONE',  ( 0.000000000000000000, 0.000000000000000000, 0.000000000000000000 ) ) ;
#137 = DIRECTION ( 'NONE',  ( 0.000000000000000000, 0.000000000000000000, 1.000000000000000000 ) ) ;
#138 = CARTESIAN_POINT ( 'NONE',  ( 0.000000000000000000, 8.673617379884035472E-16, 0.000000000000000000 ) ) ;
#139 =( GEOMETRIC_REPRESENTATION_CONTEXT ( 3 ) GLOBAL_UNCERTAINTY_ASSIGNED_CONTEXT ( ( #93 ) ) GLOBAL_UNIT_ASSIGNED_CONTEXT ( ( #32, #198, #218 ) ) REPRESENTATION_CONTEXT ( 'NONE', 'WORKASPACE' ) );
#140 = CARTESIAN_POINT ( 'NONE',  ( 0.000000000000000000, 0.000000000000000000, -15.00000000000000000 ) ) ;
#141 = PRESENTATION_STYLE_ASSIGNMENT (( #191 ) ) ;
#142 = SURFACE_SIDE_STYLE ('',( #108 ) ) ;
#143 = ORIENTED_EDGE ( 'NONE', *, *, #171, .T. ) ;
#144 = VERTEX_POINT ( 'NONE', #140 ) ;
#145 =( GEOMETRIC_REPRESENTATION_CONTEXT ( 3 ) GLOBAL_UNCERTAINTY_ASSIGNED_CONTEXT ( ( #57 ) ) GLOBAL_UNIT_ASSIGNED_CONTEXT ( ( #196, #216, #135 ) ) REPRESENTATION_CONTEXT ( 'NONE', 'WORKASPACE' ) );
#146 = CIRCLE ( 'NONE', #181, 15.00000000000000000 ) ;
#147 = CARTESIAN_POINT ( 'NONE',  ( 1.836970198721029589E-15, 5.000000000000000000, 15.00000000000000000 ) ) ;
#148 = DIRECTION ( 'NONE',  ( 0.000000000000000000, 0.000000000000000000, 1.000000000000000000 ) ) ;
#149 = DIRECTION ( 'NONE',  ( -0.000000000000000000, -1.000000000000000000, -0.000000000000000000 ) ) ;
#150 = FACE_OUTER_BOUND ( 'NONE', #84, .T. ) ;
#151 = DIRECTION ( 'NONE',  ( -0.000000000000000000, -1.000000000000000000, -0.000000000000000000 ) ) ;
#152 = PRODUCT_DEFINITION ( 'UNKNOWN', '', #205, #192 ) ;
#153 = EDGE_LOOP ( 'NONE', ( #168, #180 ) ) ;
#154 = DIRECTION ( 'NONE',  ( -0.000000000000000000, 1.000000000000000000, -0.000000000000000000 ) ) ;
#155 =( NAMED_UNIT ( * ) PLANE_ANGLE_UNIT ( ) SI_UNIT ( $, .RADIAN. ) );
#156 = LINE ( 'NONE', #23, #31 ) ;
#157 = CARTESIAN_POINT ( 'NONE',  ( 8.878689293818310074E-16, 8.673617379884035472E-16, -7.249999999999999112 ) ) ;
#158 = COLOUR_RGB ( '',0.7921568627450980005, 0.8196078431372548767, 0.9333333333333333481 ) ;
#159 = ORIENTED_EDGE ( 'NONE', *, *, #221, .T. ) ;
#160 = SURFACE_SIDE_STYLE ('',( #51 ) ) ;
#161 = ADVANCED_FACE ( 'NONE', ( #169, #200 ), #119, .T. ) ;
#162 = CIRCLE ( 'NONE', #212, 15.00000000000000000 ) ;
#163 = MANIFOLD_SOLID_BREP ( 'Trou taraudé M16x1.51', #220 ) ;
#164 = EDGE_CURVE ( 'NONE', #229, #144, #16, .T. ) ;
#165 = VERTEX_POINT ( 'NONE', #73 ) ;
#166 = APPLICATION_CONTEXT ( 'automotive_design' ) ;
#167 =( LENGTH_UNIT ( ) NAMED_UNIT ( * ) SI_UNIT ( .MILLI., .METRE. ) );
#168 = ORIENTED_EDGE ( 'NONE', *, *, #96, .F. ) ;
#169 = FACE_BOUND ( 'NONE', #115, .T. ) ;
#170 = SURFACE_SIDE_STYLE ('',( #99 ) ) ;
#171 = EDGE_CURVE ( 'NONE', #235, #165, #156, .T. ) ;
#172 = CYLINDRICAL_SURFACE ( 'NONE', #185, 15.00000000000000000 ) ;
#173 = CARTESIAN_POINT ( 'NONE',  ( 0.000000000000000000, 5.000000000000000000, 0.000000000000000000 ) ) ;
#174 = CARTESIAN_POINT ( 'NONE',  ( 0.000000000000000000, 5.000000000000000000, 0.000000000000000000 ) ) ;
#175 = VECTOR ( 'NONE', #149, 1000.000000000000000 ) ;
#176 = DIRECTION ( 'NONE',  ( -0.000000000000000000, -1.000000000000000000, -0.000000000000000000 ) ) ;
#177 = EDGE_CURVE ( 'NONE', #201, #68, #146, .T. ) ;
#178 = DIRECTION ( 'NONE',  ( 1.000000000000000000, 0.000000000000000000, 0.000000000000000000 ) ) ;
#179 = FACE_BOUND ( 'NONE', #13, .T. ) ;
#180 = ORIENTED_EDGE ( 'NONE', *, *, #164, .F. ) ;
#181 = AXIS2_PLACEMENT_3D ( 'NONE', #174, #38, #56 ) ;
#182 = STYLED_ITEM ( 'NONE', ( #44 ), #80 ) ;
#183 = CARTESIAN_POINT ( 'NONE',  ( 0.000000000000000000, 5.000000000000000000, -15.00000000000000000 ) ) ;
#184 = ORIENTED_EDGE ( 'NONE', *, *, #177, .T. ) ;
#185 = AXIS2_PLACEMENT_3D ( 'NONE', #173, #176, #102 ) ;
#186 = VECTOR ( 'NONE', #151, 1000.000000000000000 ) ;
#187 = ORIENTED_EDGE ( 'NONE', *, *, #126, .T. ) ;
#188 = CARTESIAN_POINT ( 'NONE',  ( 0.000000000000000000, 5.000000000000000000, 7.249999999999997335 ) ) ;
#189 = DIRECTION ( 'NONE',  ( 0.000000000000000000, 0.000000000000000000, -1.000000000000000000 ) ) ;
#190 = AXIS2_PLACEMENT_3D ( 'NONE', #67, #236, #90 ) ;
#191 = SURFACE_STYLE_USAGE ( .BOTH. , #142 ) ;
#192 = PRODUCT_DEFINITION_CONTEXT ( 'detailed design', #166, 'design' ) ;
#193 = AXIS2_PLACEMENT_3D ( 'NONE', #3, #244, #206 ) ;
#194 = APPLICATION_PROTOCOL_DEFINITION ( 'draft international standard', 'automotive_design', 1998, #166 ) ;
#195 = STYLED_ITEM ( 'NONE', ( #241 ), #163 ) ;
#196 =( LENGTH_UNIT ( ) NAMED_UNIT ( * ) SI_UNIT ( .MILLI., .METRE. ) );
#197 = ORIENTED_EDGE ( 'NONE', *, *, #86, .T. ) ;
#198 =( NAMED_UNIT ( * ) PLANE_ANGLE_UNIT ( ) SI_UNIT ( $, .RADIAN. ) );
#199 = AXIS2_PLACEMENT_3D ( 'NONE', #30, #202, #148 ) ;
#200 = FACE_OUTER_BOUND ( 'NONE', #25, .T. ) ;
#201 = VERTEX_POINT ( 'NONE', #98 ) ;
#202 = DIRECTION ( 'NONE',  ( -0.000000000000000000, 1.000000000000000000, -0.000000000000000000 ) ) ;
#203 = DIRECTION ( 'NONE',  ( -0.000000000000000000, -1.000000000000000000, -0.000000000000000000 ) ) ;
#204 =( LENGTH_UNIT ( ) NAMED_UNIT ( * ) SI_UNIT ( .MILLI., .METRE. ) );
#205 = PRODUCT_DEFINITION_FORMATION_WITH_SPECIFIED_SOURCE ( 'ANY', '', #124, .NOT_KNOWN. ) ;
#206 = DIRECTION ( 'NONE',  ( 0.000000000000000000, -0.000000000000000000, 1.000000000000000000 ) ) ;
#207 = FILL_AREA_STYLE ('',( #77 ) ) ;
#208 = UNCERTAINTY_MEASURE_WITH_UNIT (LENGTH_MEASURE( 1.000000000000000082E-05 ), #204, 'distance_accuracy_value', 'NONE');
#209 = COLOUR_RGB ( '',0.4274509803921568429, 0.4588235294117646856, 0.4941176470588235503 ) ;
#210 =( NAMED_UNIT ( * ) PLANE_ANGLE_UNIT ( ) SI_UNIT ( $, .RADIAN. ) );
#211 = ADVANCED_FACE ( 'NONE', ( #150 ), #94, .T. ) ;
#212 = AXIS2_PLACEMENT_3D ( 'NONE', #136, #112, #74 ) ;
#213 = ORIENTED_EDGE ( 'NONE', *, *, #177, .F. ) ;
#214 = AXIS2_PLACEMENT_3D ( 'NONE', #1, #58, #137 ) ;
#215 = FACE_OUTER_BOUND ( 'NONE', #65, .T. ) ;
#216 =( NAMED_UNIT ( * ) PLANE_ANGLE_UNIT ( ) SI_UNIT ( $, .RADIAN. ) );
#217 = DIRECTION ( 'NONE',  ( 0.000000000000000000, 1.000000000000000000, 0.000000000000000000 ) ) ;
#218 =( NAMED_UNIT ( * ) SI_UNIT ( $, .STERADIAN. ) SOLID_ANGLE_UNIT ( ) );
#219 = PRODUCT_RELATED_PRODUCT_CATEGORY ( 'part', '', ( #124 ) ) ;
#220 = CLOSED_SHELL ( 'NONE', ( #10, #129, #211, #161, #6, #80 ) ) ;
#221 = EDGE_CURVE ( 'NONE', #165, #114, #49, .T. ) ;
#222 = ORIENTED_EDGE ( 'NONE', *, *, #120, .F. ) ;
#223 = CARTESIAN_POINT ( 'NONE',  ( 0.000000000000000000, 4.999999999999999112, 0.000000000000000000 ) ) ;
#224 = CARTESIAN_POINT ( 'NONE',  ( 1.836970198721029589E-15, 0.000000000000000000, 15.00000000000000000 ) ) ;
#225 = AXIS2_PLACEMENT_3D ( 'NONE', #21, #20, #42 ) ;
#226 = DIRECTION ( 'NONE',  ( 0.000000000000000000, 0.000000000000000000, 1.000000000000000000 ) ) ;
#227 = DIRECTION ( 'NONE',  ( 0.000000000000000000, 0.000000000000000000, 1.000000000000000000 ) ) ;
#228 = APPLICATION_PROTOCOL_DEFINITION ( 'draft international standard', 'automotive_design', 1998, #45 ) ;
#229 = VERTEX_POINT ( 'NONE', #224 ) ;
#230 = FILL_AREA_STYLE ('',( #40 ) ) ;
#231 = ORIENTED_EDGE ( 'NONE', *, *, #96, .T. ) ;
#232 = ADVANCED_BREP_SHAPE_REPRESENTATION ( 'sur ÚpÚseur', ( #163, #41 ), #37 ) ;
#233 = AXIS2_PLACEMENT_3D ( 'NONE', #131, #217, #15 ) ;
#234 = VECTOR ( 'NONE', #97, 1000.000000000000000 ) ;
#235 = VERTEX_POINT ( 'NONE', #157 ) ;
#236 = DIRECTION ( 'NONE',  ( -0.000000000000000000, 1.000000000000000000, -0.000000000000000000 ) ) ;
#237 = MECHANICAL_DESIGN_GEOMETRIC_PRESENTATION_REPRESENTATION (  '', ( #195 ), #2 ) ;
#238 = ORIENTED_EDGE ( 'NONE', *, *, #104, .F. ) ;
#239 = FILL_AREA_STYLE ('',( #50 ) ) ;
#240 = AXIS2_PLACEMENT_3D ( 'NONE', #48, #92, #17 ) ;
#241 = PRESENTATION_STYLE_ASSIGNMENT (( #53 ) ) ;
#242 = AXIS2_PLACEMENT_3D ( 'NONE', #223, #121, #59 ) ;
#243 = FILL_AREA_STYLE ('',( #19 ) ) ;
#244 = DIRECTION ( 'NONE',  ( 0.000000000000000000, 1.000000000000000000, 0.000000000000000000 ) ) ;
ENDSEC;
END-ISO-10303-21;
