  0
SECTION
  2
HEADER
  9
$ACADVER
  1
AC1015
  9
$ACADMAINTVER
 70
     6
  9
$DWGCODEPAGE
  3
ANSI_1252
  9
$INSBASE
 10
0.0
 20
0.0
 30
0.0
  9
$EXTMIN
 10
-57.2563482805
 20
-27.0
 30
0.0
  9
$EXTMAX
 10
88.480856755
 20
29.628770518
 30
0.0
  9
$LIMMIN
 10
0.0
 20
0.0
  9
$LIMMAX
 10
420.0
 20
297.0
  9
$ORTHOMODE
 70
     0
  9
$REGENMODE
 70
     1
  9
$FILLMODE
 70
     1
  9
$QTEXTMODE
 70
     0
  9
$MIRRTEXT
 70
     1
  9
$LTSCALE
 40
1.0
  9
$ATTMODE
 70
     1
  9
$TEXTSIZE
 40
3.5
  9
$TRACEWID
 40
1.0
  9
$TEXTSTYLE
  7
Standard
  9
$CLAYER
  8
0
  9
$CELTYPE
  6
ByLayer
  9
$CECOLOR
 62
   256
  9
$CELTSCALE
 40
1.0
  9
$DISPSILH
 70
     0
  9
$DIMSCALE
 40
1.0
  9
$DIMASZ
 40
3.302
  9
$DIMEXO
 40
0.0
  9
$DIMDLI
 40
3.75
  9
$DIMRND
 40
0.0
  9
$DIMDLE
 40
0.0
  9
$DIMEXE
 40
1.0
  9
$DIMTP
 40
0.0
  9
$DIMTM
 40
0.0
  9
$DIMTXT
 40
3.5
  9
$DIMCEN
 40
2.5
  9
$DIMTSZ
 40
0.0
  9
$DIMTOL
 70
     0
  9
$DIMLIM
 70
     0
  9
$DIMTIH
 70
     1
  9
$DIMTOH
 70
     1
  9
$DIMSE1
 70
     0
  9
$DIMSE2
 70
     0
  9
$DIMTAD
 70
     1
  9
$DIMZIN
 70
     1
  9
$DIMBLK
  1

  9
$DIMASO
 70
     1
  9
$DIMSHO
 70
     1
  9
$DIMPOST
  1

  9
$DIMAPOST
  1

  9
$DIMALT
 70
     0
  9
$DIMALTD
 70
     3
  9
$DIMALTF
 40
0.0393700787
  9
$DIMLFAC
 40
1.0
  9
$DIMTOFL
 70
     1
  9
$DIMTVP
 40
0.0
  9
$DIMTIX
 70
     0
  9
$DIMSOXD
 70
     0
  9
$DIMSAH
 70
     0
  9
$DIMBLK1
  1

  9
$DIMBLK2
  1

  9
$DIMSTYLE
  2
ISO-25
  9
$DIMCLRD
 70
     0
  9
$DIMCLRE
 70
     0
  9
$DIMCLRT
 70
     0
  9
$DIMTFAC
 40
1.0
  9
$DIMGAP
 40
1.524
  9
$DIMJUST
 70
     0
  9
$DIMSD1
 70
     0
  9
$DIMSD2
 70
     0
  9
$DIMTOLJ
 70
     0
  9
$DIMTZIN
 70
     1
  9
$DIMALTZ
 70
     0
  9
$DIMALTTZ
 70
     0
  9
$DIMUPT
 70
     0
  9
$DIMDEC
 70
     2
  9
$DIMTDEC
 70
     2
  9
$DIMALTU
 70
     2
  9
$DIMALTTD
 70
     3
  9
$DIMTXSTY
  7
Standard
  9
$DIMAUNIT
 70
     0
  9
$DIMADEC
 70
     2
  9
$DIMALTRND
 40
0.0
  9
$DIMAZIN
 70
     0
  9
$DIMDSEP
 70
    44
  9
$DIMATFIT
 70
     3
  9
$DIMFRAC
 70
     0
  9
$DIMLDRBLK
  1

  9
$DIMLUNIT
 70
     2
  9
$DIMLWD
 70
    -2
  9
$DIMLWE
 70
    -2
  9
$DIMTMOVE
 70
     0
  9
$LUNITS
 70
     2
  9
$LUPREC
 70
     2
  9
$SKETCHINC
 40
1.0
  9
$FILLETRAD
 40
10.0
  9
$AUNITS
 70
     0
  9
$AUPREC
 70
     2
  9
$MENU
  1
.
  9
$ELEVATION
 40
0.0
  9
$PELEVATION
 40
0.0
  9
$THICKNESS
 40
0.0
  9
$LIMCHECK
 70
     0
  9
$CHAMFERA
 40
0.0
  9
$CHAMFERB
 40
0.0
  9
$CHAMFERC
 40
0.0
  9
$CHAMFERD
 40
0.0
  9
$SKPOLY
 70
     0
  9
$TDCREATE
 40
2459856.801878275
  9
$TDUCREATE
 40
2459856.718544942
  9
$TDUPDATE
 40
2459856.802318831
  9
$TDUUPDATE
 40
2459856.718985497
  9
$TDINDWG
 40
0.0000000116
  9
$TDUSRTIMER
 40
0.0000000116
  9
$USRTIMER
 70
     1
  9
$ANGBASE
 50
0.0
  9
$ANGDIR
 70
     0
  9
$PDMODE
 70
     0
  9
$PDSIZE
 40
-1.0
  9
$PLINEWID
 40
0.0
  9
$SPLFRAME
 70
     0
  9
$SPLINETYPE
 70
     6
  9
$SPLINESEGS
 70
     8
  9
$HANDSEED
  5
3B5
  9
$SURFTAB1
 70
     6
  9
$SURFTAB2
 70
     6
  9
$SURFTYPE
 70
     6
  9
$SURFU
 70
     6
  9
$SURFV
 70
     6
  9
$UCSBASE
  2

  9
$UCSNAME
  2

  9
$UCSORG
 10
0.0
 20
0.0
 30
0.0
  9
$UCSXDIR
 10
1.0
 20
0.0
 30
0.0
  9
$UCSYDIR
 10
0.0
 20
1.0
 30
0.0
  9
$UCSORTHOREF
  2

  9
$UCSORTHOVIEW
 70
     0
  9
$UCSORGTOP
 10
0.0
 20
0.0
 30
0.0
  9
$UCSORGBOTTOM
 10
0.0
 20
0.0
 30
0.0
  9
$UCSORGLEFT
 10
0.0
 20
0.0
 30
0.0
  9
$UCSORGRIGHT
 10
0.0
 20
0.0
 30
0.0
  9
$UCSORGFRONT
 10
0.0
 20
0.0
 30
0.0
  9
$UCSORGBACK
 10
0.0
 20
0.0
 30
0.0
  9
$PUCSBASE
  2

  9
$PUCSNAME
  2

  9
$PUCSORG
 10
0.0
 20
0.0
 30
0.0
  9
$PUCSXDIR
 10
1.0
 20
0.0
 30
0.0
  9
$PUCSYDIR
 10
0.0
 20
1.0
 30
0.0
  9
$PUCSORTHOREF
  2

  9
$PUCSORTHOVIEW
 70
     0
  9
$PUCSORGTOP
 10
0.0
 20
0.0
 30
0.0
  9
$PUCSORGBOTTOM
 10
0.0
 20
0.0
 30
0.0
  9
$PUCSORGLEFT
 10
0.0
 20
0.0
 30
0.0
  9
$PUCSORGRIGHT
 10
0.0
 20
0.0
 30
0.0
  9
$PUCSORGFRONT
 10
0.0
 20
0.0
 30
0.0
  9
$PUCSORGBACK
 10
0.0
 20
0.0
 30
0.0
  9
$USERI1
 70
     0
  9
$USERI2
 70
     0
  9
$USERI3
 70
     0
  9
$USERI4
 70
     0
  9
$USERI5
 70
     0
  9
$USERR1
 40
0.0
  9
$USERR2
 40
0.0
  9
$USERR3
 40
0.0
  9
$USERR4
 40
0.0
  9
$USERR5
 40
0.0
  9
$WORLDVIEW
 70
     1
  9
$SHADEDGE
 70
     3
  9
$SHADEDIF
 70
    70
  9
$TILEMODE
 70
     1
  9
$MAXACTVP
 70
    64
  9
$PINSBASE
 10
0.0
 20
0.0
 30
0.0
  9
$PLIMCHECK
 70
     0
  9
$PEXTMIN
 10
-48.0
 20
-31.0
 30
0.0
  9
$PEXTMAX
 10
48.0
 20
4.0
 30
0.0
  9
$PLIMMIN
 10
-55.4708171206
 20
-33.8015564202
  9
$PLIMMAX
 10
55.4708171206
 20
44.6420233463
  9
$UNITMODE
 70
     0
  9
$VISRETAIN
 70
     1
  9
$PLINEGEN
 70
     0
  9
$PSLTSCALE
 70
     1
  9
$TREEDEPTH
 70
  3020
  9
$CMLSTYLE
  2
Standard
  9
$CMLJUST
 70
     0
  9
$CMLSCALE
 40
20.0
  9
$PROXYGRAPHICS
 70
     1
  9
$MEASUREMENT
 70
     1
  9
$CELWEIGHT
370
    -1
  9
$ENDCAPS
280
     0
  9
$JOINSTYLE
280
     0
  9
$LWDISPLAY
290
     1
  9
$INSUNITS
 70
     4
  9
$HYPERLINKBASE
  1

  9
$STYLESHEET
  1

  9
$XEDIT
290
     1
  9
$CEPSNTYPE
380
     0
  9
$PSTYLEMODE
290
     1
  9
$FINGERPRINTGUID
  2
{f8e22759-2625-4ac7-a0e2-28a9390519e9}
  9
$VERSIONGUID
  2
{FAEB1C32-E019-11D5-929B-00C0DF256EC4}
  9
$EXTNAMES
290
     1
  9
$PSVPSCALE
 40
0.0
  9
$OLESTARTUP
290
     0
  0
ENDSEC
  0
SECTION
  2
CLASSES
  0
CLASS
  1
ACDBDICTIONARYWDFLT
  2
AcDbDictionaryWithDefault
  3
ObjectDBX Classes
 90
        0
280
     0
281
     0
  0
CLASS
  1
VISUALSTYLE
  2
AcDbVisualStyle
  3
ObjectDBX Classes
 90
     4095
280
     0
281
     0
  0
CLASS
  1
MATERIAL
  2
AcDbMaterial
  3
ObjectDBX Classes
 90
     1153
280
     0
281
     0
  0
CLASS
  1
SCALE
  2
AcDbScale
  3
ObjectDBX Classes
 90
     1153
280
     0
281
     0
  0
CLASS
  1
TABLESTYLE
  2
AcDbTableStyle
  3
ObjectDBX Classes
 90
     4095
280
     0
281
     0
  0
CLASS
  1
MLEADERSTYLE
  2
AcDbMLeaderStyle
  3
ACDB_MLEADERSTYLE_CLASS
 90
     4095
280
     0
281
     0
  0
CLASS
  1
SUN
  2
AcDbSun
  3
SCENEOE
 90
     1153
280
     0
281
     0
  0
CLASS
  1
ACDBPLACEHOLDER
  2
AcDbPlaceHolder
  3
ObjectDBX Classes
 90
        0
280
     0
281
     0
  0
CLASS
  1
LAYOUT
  2
AcDbLayout
  3
ObjectDBX Classes
 90
        0
280
     0
281
     0
  0
ENDSEC
  0
SECTION
  2
TABLES
  0
TABLE
  2
VPORT
  5
8
330
0
100
AcDbSymbolTable
 70
     1
  0
VPORT
  5
29
330
8
100
AcDbSymbolTableRecord
100
AcDbViewportTableRecord
  2
*Active
 70
     0
 10
0.0
 20
0.0
 11
1.0
 21
1.0
 12
15.6122542373
 22
1.314385259
 13
0.0
 23
0.0
 14
10.0
 24
10.0
 15
10.0
 25
10.0
 16
0.0
 26
0.0
 36
1.0
 17
0.0
 27
0.0
 37
0.0
 40
57.7613459283
 41
2.5735541087
 42
50.0
 43
0.0
 44
0.0
 50
0.0
 51
0.0
 71
     0
 72
   100
 73
     1
 74
     3
 75
     0
 76
     0
 77
     0
 78
     0
281
     0
 65
     1
110
0.0
120
0.0
130
0.0
111
1.0
121
0.0
131
0.0
112
0.0
122
1.0
132
0.0
 79
     0
146
0.0
  0
ENDTAB
  0
TABLE
  2
LTYPE
  5
5
330
0
100
AcDbSymbolTable
 70
     6
  0
LTYPE
  5
14
330
5
100
AcDbSymbolTableRecord
100
AcDbLinetypeTableRecord
  2
ByBlock
 70
     0
  3

 72
    65
 73
     0
 40
0.0
  0
LTYPE
  5
15
330
5
100
AcDbSymbolTableRecord
100
AcDbLinetypeTableRecord
  2
ByLayer
 70
     0
  3

 72
    65
 73
     0
 40
0.0
  0
LTYPE
  5
16
330
5
100
AcDbSymbolTableRecord
100
AcDbLinetypeTableRecord
  2
Continuous
 70
     0
  3
Solid line
 72
    65
 73
     0
 40
0.0
  0
LTYPE
  5
6E
330
5
100
AcDbSymbolTableRecord
100
AcDbLinetypeTableRecord
  2
HIDDEN
 70
     0
  3
Hidden __ __ __ __ __ __ __ __ __ __ __ __ __ __
 72
    65
 73
     2
 40
1.905
 49
1.27
 74
     0
 49
-0.635
 74
     0
  0
LTYPE
  5
6F
330
5
100
AcDbSymbolTableRecord
100
AcDbLinetypeTableRecord
  2
PHANTOM
 70
     0
  3
Phantom ______  __  __  ______  __  __  ______
 72
    65
 73
     6
 40
12.7
 49
6.35
 74
     0
 49
-1.27
 74
     0
 49
1.27
 74
     0
 49
-1.27
 74
     0
 49
1.27
 74
     0
 49
-1.27
 74
     0
  0
LTYPE
  5
70
330
5
100
AcDbSymbolTableRecord
100
AcDbLinetypeTableRecord
  2
CENTER
 70
     0
  3
Center ____ _ ____ _ ____ _ ____ _ ____ _ ____
 72
    65
 73
     4
 40
10.16
 49
6.35
 74
     0
 49
-1.27
 74
     0
 49
1.27
 74
     0
 49
-1.27
 74
     0
  0
LTYPE
  5
71
330
5
100
AcDbSymbolTableRecord
100
AcDbLinetypeTableRecord
  2
CENTERX2
 70
     0
  3
Center (2x) ________  __  ________  __  _____
 72
    65
 73
     4
 40
20.32
 49
12.7
 74
     0
 49
-2.54
 74
     0
 49
2.54
 74
     0
 49
-2.54
 74
     0
  0
LTYPE
  5
72
330
5
100
AcDbSymbolTableRecord
100
AcDbLinetypeTableRecord
  2
DOT2
 70
     0
  3
Dot (.5x) ........................................
 72
    65
 73
     2
 40
0.635
 49
0.0
 74
     0
 49
-0.635
 74
     0
  0
ENDTAB
  0
TABLE
  2
LAYER
  5
2
330
0
100
AcDbSymbolTable
 70
     1
  0
LAYER
  5
10
330
2
100
AcDbSymbolTableRecord
100
AcDbLayerTableRecord
  2
0
 70
     0
 62
     7
  6
Continuous
370
    -3
390
F
  0
ENDTAB
  0
TABLE
  2
STYLE
  5
3
330
0
100
AcDbSymbolTable
 70
     2
  0
STYLE
  5
11
330
3
100
AcDbSymbolTableRecord
100
AcDbTextStyleTableRecord
  2
Standard
 70
     0
 40
0.0
 41
1.0
 50
0.0
 71
     0
 42
3.5
  3
txt
  4

  0
STYLE
  5
3A9
330
3
100
AcDbSymbolTableRecord
100
AcDbTextStyleTableRecord
  2
SLDTEXTSTYLE0
 70
     0
 40
0.0
 41
0.7
 50
0.0
 71
     0
 42
3.5
  3
TXT
  4
bigfont
  0
ENDTAB
  0
TABLE
  2
VIEW
  5
6
330
0
100
AcDbSymbolTable
 70
     0
  0
ENDTAB
  0
TABLE
  2
UCS
  5
7
330
0
100
AcDbSymbolTable
 70
     0
  0
ENDTAB
  0
TABLE
  2
APPID
  5
9
330
0
100
AcDbSymbolTable
 70
     1
  0
APPID
  5
12
330
9
100
AcDbSymbolTableRecord
100
AcDbRegAppTableRecord
  2
ACAD
 70
     0
  0
ENDTAB
  0
TABLE
  2
DIMSTYLE
  5
A
330
0
100
AcDbSymbolTable
 70
     1
100
AcDbDimStyleTable
  0
DIMSTYLE
105
27
330
A
100
AcDbSymbolTableRecord
100
AcDbDimStyleTableRecord
  2
ISO-25
 70
     0
 41
2.5
 42
0.625
 43
3.75
 44
1.25
 73
     0
 74
     0
 77
     1
 78
     8
140
2.5
141
2.5
143
0.0393700787
147
0.625
171
     3
172
     1
178
     0
271
     2
272
     2
274
     3
278
    44
283
     0
284
     8
340
11
  0
ENDTAB
  0
TABLE
  2
BLOCK_RECORD
  5
1
330
0
100
AcDbSymbolTable
 70
     8
  0
BLOCK_RECORD
  5
1F
330
1
100
AcDbSymbolTableRecord
100
AcDbBlockTableRecord
  2
*Model_Space
340
22
  0
BLOCK_RECORD
  5
1B
330
1
100
AcDbSymbolTableRecord
100
AcDbBlockTableRecord
  2
*Paper_Space
340
1E
  0
BLOCK_RECORD
  5
23
330
1
100
AcDbSymbolTableRecord
100
AcDbBlockTableRecord
  2
*Paper_Space0
340
26
  0
BLOCK_RECORD
  5
FF
330
1
100
AcDbSymbolTableRecord
100
AcDbBlockTableRecord
  2
*Paper_Space1
340
100
  0
BLOCK_RECORD
  5
13B
330
1
100
AcDbSymbolTableRecord
100
AcDbBlockTableRecord
  2
*Paper_Space2
340
13C
  0
BLOCK_RECORD
  5
180
330
1
100
AcDbSymbolTableRecord
100
AcDbBlockTableRecord
  2
*Paper_Space3
340
181
  0
BLOCK_RECORD
  5
1AD
330
1
100
AcDbSymbolTableRecord
100
AcDbBlockTableRecord
  2
*Paper_Space4
340
1AE
  0
BLOCK_RECORD
  5
1F4
330
1
100
AcDbSymbolTableRecord
100
AcDbBlockTableRecord
  2
*Paper_Space5
340
1F5
  0
BLOCK_RECORD
  5
274
330
1
100
AcDbSymbolTableRecord
100
AcDbBlockTableRecord
  2
*Paper_Space6
340
275
  0
BLOCK_RECORD
  5
301
330
1
100
AcDbSymbolTableRecord
100
AcDbBlockTableRecord
  2
*Paper_Space7
340
302
  0
ENDTAB
  0
ENDSEC
  0
SECTION
  2
BLOCKS
  0
BLOCK
  5
20
330
1F
100
AcDbEntity
  8
0
100
AcDbBlockBegin
  2
*Model_Space
 70
     0
 10
0.0
 20
0.0
 30
0.0
  3
*Model_Space
  1

  0
ENDBLK
  5
21
330
1F
100
AcDbEntity
  8
0
100
AcDbBlockEnd
  0
BLOCK
  5
1C
330
1B
100
AcDbEntity
 67
     1
  8
0
100
AcDbBlockBegin
  2
*Paper_Space
 70
     0
 10
0.0
 20
0.0
 30
0.0
  3
*Paper_Space
  1

  0
ENDBLK
  5
1D
330
1B
100
AcDbEntity
 67
     1
  8
0
100
AcDbBlockEnd
  0
BLOCK
  5
24
330
23
100
AcDbEntity
  8
0
100
AcDbBlockBegin
  2
*Paper_Space0
 70
     0
 10
0.0
 20
0.0
 30
0.0
  3
*Paper_Space0
  1

  0
CIRCLE
  5
EA
330
23
100
AcDbEntity
  8
0
  6
Continuous
 62
     7
370
    25
100
AcDbCircle
 10
-18.0
 20
18.0
 30
0.0
 40
4.050000000000002
  0
LINE
  5
F3
330
23
100
AcDbEntity
  8
0
  6
Continuous
 62
     7
370
    25
100
AcDbLine
 10
-31.0
 20
9.0
 30
0.0
 11
-10.0
 21
9.0
 31
0.0
  0
LINE
  5
F4
330
23
100
AcDbEntity
  8
0
  6
Continuous
 62
     7
370
    25
100
AcDbLine
 10
-31.0
 20
9.0
 30
0.0
 11
-31.0
 21
27.0
 31
0.0
  0
LINE
  5
F5
330
23
100
AcDbEntity
  8
0
  6
Continuous
 62
     7
370
    25
100
AcDbLine
 10
0.0
 20
26.0
 30
0.0
 11
-31.0
 21
26.0
 31
0.0
  0
LINE
  5
F6
330
23
100
AcDbEntity
  8
0
  6
Continuous
 62
     7
370
    25
100
AcDbLine
 10
0.0
 20
27.0
 30
0.0
 11
0.0
 21
10.9
 31
0.0
  0
LINE
  5
F7
330
23
100
AcDbEntity
  8
0
  6
Continuous
 62
     7
370
    25
100
AcDbLine
 10
4.0
 20
10.9
 30
0.0
 11
0.0
 21
10.9
 31
0.0
  0
LINE
  5
F8
330
23
100
AcDbEntity
  8
0
  6
Continuous
 62
     7
370
    25
100
AcDbLine
 10
0.0
 20
3.1
 30
0.0
 11
0.0
 21
-27.0
 31
0.0
  0
LINE
  5
F9
330
23
100
AcDbEntity
  8
0
  6
Continuous
 62
     7
370
    25
100
AcDbLine
 10
-10.0
 20
-26.0
 30
0.0
 11
0.0
 21
-26.0
 31
0.0
  0
LINE
  5
FA
330
23
100
AcDbEntity
  8
0
  6
Continuous
 62
     7
370
    25
100
AcDbLine
 10
-10.0
 20
9.0
 30
0.0
 11
-10.0
 21
-27.0
 31
0.0
  0
LINE
  5
FB
330
23
100
AcDbEntity
  8
0
  6
Continuous
 62
     7
370
    25
100
AcDbLine
 10
4.0
 20
10.9
 30
0.0
 11
4.0
 21
3.1
 31
0.0
  0
LINE
  5
FC
330
23
100
AcDbEntity
  8
0
  6
Continuous
 62
     7
370
    25
100
AcDbLine
 10
4.0
 20
3.1
 30
0.0
 11
0.0
 21
3.1
 31
0.0
  0
LINE
  5
FD
330
23
100
AcDbEntity
  8
0
  6
Continuous
 62
     7
370
    25
100
AcDbLine
 10
0.0
 20
-27.0
 30
0.0
 11
-10.0
 21
-27.0
 31
0.0
  0
LINE
  5
FE
330
23
100
AcDbEntity
  8
0
  6
Continuous
 62
     7
370
    25
100
AcDbLine
 10
-31.0
 20
27.0
 30
0.0
 11
0.0
 21
27.0
 31
0.0
  0
VIEWPORT
  5
399
330
23
100
AcDbEntity
  8
0
100
AcDbViewport
 10
0.0
 20
0.0
 30
0.0
 40
205.6
 41
156.0
 68
     1
 69
     1
 12
15.6122542373
 22
1.314385259
 13
0.0
 23
0.0
 14
10.0
 24
10.0
 15
10.0
 25
10.0
 16
0.0
 26
0.0
 36
1.0
 17
0.0
 27
0.0
 37
0.0
 42
50.0
 43
0.0
 44
0.0
 45
112.7903894225
 50
0.0
 51
0.0
 72
   100
 90
   557152
  1

281
     0
 71
     1
 74
     0
110
0.0
120
0.0
130
0.0
111
1.0
121
0.0
131
0.0
112
0.0
122
1.0
132
0.0
 79
     0
146
0.0
  0
MTEXT
  5
3AC
330
23
100
AcDbEntity
  8
0
  6
Continuous
 62
     7
100
AcDbMText
 10
-31.0
 20
-28.0195663917
 30
0.0
 40
4.83362
 41
0.0
 71
     1
 72
     1
  1
Produit d'éducation SOLIDWORKS – A titre éducatif uniquement.
  7
SLDTEXTSTYLE0
 73
     1
 44
1.0
  0
ENDBLK
  5
25
330
23
100
AcDbEntity
  8
0
100
AcDbBlockEnd
  0
BLOCK
  5
101
330
FF
100
AcDbEntity
  8
0
100
AcDbBlockBegin
  2
*Paper_Space1
 70
     0
 10
0.0
 20
0.0
 30
0.0
  3
*Paper_Space1
  1

  0
LINE
  5
103
330
FF
100
AcDbEntity
  8
0
  6
CENTERX2
 62
     7
100
AcDbLine
 10
-57.2563482805
 20
7.0
 30
0.0
 11
57.5898804064
 21
7.0
 31
0.0
  0
LINE
  5
104
330
FF
100
AcDbEntity
  8
0
  6
CENTERX2
 62
     7
100
AcDbLine
 10
0.0
 20
29.628770518
 30
0.0
 11
0.0
 21
2.390313569
 31
0.0
  0
POINT
  5
105
330
FF
100
AcDbEntity
  8
0
  6
Continuous
 62
     7
100
AcDbPoint
 10
0.0
 20
7.0
 30
0.0
  0
POINT
  5
106
330
FF
100
AcDbEntity
  8
0
  6
Continuous
 62
     7
100
AcDbPoint
 10
88.480856755
 20
-20.8306389884
 30
0.0
  0
POINT
  5
107
330
FF
100
AcDbEntity
  8
0
  6
Continuous
 62
     7
100
AcDbPoint
 10
26.0
 20
7.0
 30
0.0
  0
POINT
  5
108
330
FF
100
AcDbEntity
  8
0
  6
Continuous
 62
     7
100
AcDbPoint
 10
-26.0
 20
7.0
 30
0.0
  0
CIRCLE
  5
11A
330
FF
100
AcDbEntity
  8
0
  6
Continuous
 62
     7
370
    25
100
AcDbCircle
 10
26.0
 20
7.0
 30
0.0
 40
8.99999999999999
  0
CIRCLE
  5
11B
330
FF
100
AcDbEntity
  8
0
  6
Continuous
 62
     7
370
    25
100
AcDbCircle
 10
-26.0
 20
7.0
 30
0.0
 40
8.999999999999996
  0
CIRCLE
  5
11E
330
FF
100
AcDbEntity
  8
0
  6
Continuous
 62
     7
370
    25
100
AcDbCircle
 10
0.0
 20
7.0
 30
0.0
 40
8.999999999999998
  0
CIRCLE
  5
125
330
FF
100
AcDbEntity
  8
0
  6
Continuous
 62
     7
370
    25
100
AcDbCircle
 10
26.0
 20
7.0
 30
0.0
 40
4.050000000000004
  0
CIRCLE
  5
126
330
FF
100
AcDbEntity
  8
0
  6
Continuous
 62
     7
370
    25
100
AcDbCircle
 10
0.0
 20
7.0
 30
0.0
 40
4.05
  0
CIRCLE
  5
127
330
FF
100
AcDbEntity
  8
0
  6
Continuous
 62
     7
370
    25
100
AcDbCircle
 10
-26.0
 20
7.0
 30
0.0
 40
4.050000000000004
  0
LINE
  5
128
330
FF
100
AcDbEntity
  8
0
  6
Continuous
 62
     7
370
    25
100
AcDbLine
 10
38.0
 20
27.0
 30
0.0
 11
38.0
 21
9.0
 31
0.0
  0
LINE
  5
129
330
FF
100
AcDbEntity
  8
0
  6
Continuous
 62
     7
370
    25
100
AcDbLine
 10
48.0
 20
26.0
 30
0.0
 11
48.0
 21
-26.0
 31
0.0
  0
LINE
  5
12A
330
FF
100
AcDbEntity
  8
0
  6
Continuous
 62
     7
370
    25
100
AcDbLine
 10
38.0
 20
9.0
 30
0.0
 11
48.0
 21
9.0
 31
0.0
  0
LINE
  5
12B
330
FF
100
AcDbEntity
  8
0
  6
Continuous
 62
     7
370
    25
100
AcDbLine
 10
-38.0
 20
27.0
 30
0.0
 11
-38.0
 21
9.0
 31
0.0
  0
LINE
  5
12C
330
FF
100
AcDbEntity
  8
0
  6
Continuous
 62
     7
370
    25
100
AcDbLine
 10
-48.0
 20
9.0
 30
0.0
 11
-38.0
 21
9.0
 31
0.0
  0
LINE
  5
12D
330
FF
100
AcDbEntity
  8
0
  6
Continuous
 62
     7
370
    25
100
AcDbLine
 10
-48.0
 20
26.0
 30
0.0
 11
-48.0
 21
-11.0
 31
0.0
  0
LINE
  5
12E
330
FF
100
AcDbEntity
  8
0
  6
Continuous
 62
     7
370
    25
100
AcDbLine
 10
-8.0
 20
22.5
 30
0.0
 11
8.0
 21
22.5
 31
0.0
  0
LINE
  5
12F
330
FF
100
AcDbEntity
  8
0
  6
Continuous
 62
     7
370
    25
100
AcDbLine
 10
-8.0
 20
27.0
 30
0.0
 11
-8.0
 21
22.5
 31
0.0
  0
LINE
  5
130
330
FF
100
AcDbEntity
  8
0
  6
Continuous
 62
     7
370
    25
100
AcDbLine
 10
8.0
 20
27.0
 30
0.0
 11
8.0
 21
22.5
 31
0.0
  0
LINE
  5
131
330
FF
100
AcDbEntity
  8
0
  6
Continuous
 62
     7
370
    25
100
AcDbLine
 10
-47.0
 20
27.0
 30
0.0
 11
47.0
 21
27.0
 31
0.0
  0
LINE
  5
132
330
FF
100
AcDbEntity
  8
0
  6
Continuous
 62
     7
370
    25
100
AcDbLine
 10
0.0
 20
-26.0
 30
0.0
 11
0.0
 21
-14.0
 31
0.0
  0
LINE
  5
133
330
FF
100
AcDbEntity
  8
0
  6
Continuous
 62
     7
370
    25
100
AcDbLine
 10
-47.0
 20
-12.0
 30
0.0
 11
-2.0
 21
-12.0
 31
0.0
  0
LINE
  5
134
330
FF
100
AcDbEntity
  8
0
  6
Continuous
 62
     7
370
    25
100
AcDbLine
 10
1.0
 20
-27.0
 30
0.0
 11
47.0
 21
-27.0
 31
0.0
  0
ARC
  5
135
330
FF
100
AcDbEntity
  8
0
  6
Continuous
 62
     7
370
    25
100
AcDbCircle
 10
47.0
 20
26.0
 30
0.0
 40
1.000000000000004
100
AcDbArc
 50
0.0
 51
90.0
  0
ARC
  5
136
330
FF
100
AcDbEntity
  8
0
  6
Continuous
 62
     7
370
    25
100
AcDbCircle
 10
-47.0
 20
26.0
 30
0.0
 40
1.0
100
AcDbArc
 50
90.0
 51
180.0
  0
ARC
  5
137
330
FF
100
AcDbEntity
  8
0
  6
Continuous
 62
     7
370
    25
100
AcDbCircle
 10
1.0
 20
-26.0
 30
0.0
 40
1.000000000000004
100
AcDbArc
 50
180.0
 51
270.0
  0
ARC
  5
138
330
FF
100
AcDbEntity
  8
0
  6
Continuous
 62
     7
370
    25
100
AcDbCircle
 10
-2.0
 20
-14.0
 30
0.0
 40
2.000000000000005
100
AcDbArc
 50
0.0
 51
90.0
  0
ARC
  5
139
330
FF
100
AcDbEntity
  8
0
  6
Continuous
 62
     7
370
    25
100
AcDbCircle
 10
-47.0
 20
-11.0
 30
0.0
 40
1.0
100
AcDbArc
 50
180.0
 51
270.0
  0
ARC
  5
13A
330
FF
100
AcDbEntity
  8
0
  6
Continuous
 62
     7
370
    25
100
AcDbCircle
 10
47.0
 20
-26.0
 30
0.0
 40
1.0
100
AcDbArc
 50
270.0
 51
0.0
  0
VIEWPORT
  5
39B
330
FF
100
AcDbEntity
  8
0
100
AcDbViewport
 10
0.0
 20
0.0
 30
0.0
 40
205.6
 41
156.0
 68
     1
 69
     1
 12
15.6122542373
 22
1.314385259
 13
0.0
 23
0.0
 14
10.0
 24
10.0
 15
10.0
 25
10.0
 16
0.0
 26
0.0
 36
1.0
 17
0.0
 27
0.0
 37
0.0
 42
50.0
 43
0.0
 44
0.0
 45
112.7903894225
 50
0.0
 51
0.0
 72
   100
 90
   557152
  1

281
     0
 71
     1
 74
     0
110
0.0
120
0.0
130
0.0
111
1.0
121
0.0
131
0.0
112
0.0
122
1.0
132
0.0
 79
     0
146
0.0
  0
MTEXT
  5
3AD
330
FF
100
AcDbEntity
  8
0
  6
Continuous
 62
     7
100
AcDbMText
 10
-57.2563482805
 20
-28.0195663917
 30
0.0
 40
4.83362
 41
0.0
 71
     1
 72
     1
  1
Produit d'éducation SOLIDWORKS – A titre éducatif uniquement.
  7
SLDTEXTSTYLE0
 73
     1
 44
1.0
  0
ENDBLK
  5
102
330
FF
100
AcDbEntity
  8
0
100
AcDbBlockEnd
  0
BLOCK
  5
13D
330
13B
100
AcDbEntity
  8
0
100
AcDbBlockBegin
  2
*Paper_Space2
 70
     0
 10
0.0
 20
0.0
 30
0.0
  3
*Paper_Space2
  1

  0
LINE
  5
13F
330
13B
100
AcDbEntity
  8
0
  6
CENTERX2
 62
     7
100
AcDbLine
 10
57.2563482805
 20
7.0
 30
0.0
 11
-57.5898804064
 21
7.0
 31
0.0
  0
LINE
  5
140
330
13B
100
AcDbEntity
  8
0
  6
CENTERX2
 62
     7
100
AcDbLine
 10
0.0
 20
29.628770518
 30
0.0
 11
0.0
 21
2.390313569
 31
0.0
  0
POINT
  5
141
330
13B
100
AcDbEntity
  8
0
  6
Continuous
 62
     7
100
AcDbPoint
 10
0.0
 20
7.0
 30
0.0
  0
POINT
  5
142
330
13B
100
AcDbEntity
  8
0
  6
Continuous
 62
     7
100
AcDbPoint
 10
-88.480856755
 20
-20.8306389884
 30
0.0
  0
POINT
  5
143
330
13B
100
AcDbEntity
  8
0
  6
Continuous
 62
     7
100
AcDbPoint
 10
-26.0
 20
7.0
 30
0.0
  0
POINT
  5
144
330
13B
100
AcDbEntity
  8
0
  6
Continuous
 62
     7
100
AcDbPoint
 10
26.0
 20
7.0
 30
0.0
  0
LINE
  5
169
330
13B
100
AcDbEntity
  8
0
  6
Continuous
 62
     7
370
    25
100
AcDbLine
 10
-48.0
 20
26.0
 30
0.0
 11
-48.0
 21
-26.0
 31
0.0
  0
LINE
  5
16A
330
13B
100
AcDbEntity
  8
0
  6
Continuous
 62
     7
370
    25
100
AcDbLine
 10
-27.0920164834
 20
10.9
 30
0.0
 11
-48.0
 21
10.9
 31
0.0
  0
LINE
  5
16B
330
13B
100
AcDbEntity
  8
0
  6
Continuous
 62
     7
370
    25
100
AcDbLine
 10
-48.0
 20
3.1
 30
0.0
 11
-27.0920164834
 21
3.1
 31
0.0
  0
LINE
  5
16C
330
13B
100
AcDbEntity
  8
0
  6
Continuous
 62
     7
370
    25
100
AcDbLine
 10
-24.9079835166
 20
3.1
 30
0.0
 11
-1.0920164834
 21
3.1
 31
0.0
  0
LINE
  5
16D
330
13B
100
AcDbEntity
  8
0
  6
Continuous
 62
     7
370
    25
100
AcDbLine
 10
-1.0920164834
 20
10.9
 30
0.0
 11
-24.9079835166
 21
10.9
 31
0.0
  0
LINE
  5
16E
330
13B
100
AcDbEntity
  8
0
  6
Continuous
 62
     7
370
    25
100
AcDbLine
 10
1.0920164834
 20
3.1
 30
0.0
 11
24.9079835166
 21
3.1
 31
0.0
  0
LINE
  5
16F
330
13B
100
AcDbEntity
  8
0
  6
Continuous
 62
     7
370
    25
100
AcDbLine
 10
24.9079835166
 20
10.9
 30
0.0
 11
1.0920164834
 21
10.9
 31
0.0
  0
LINE
  5
170
330
13B
100
AcDbEntity
  8
0
  6
Continuous
 62
     7
370
    25
100
AcDbLine
 10
48.0
 20
10.9
 30
0.0
 11
27.0920164834
 21
10.9
 31
0.0
  0
LINE
  5
171
330
13B
100
AcDbEntity
  8
0
  6
Continuous
 62
     7
370
    25
100
AcDbLine
 10
48.0
 20
26.0
 30
0.0
 11
48.0
 21
-11.0
 31
0.0
  0
LINE
  5
172
330
13B
100
AcDbEntity
  8
0
  6
Continuous
 62
     7
370
    25
100
AcDbLine
 10
27.0920164834
 20
3.1
 30
0.0
 11
48.0
 21
3.1
 31
0.0
  0
LINE
  5
173
330
13B
100
AcDbEntity
  8
0
  6
Continuous
 62
     7
370
    25
100
AcDbLine
 10
47.0
 20
27.0
 30
0.0
 11
-47.0
 21
27.0
 31
0.0
  0
LINE
  5
174
330
13B
100
AcDbEntity
  8
0
  6
Continuous
 62
     7
370
    25
100
AcDbLine
 10
2.0
 20
-12.0
 30
0.0
 11
47.0
 21
-12.0
 31
0.0
  0
LINE
  5
175
330
13B
100
AcDbEntity
  8
0
  6
Continuous
 62
     7
370
    25
100
AcDbLine
 10
0.0
 20
-14.0
 30
0.0
 11
0.0
 21
-26.0
 31
0.0
  0
LINE
  5
176
330
13B
100
AcDbEntity
  8
0
  6
Continuous
 62
     7
370
    25
100
AcDbLine
 10
-1.0
 20
-27.0
 30
0.0
 11
-47.0
 21
-27.0
 31
0.0
  0
ARC
  5
177
330
13B
100
AcDbEntity
  8
0
  6
Continuous
 62
     7
370
    25
100
AcDbCircle
 10
-26.0
 20
7.0
 30
0.0
 40
4.05
100
AcDbArc
 50
285.642471013
 51
254.357528987
  0
ARC
  5
178
330
13B
100
AcDbEntity
  8
0
  6
Continuous
 62
     7
370
    25
100
AcDbCircle
 10
0.0
 20
7.0
 30
0.0
 40
4.050000000000002
100
AcDbArc
 50
285.642471013
 51
254.357528987
  0
ARC
  5
179
330
13B
100
AcDbEntity
  8
0
  6
Continuous
 62
     7
370
    25
100
AcDbCircle
 10
26.0
 20
7.0
 30
0.0
 40
4.050000000000002
100
AcDbArc
 50
285.642471013
 51
254.357528987
  0
ARC
  5
17A
330
13B
100
AcDbEntity
  8
0
  6
Continuous
 62
     7
370
    25
100
AcDbCircle
 10
-47.0
 20
26.0
 30
0.0
 40
0.9999999999999929
100
AcDbArc
 50
90.0
 51
180.0
  0
ARC
  5
17B
330
13B
100
AcDbEntity
  8
0
  6
Continuous
 62
     7
370
    25
100
AcDbCircle
 10
47.0
 20
26.0
 30
0.0
 40
1.000000000000011
100
AcDbArc
 50
0.0
 51
90.0
  0
ARC
  5
17C
330
13B
100
AcDbEntity
  8
0
  6
Continuous
 62
     7
370
    25
100
AcDbCircle
 10
47.0
 20
-11.0
 30
0.0
 40
1.000000000000007
100
AcDbArc
 50
270.0
 51
0.0
  0
ARC
  5
17D
330
13B
100
AcDbEntity
  8
0
  6
Continuous
 62
     7
370
    25
100
AcDbCircle
 10
2.0
 20
-14.0
 30
0.0
 40
2.000000000000012
100
AcDbArc
 50
90.0
 51
180.0
  0
ARC
  5
17E
330
13B
100
AcDbEntity
  8
0
  6
Continuous
 62
     7
370
    25
100
AcDbCircle
 10
-1.0
 20
-26.0
 30
0.0
 40
1.00000000000003
100
AcDbArc
 50
270.0
 51
0.0
  0
ARC
  5
17F
330
13B
100
AcDbEntity
  8
0
  6
Continuous
 62
     7
370
    25
100
AcDbCircle
 10
-47.0
 20
-26.0
 30
0.0
 40
0.9999999999999929
100
AcDbArc
 50
180.0
 51
270.0
  0
VIEWPORT
  5
39D
330
13B
100
AcDbEntity
  8
0
100
AcDbViewport
 10
0.0
 20
0.0
 30
0.0
 40
205.6
 41
156.0
 68
     1
 69
     1
 12
15.6122542373
 22
1.314385259
 13
0.0
 23
0.0
 14
10.0
 24
10.0
 15
10.0
 25
10.0
 16
0.0
 26
0.0
 36
1.0
 17
0.0
 27
0.0
 37
0.0
 42
50.0
 43
0.0
 44
0.0
 45
112.7903894225
 50
0.0
 51
0.0
 72
   100
 90
   557152
  1

281
     0
 71
     1
 74
     0
110
0.0
120
0.0
130
0.0
111
1.0
121
0.0
131
0.0
112
0.0
122
1.0
132
0.0
 79
     0
146
0.0
  0
MTEXT
  5
3AE
330
13B
100
AcDbEntity
  8
0
  6
Continuous
 62
     7
100
AcDbMText
 10
-88.480856755
 20
-28.0195663917
 30
0.0
 40
4.83362
 41
0.0
 71
     1
 72
     1
  1
Produit d'éducation SOLIDWORKS – A titre éducatif uniquement.
  7
SLDTEXTSTYLE0
 73
     1
 44
1.0
  0
ENDBLK
  5
13E
330
13B
100
AcDbEntity
  8
0
100
AcDbBlockEnd
  0
BLOCK
  5
182
330
180
100
AcDbEntity
  8
0
100
AcDbBlockBegin
  2
*Paper_Space3
 70
     0
 10
0.0
 20
0.0
 30
0.0
  3
*Paper_Space3
  1

  0
CIRCLE
  5
18D
330
180
100
AcDbEntity
  8
0
  6
Continuous
 62
     7
370
    25
100
AcDbCircle
 10
18.0
 20
18.0
 30
0.0
 40
4.050000000000002
  0
LINE
  5
19E
330
180
100
AcDbEntity
  8
0
  6
Continuous
 62
     7
370
    25
100
AcDbLine
 10
-4.0
 20
3.1
 30
0.0
 11
0.0
 21
3.1
 31
0.0
  0
LINE
  5
19F
330
180
100
AcDbEntity
  8
0
  6
Continuous
 62
     7
370
    25
100
AcDbLine
 10
-4.0
 20
10.9
 30
0.0
 11
0.0
 21
10.9
 31
0.0
  0
LINE
  5
1A0
330
180
100
AcDbEntity
  8
0
  6
Continuous
 62
     7
370
    25
100
AcDbLine
 10
0.0
 20
27.0
 30
0.0
 11
0.0
 21
10.9
 31
0.0
  0
LINE
  5
1A1
330
180
100
AcDbEntity
  8
0
  6
Continuous
 62
     7
370
    25
100
AcDbLine
 10
31.0
 20
26.0
 30
0.0
 11
0.0
 21
26.0
 31
0.0
  0
LINE
  5
1A2
330
180
100
AcDbEntity
  8
0
  6
Continuous
 62
     7
370
    25
100
AcDbLine
 10
31.0
 20
27.0
 30
0.0
 11
31.0
 21
9.0
 31
0.0
  0
LINE
  5
1A3
330
180
100
AcDbEntity
  8
0
  6
Continuous
 62
     7
370
    25
100
AcDbLine
 10
31.0
 20
9.0
 30
0.0
 11
10.0
 21
9.0
 31
0.0
  0
LINE
  5
1A4
330
180
100
AcDbEntity
  8
0
  6
Continuous
 62
     7
370
    25
100
AcDbLine
 10
10.0
 20
9.0
 30
0.0
 11
10.0
 21
-27.0
 31
0.0
  0
LINE
  5
1A5
330
180
100
AcDbEntity
  8
0
  6
Continuous
 62
     7
370
    25
100
AcDbLine
 10
0.0
 20
-11.0
 30
0.0
 11
10.0
 21
-11.0
 31
0.0
  0
LINE
  5
1A6
330
180
100
AcDbEntity
  8
0
  6
Continuous
 62
     7
370
    25
100
AcDbLine
 10
0.0
 20
3.1
 30
0.0
 11
0.0
 21
-27.0
 31
0.0
  0
LINE
  5
1A7
330
180
100
AcDbEntity
  8
0
  6
Continuous
 62
     7
370
    25
100
AcDbLine
 10
-4.0
 20
3.1
 30
0.0
 11
-4.0
 21
10.9
 31
0.0
  0
LINE
  5
1A8
330
180
100
AcDbEntity
  8
0
  6
Continuous
 62
     7
370
    25
100
AcDbLine
 10
10.0
 20
-12.0
 30
0.0
 11
0.0
 21
-12.0
 31
0.0
  0
LINE
  5
1A9
330
180
100
AcDbEntity
  8
0
  6
Continuous
 62
     7
370
    25
100
AcDbLine
 10
0.0
 20
27.0
 30
0.0
 11
31.0
 21
27.0
 31
0.0
  0
LINE
  5
1AA
330
180
100
AcDbEntity
  8
0
  6
Continuous
 62
     7
370
    25
100
AcDbLine
 10
10.0
 20
-14.0
 30
0.0
 11
0.0
 21
-14.0
 31
0.0
  0
LINE
  5
1AB
330
180
100
AcDbEntity
  8
0
  6
Continuous
 62
     7
370
    25
100
AcDbLine
 10
0.0
 20
-26.0
 30
0.0
 11
10.0
 21
-26.0
 31
0.0
  0
LINE
  5
1AC
330
180
100
AcDbEntity
  8
0
  6
Continuous
 62
     7
370
    25
100
AcDbLine
 10
10.0
 20
-27.0
 30
0.0
 11
0.0
 21
-27.0
 31
0.0
  0
VIEWPORT
  5
39F
330
180
100
AcDbEntity
  8
0
100
AcDbViewport
 10
0.0
 20
0.0
 30
0.0
 40
205.6
 41
156.0
 68
     1
 69
     1
 12
15.6122542373
 22
1.314385259
 13
0.0
 23
0.0
 14
10.0
 24
10.0
 15
10.0
 25
10.0
 16
0.0
 26
0.0
 36
1.0
 17
0.0
 27
0.0
 37
0.0
 42
50.0
 43
0.0
 44
0.0
 45
112.7903894225
 50
0.0
 51
0.0
 72
   100
 90
   557152
  1

281
     0
 71
     1
 74
     0
110
0.0
120
0.0
130
0.0
111
1.0
121
0.0
131
0.0
112
0.0
122
1.0
132
0.0
 79
     0
146
0.0
  0
MTEXT
  5
3AF
330
180
100
AcDbEntity
  8
0
  6
Continuous
 62
     7
100
AcDbMText
 10
-4.0
 20
-28.0195663917
 30
0.0
 40
4.83362
 41
0.0
 71
     1
 72
     1
  1
Produit d'éducation SOLIDWORKS – A titre éducatif uniquement.
  7
SLDTEXTSTYLE0
 73
     1
 44
1.0
  0
ENDBLK
  5
183
330
180
100
AcDbEntity
  8
0
100
AcDbBlockEnd
  0
BLOCK
  5
1AF
330
1AD
100
AcDbEntity
  8
0
100
AcDbBlockBegin
  2
*Paper_Space4
 70
     0
 10
0.0
 20
0.0
 30
0.0
  3
*Paper_Space4
  1

  0
CIRCLE
  5
1D9
330
1AD
100
AcDbEntity
  8
0
  6
Continuous
 62
     7
370
    25
100
AcDbCircle
 10
0.0
 20
25.0
 30
0.0
 40
2.500000000000002
  0
LINE
  5
1DA
330
1AD
100
AcDbEntity
  8
0
  6
Continuous
 62
     7
370
    25
100
AcDbLine
 10
48.0
 20
31.0
 30
0.0
 11
48.0
 21
-4.0
 31
0.0
  0
LINE
  5
1DB
330
1AD
100
AcDbEntity
  8
0
  6
Continuous
 62
     7
370
    25
100
AcDbLine
 10
-48.0
 20
0.0
 30
0.0
 11
48.0
 21
0.0
 31
0.0
  0
LINE
  5
1DC
330
1AD
100
AcDbEntity
  8
0
  6
Continuous
 62
     7
370
    25
100
AcDbLine
 10
47.0
 20
0.0
 30
0.0
 11
47.0
 21
10.0
 31
0.0
  0
LINE
  5
1DD
330
1AD
100
AcDbEntity
  8
0
  6
Continuous
 62
     7
370
    25
100
AcDbLine
 10
-48.0
 20
10.0
 30
0.0
 11
48.0
 21
10.0
 31
0.0
  0
LINE
  5
1DE
330
1AD
100
AcDbEntity
  8
0
  6
Continuous
 62
     7
370
    25
100
AcDbLine
 10
1.0
 20
10.0
 30
0.0
 11
1.0
 21
0.0
 31
0.0
  0
LINE
  5
1DF
330
1AD
100
AcDbEntity
  8
0
  6
Continuous
 62
     7
370
    25
100
AcDbLine
 10
0.0
 20
0.0
 30
0.0
 11
0.0
 21
10.0
 31
0.0
  0
LINE
  5
1E0
330
1AD
100
AcDbEntity
  8
0
  6
Continuous
 62
     7
370
    25
100
AcDbLine
 10
-2.0
 20
0.0
 30
0.0
 11
-2.0
 21
10.0
 31
0.0
  0
LINE
  5
1E1
330
1AD
100
AcDbEntity
  8
0
  6
Continuous
 62
     7
370
    25
100
AcDbLine
 10
-47.0
 20
10.0
 30
0.0
 11
-47.0
 21
0.0
 31
0.0
  0
LINE
  5
1E2
330
1AD
100
AcDbEntity
  8
0
  6
Continuous
 62
     7
370
    25
100
AcDbLine
 10
-48.0
 20
31.0
 30
0.0
 11
-48.0
 21
-4.0
 31
0.0
  0
LINE
  5
1E3
330
1AD
100
AcDbEntity
  8
0
  6
Continuous
 62
     7
370
    25
100
AcDbLine
 10
-1.0920164834
 20
-4.0
 30
0.0
 11
-1.0920164834
 21
0.0
 31
0.0
  0
LINE
  5
1E4
330
1AD
100
AcDbEntity
  8
0
  6
Continuous
 62
     7
370
    25
100
AcDbLine
 10
1.0920164834
 20
0.0
 30
0.0
 11
1.0920164834
 21
-4.0
 31
0.0
  0
LINE
  5
1E5
330
1AD
100
AcDbEntity
  8
0
  6
Continuous
 62
     7
370
    25
100
AcDbLine
 10
24.9079835166
 20
-4.0
 30
0.0
 11
24.9079835166
 21
0.0
 31
0.0
  0
LINE
  5
1E6
330
1AD
100
AcDbEntity
  8
0
  6
Continuous
 62
     7
370
    25
100
AcDbLine
 10
27.0920164834
 20
0.0
 30
0.0
 11
27.0920164834
 21
-4.0
 31
0.0
  0
LINE
  5
1E7
330
1AD
100
AcDbEntity
  8
0
  6
Continuous
 62
     7
370
    25
100
AcDbLine
 10
-27.0920164834
 20
-4.0
 30
0.0
 11
-27.0920164834
 21
0.0
 31
0.0
  0
LINE
  5
1E8
330
1AD
100
AcDbEntity
  8
0
  6
Continuous
 62
     7
370
    25
100
AcDbLine
 10
-24.9079835166
 20
0.0
 30
0.0
 11
-24.9079835166
 21
-4.0
 31
0.0
  0
LINE
  5
1E9
330
1AD
100
AcDbEntity
  8
0
  6
Continuous
 62
     7
370
    25
100
AcDbLine
 10
48.0
 20
-4.0
 30
0.0
 11
27.0920164834
 21
-4.0
 31
0.0
  0
LINE
  5
1EA
330
1AD
100
AcDbEntity
  8
0
  6
Continuous
 62
     7
370
    25
100
AcDbLine
 10
24.9079835166
 20
-4.0
 30
0.0
 11
1.0920164834
 21
-4.0
 31
0.0
  0
LINE
  5
1EB
330
1AD
100
AcDbEntity
  8
0
  6
Continuous
 62
     7
370
    25
100
AcDbLine
 10
-1.0920164834
 20
-4.0
 30
0.0
 11
-24.9079835166
 21
-4.0
 31
0.0
  0
LINE
  5
1EC
330
1AD
100
AcDbEntity
  8
0
  6
Continuous
 62
     7
370
    25
100
AcDbLine
 10
-27.0920164834
 20
-4.0
 30
0.0
 11
-48.0
 21
-4.0
 31
0.0
  0
LINE
  5
1ED
330
1AD
100
AcDbEntity
  8
0
  6
Continuous
 62
     7
370
    25
100
AcDbLine
 10
38.0
 20
31.0
 30
0.0
 11
38.0
 21
10.0
 31
0.0
  0
LINE
  5
1EE
330
1AD
100
AcDbEntity
  8
0
  6
Continuous
 62
     7
370
    25
100
AcDbLine
 10
38.0
 20
31.0
 30
0.0
 11
48.0
 21
31.0
 31
0.0
  0
LINE
  5
1EF
330
1AD
100
AcDbEntity
  8
0
  6
Continuous
 62
     7
370
    25
100
AcDbLine
 10
-48.0
 20
31.0
 30
0.0
 11
-38.0
 21
31.0
 31
0.0
  0
LINE
  5
1F0
330
1AD
100
AcDbEntity
  8
0
  6
Continuous
 62
     7
370
    25
100
AcDbLine
 10
-38.0
 20
31.0
 30
0.0
 11
-38.0
 21
10.0
 31
0.0
  0
LINE
  5
1F1
330
1AD
100
AcDbEntity
  8
0
  6
Continuous
 62
     7
370
    25
100
AcDbLine
 10
-8.0
 20
31.0
 30
0.0
 11
-8.0
 21
10.0
 31
0.0
  0
LINE
  5
1F2
330
1AD
100
AcDbEntity
  8
0
  6
Continuous
 62
     7
370
    25
100
AcDbLine
 10
-8.0
 20
31.0
 30
0.0
 11
8.0
 21
31.0
 31
0.0
  0
LINE
  5
1F3
330
1AD
100
AcDbEntity
  8
0
  6
Continuous
 62
     7
370
    25
100
AcDbLine
 10
8.0
 20
31.0
 30
0.0
 11
8.0
 21
10.0
 31
0.0
  0
VIEWPORT
  5
3A1
330
1AD
100
AcDbEntity
  8
0
100
AcDbViewport
 10
0.0
 20
0.0
 30
0.0
 40
205.6
 41
156.0
 68
     1
 69
     1
 12
15.6122542373
 22
1.314385259
 13
0.0
 23
0.0
 14
10.0
 24
10.0
 15
10.0
 25
10.0
 16
0.0
 26
0.0
 36
1.0
 17
0.0
 27
0.0
 37
0.0
 42
50.0
 43
0.0
 44
0.0
 45
112.7903894225
 50
0.0
 51
0.0
 72
   100
 90
   557152
  1

281
     0
 71
     1
 74
     0
110
0.0
120
0.0
130
0.0
111
1.0
121
0.0
131
0.0
112
0.0
122
1.0
132
0.0
 79
     0
146
0.0
  0
MTEXT
  5
3B0
330
1AD
100
AcDbEntity
  8
0
  6
Continuous
 62
     7
100
AcDbMText
 10
-48.0
 20
-5.0195663917
 30
0.0
 40
4.83362
 41
0.0
 71
     1
 72
     1
  1
Produit d'éducation SOLIDWORKS – A titre éducatif uniquement.
  7
SLDTEXTSTYLE0
 73
     1
 44
1.0
  0
ENDBLK
  5
1B0
330
1AD
100
AcDbEntity
  8
0
100
AcDbBlockEnd
  0
BLOCK
  5
1F6
330
1F4
100
AcDbEntity
  8
0
100
AcDbBlockBegin
  2
*Paper_Space5
 70
     0
 10
0.0
 20
0.0
 30
0.0
  3
*Paper_Space5
  1

  0
LINE
  5
1F8
330
1F4
100
AcDbEntity
  8
0
  6
CENTERX2
 62
     7
100
AcDbLine
 10
-47.557419947
 20
25.0060187189
 30
0.0
 11
33.6511271512
 21
-21.8746776373
 31
0.0
  0
LINE
  5
1F9
330
1F4
100
AcDbEntity
  8
0
  6
CENTERX2
 62
     7
100
AcDbLine
 10
-7.0710678119
 20
20.1110597748
 30
0.0
 11
-7.0710678119
 21
-2.1302519768
 31
0.0
  0
POINT
  5
1FA
330
1F4
100
AcDbEntity
  8
0
  6
Continuous
 62
     7
100
AcDbPoint
 10
-7.0710678119
 20
1.6337451241
 30
0.0
  0
POINT
  5
1FB
330
1F4
100
AcDbEntity
  8
0
  6
Continuous
 62
     7
100
AcDbPoint
 10
55.4943460048
 20
-57.2093520287
 30
0.0
  0
POINT
  5
1FC
330
1F4
100
AcDbEntity
  8
0
  6
Continuous
 62
     7
100
AcDbPoint
 10
11.313708499
 20
-8.9795603296
 30
0.0
  0
POINT
  5
1FD
330
1F4
100
AcDbEntity
  8
0
  6
Continuous
 62
     7
100
AcDbPoint
 10
-25.4558441227
 20
12.2470505778
 30
0.0
  0
LWPOLYLINE
  5
210
330
1F4
100
AcDbEntity
  8
0
  6
Continuous
 62
     7
370
    25
100
AcDbPolyline
 90
       45
 70
   128
 43
0.0
 10
24.0769858994
 20
-10.5905066498
 10
24.0478367232
 20
-10.136700323
 10
23.9609825876
 20
-9.7257871069
 10
23.8181915924
 20
-9.3661320096
 10
23.6223705505
 20
-9.0650565717
 10
23.3775058137
 20
-8.8286898209
 10
23.0885821217
 20
-8.6618435026
 10
22.7614811278
 20
-8.5679141266
 10
22.402861665
 20
-8.5488138244
 10
22.0200241914
 20
-8.6049314228
 10
21.6207621738
 20
-8.7351245294
 10
21.2132034356
 20
-8.9367427881
 10
20.8056446974
 20
-9.2056818324
 10
20.4063826798
 20
-9.5364668391
 10
20.0235452062
 20
-9.9223639792
 10
19.6649257433
 20
-10.3555174999
 10
19.3378247495
 20
-10.8271096445
 10
19.0489010575
 20
-11.3275401571
 10
18.8040363207
 20
-11.8466217153
 10
18.6082152788
 20
-12.3737873157
 10
18.4654242836
 20
-12.8983053868
 10
18.378570148
 20
-13.4094982534
 10
18.3494209718
 20
-13.8969595026
 10
18.378570148
 20
-14.3507658294
 10
18.4654242836
 20
-14.7616790455
 10
18.6082152788
 20
-15.1213341428
 10
18.8040363207
 20
-15.4224095807
 10
19.0489010575
 20
-15.6587763315
 10
19.3378247495
 20
-15.8256226499
 10
19.6649257433
 20
-15.9195520258
 10
20.0235452062
 20
-15.9386523281
 10
20.4063826798
 20
-15.8825347296
 10
20.8056446974
 20
-15.752341623
 10
21.2132034356
 20
-15.5507233643
 10
21.6207621738
 20
-15.28178432
 10
22.0200241914
 20
-14.9509993133
 10
22.402861665
 20
-14.5651021732
 10
22.7614811278
 20
-14.1319486525
 10
23.0885821217
 20
-13.6603565079
 10
23.3775058137
 20
-13.1599259954
 10
23.6223705505
 20
-12.6408444371
 10
23.8181915924
 20
-12.1136788367
 10
23.9609825876
 20
-11.5891607656
 10
24.0478367232
 20
-11.0779678991
 10
24.0769858994
 20
-10.5905066498
  0
LWPOLYLINE
  5
21B
330
1F4
100
AcDbEntity
  8
0
  6
Continuous
 62
     7
370
    25
100
AcDbPolyline
 90
       36
 70
   128
 43
0.0
 10
-19.4454364826
 20
10.8209903834
 10
-19.1013807626
 20
10.6551712795
 10
-18.7115657921
 20
10.5274817736
 10
-18.288520545
 20
10.4420259115
 10
-17.8458420437
 20
10.4015503149
 10
-17.3977583394
 20
10.4073559028
 10
-16.9586712111
 20
10.4592560789
 10
-16.5426932803
 20
10.5555827286
 10
-16.1631944201
 20
10.6932398344
 10
-15.8323720359
 20
10.8678029834
 10
-15.5608590316
 20
11.0736615726
 10
-15.3573820584
 20
11.3041991374
 10
-15.2284810336
 20
11.5520060109
 10
-15.1782989423
 20
11.8091174761
 10
-15.2084486782
 20
12.0672697592
 10
-15.3179612039
 20
12.3181656332
 10
-15.5033166968
 20
12.5537410984
 10
-15.7585576788
 20
12.7664245655
 10
-16.0754804947
 20
12.9493802128
 10
-16.4438989845
 20
13.0967276953
 10
-16.8519718748
 20
13.2037311437
 10
-17.2865833671
 20
13.2669513791
 10
-17.7337646904
 20
13.2843564512
 10
-18.1791430691
 20
13.2553869465
 10
-18.6084036757
 20
13.1809739688
 10
-19.007749721
 20
13.0635092125
 10
-19.3643458945
 20
12.9067680914
 10
-19.6667309019
 20
12.7157883942
 10
-19.9051858401
 20
12.4967083654
 10
-20.0720465714
 20
12.2565694175
 10
-20.1619500544
 20
12.0030898137
 10
-20.1720067173
 20
11.7444165973
 10
-20.1018933306
 20
11.4888637381
 10
-19.9538633963
 20
11.2446449153
 10
-19.7326747183
 20
11.0196095228
 10
-19.4454364826
 20
10.8209903834
  0
LWPOLYLINE
  5
226
330
1F4
100
AcDbEntity
  8
0
  6
Continuous
 62
     7
370
    25
100
AcDbPolyline
 90
       51
 70
   128
 43
0.0
 10
-21.7197006605
 20
16.039350514
 10
-22.1881143649
 20
16.6667303863
 10
-22.7138440404
 20
17.2958703773
 10
-23.2636705111
 20
17.8806411583
 10
-23.8327618824
 20
18.4159037428
 10
-24.4161169588
 20
18.8969542239
 10
-25.0086091949
 20
19.3195651126
 10
-25.6050317476
 20
19.6800224892
 10
-26.2001432341
 20
19.9751586415
 10
-26.7887137932
 20
20.2023799022
 10
-27.3655710458
 20
20.3596894428
 10
-27.9256455494
 20
20.4457048213
 10
-28.4640153494
 20
20.4596701315
 10
-28.9759492324
 20
20.4014626458
 10
-29.4569483052
 20
20.2715938937
 10
-29.9027855305
 20
20.0712051663
 10
-30.3095428749
 20
19.8020574871
 10
-30.6736457401
 20
19.4665161356
 10
-30.9918943771
 20
19.0675298611
 10
-31.2614920053
 20
18.6086049694
 10
-31.4800693913
 20
18.0937745091
 10
-31.645705669
 20
17.5275628286
 10
-31.7569452208
 20
16.9149458165
 10
-31.8128104696
 20
16.2613071733
 10
-31.8128104696
 20
15.5723910987
 10
-31.7569452208
 20
14.8542518121
 10
-31.645705669
 20
14.1132003473
 10
-31.4800693913
 20
13.3557490913
 10
-31.2614920053
 20
12.5885545528
 10
-30.9918943771
 20
11.8183588651
 10
-30.6736457401
 20
11.0519305356
 10
-30.3095428749
 20
10.296004964
 10
-29.9027855305
 20
9.5572252514
 10
-29.4569483052
 20
8.8420838205
 10
-28.9759492324
 20
8.1568653599
 10
-28.4640153494
 20
7.5075915941
 10
-27.9256455494
 20
6.8999683642
 10
-27.3655710458
 20
6.339335485
 10
-26.7887137932
 20
5.8306198186
 10
-26.2001432341
 20
5.3782919763
 10
-25.6050317476
 20
4.9863270316
 10
-25.0086091949
 20
4.6581695865
 10
-24.4161169588
 20
4.3967035004
 10
-23.8327618824
 20
4.2042265467
 10
-23.2636705111
 20
4.0824302198
 10
-22.7138440404
 20
4.0323848701
 10
-22.1881143649
 20
4.0545302981
 10
-21.6911016161
 20
4.1486718889
 10
-21.2271735598
 20
4.3139823227
 10
-20.8004072124
 20
4.5490088456
 10
-20.4166214992
 20
4.8497815147
  0
LWPOLYLINE
  5
227
330
1F4
100
AcDbEntity
  8
0
  6
Continuous
 62
     7
370
    25
100
AcDbPolyline
 90
       21
 70
   128
 43
0.0
 10
11.9841330937
 20
-2.0586135534
 10
11.7609434268
 20
-1.9070457948
 10
11.1645208741
 20
-1.5465884182
 10
10.5694093876
 20
-1.2514522659
 10
9.9808388285
 20
-1.0242310052
 10
9.4039815759
 20
-0.8669214646
 10
8.8439070723
 20
-0.7809060861
 10
8.3055372723
 20
-0.7669407759
 10
7.7936033893
 20
-0.8251482616
 10
7.3126043165
 20
-0.9550170137
 10
6.8667670912
 20
-1.1554057411
 10
6.4600097468
 20
-1.4245534203
 10
6.0959068816
 20
-1.7600947718
 10
5.7776582446
 20
-2.1590810463
 10
5.5080606164
 20
-2.6180059379
 10
5.2894832304
 20
-3.1328363983
 10
5.1238469527
 20
-3.6990480788
 10
5.0126074009
 20
-4.3116650909
 10
4.9567421521
 20
-4.9653037341
 10
4.9567421521
 20
-5.6542198087
 10
4.9850507448
 20
-6.0990977893
  0
LWPOLYLINE
  5
229
330
1F4
100
AcDbEntity
  8
0
  6
Continuous
 62
     7
370
    25
100
AcDbPolyline
 90
       33
 70
   128
 43
0.0
 10
-13.3587406482
 20
4.1290665477
 10
-13.2609293581
 20
3.4998948936
 10
-13.0952930804
 20
2.7424436376
 10
-12.8767156945
 20
1.9752490991
 10
-12.6071180662
 20
1.2050534114
 10
-12.2888694292
 20
0.4386250819
 10
-11.924766564
 20
-0.3173004897
 10
-11.5180092197
 20
-1.0560802023
 10
-11.0721719943
 20
-1.7712216332
 10
-10.5911729216
 20
-2.4564400938
 10
-10.0792390385
 20
-3.1057138596
 10
-9.5408692386
 20
-3.7133370895
 10
-8.9807947349
 20
-4.2739699687
 10
-8.4039374824
 20
-4.7826856351
 10
-7.8153669232
 20
-5.2350134774
 10
-7.2202554367
 20
-5.6269784221
 10
-6.623832884
 20
-5.9551358672
 10
-6.031340648
 20
-6.2166019533
 10
-5.4479855716
 20
-6.409078907
 10
-4.8788942003
 20
-6.5308752339
 10
-4.3290677295
 20
-6.5809205835
 10
-3.8033380541
 20
-6.5587751556
 10
-3.3063253052
 20
-6.4646335648
 10
-2.8423972489
 20
-6.299323131
 10
-2.4156309015
 20
-6.0642966081
 10
-2.0297767011
 20
-5.7616194176
 10
-1.6882255482
 20
-5.3939514977
 10
-1.3939790067
 20
-4.9645239271
 10
-1.1496229258
 20
-4.4771105309
 10
-0.9573047154
 20
-3.9359947154
 10
-0.8187144749
 20
-3.345931826
 10
-0.7350701404
 20
-2.7121073565
 10
-0.7071067812
 20
-2.0400913791
  0
LWPOLYLINE
  5
238
330
1F4
100
AcDbEntity
  8
0
  6
Continuous
 62
     7
370
    25
100
AcDbPolyline
 90
       45
 70
   128
 43
0.0
 10
-36.7341972826
 20
24.5150421586
 10
-36.7633464589
 20
24.9688484854
 10
-36.8502005945
 20
25.3797617015
 10
-36.9929915896
 20
25.7394167988
 10
-37.1888126315
 20
26.0404922367
 10
-37.4336773684
 20
26.2768589875
 10
-37.7226010603
 20
26.4437053058
 10
-38.0497020542
 20
26.5376346817
 10
-38.408321517
 20
26.556734984
 10
-38.7911589907
 20
26.5006173856
 10
-39.1904210083
 20
26.370424279
 10
-39.5979797464
 20
26.1688060203
 10
-40.0055384846
 20
25.899866976
 10
-40.4048005022
 20
25.5690819693
 10
-40.7876379759
 20
25.1831848292
 10
-41.1462574387
 20
24.7500313085
 10
-41.4733584326
 20
24.2784391638
 10
-41.7622821245
 20
23.7780086513
 10
-42.0071468614
 20
23.2589270931
 10
-42.2029679033
 20
22.7317614927
 10
-42.3457588984
 20
22.2072434215
 10
-42.432613034
 20
21.696050555
 10
-42.4617622103
 20
21.2085893057
 10
-42.432613034
 20
20.754782979
 10
-42.3457588984
 20
20.3438697629
 10
-42.2029679033
 20
19.9842146656
 10
-42.0071468614
 20
19.6831392277
 10
-41.7622821245
 20
19.4467724768
 10
-41.4733584326
 20
19.2799261585
 10
-41.1462574387
 20
19.1859967826
 10
-40.7876379759
 20
19.1668964803
 10
-40.4048005022
 20
19.2230140787
 10
-40.0055384846
 20
19.3532071854
 10
-39.5979797464
 20
19.554825444
 10
-39.1904210083
 20
19.8237644884
 10
-38.7911589907
 20
20.1545494951
 10
-38.408321517
 20
20.5404466352
 10
-38.0497020542
 20
20.9736001559
 10
-37.7226010603
 20
21.4451923005
 10
-37.4336773684
 20
21.945622813
 10
-37.1888126315
 20
22.4647043713
 10
-36.9929915896
 20
22.9918699717
 10
-36.8502005945
 20
23.5163880428
 10
-36.7633464589
 20
24.0275809093
 10
-36.7341972826
 20
24.5150421586
  0
LINE
  5
23C
330
1F4
100
AcDbEntity
  8
0
  6
Continuous
 62
     7
370
    25
100
AcDbLine
 10
26.6629102702
 20
-45.3637411584
 30
0.0
 11
33.7339780821
 21
-41.2817005992
 31
0.0
  0
LINE
  5
23D
330
1F4
100
AcDbEntity
  8
0
  6
Continuous
 62
     7
370
    25
100
AcDbLine
 10
-33.7339780821
 20
41.2817005992
 30
0.0
 11
-55.6542882989
 21
28.627374866
 31
0.0
  0
LINE
  5
23E
330
1F4
100
AcDbEntity
  8
0
  6
Continuous
 62
     7
370
    25
100
AcDbLine
 10
4.9497474683
 20
-20.8172125509
 30
0.0
 11
12.0208152802
 21
-24.89925311
 31
0.0
  0
LINE
  5
23F
330
1F4
100
AcDbEntity
  8
0
  6
Continuous
 62
     7
370
    25
100
AcDbLine
 10
4.9497474683
 20
-6.119477937
 30
0.0
 11
4.9497474683
 21
-20.8172125509
 31
0.0
  0
LINE
  5
240
330
1F4
100
AcDbEntity
  8
0
  6
Continuous
 62
     7
370
    25
100
AcDbLine
 10
11.313708499
 20
-9.7933144402
 30
0.0
 11
4.9497474683
 21
-6.119477937
 31
0.0
  0
LINE
  5
241
330
1F4
100
AcDbEntity
  8
0
  6
Continuous
 62
     7
370
    25
100
AcDbLine
 10
12.0208152802
 20
-24.89925311
 30
0.0
 11
12.0208152802
 21
-11.018059308
 31
0.0
  0
LINE
  5
242
330
1F4
100
AcDbEntity
  8
0
  6
Continuous
 62
     7
370
    25
100
AcDbLine
 10
11.313708499
 20
-9.7933144402
 30
0.0
 11
33.2340187158
 21
2.8610112931
 31
0.0
  0
LINE
  5
243
330
1F4
100
AcDbEntity
  8
0
  6
Continuous
 62
     7
370
    25
100
AcDbLine
 10
33.941125497
 20
1.6362664253
 30
0.0
 11
12.0208152802
 21
-11.018059308
 31
0.0
  0
LINE
  5
244
330
1F4
100
AcDbEntity
  8
0
  6
Continuous
 62
     7
370
    25
100
AcDbLine
 10
12.0208152802
 20
-24.89925311
 30
0.0
 11
26.8700576851
 21
-16.3269679359
 31
0.0
  0
LINE
  5
245
330
1F4
100
AcDbEntity
  8
0
  6
Continuous
 62
     7
370
    25
100
AcDbLine
 10
33.941125497
 20
1.6362664253
 30
0.0
 11
33.941125497
 21
-10.6934998342
 31
0.0
  0
LINE
  5
246
330
1F4
100
AcDbEntity
  8
0
  6
Continuous
 62
     7
370
    25
100
AcDbLine
 10
36.7695526217
 20
-9.0606836105
 30
0.0
 11
33.941125497
 21
-10.6934998342
 31
0.0
  0
LINE
  5
247
330
1F4
100
AcDbEntity
  8
0
  6
Continuous
 62
     7
370
    25
100
AcDbLine
 10
36.7695526217
 20
-9.0606836105
 30
0.0
 11
36.7695526217
 21
-15.4297019433
 31
0.0
  0
LINE
  5
248
330
1F4
100
AcDbEntity
  8
0
  6
Continuous
 62
     7
370
    25
100
AcDbLine
 10
36.7695526217
 20
-15.4297019433
 30
0.0
 11
33.941125497
 21
-17.0625181669
 31
0.0
  0
LINE
  5
249
330
1F4
100
AcDbEntity
  8
0
  6
Continuous
 62
     7
370
    25
100
AcDbLine
 10
33.941125497
 20
-17.0625181669
 30
0.0
 11
33.941125497
 21
-40.8238557928
 31
0.0
  0
LINE
  5
24A
330
1F4
100
AcDbEntity
  8
0
  6
Continuous
 62
     7
370
    25
100
AcDbLine
 10
26.8700576851
 20
-44.9058963519
 30
0.0
 11
33.941125497
 21
-40.8238557928
 31
0.0
  0
LINE
  5
24B
330
1F4
100
AcDbEntity
  8
0
  6
Continuous
 62
     7
370
    25
100
AcDbLine
 10
26.8700576851
 20
-16.3269679359
 30
0.0
 11
26.8700576851
 21
-44.9058963519
 31
0.0
  0
LINE
  5
24C
330
1F4
100
AcDbEntity
  8
0
  6
Continuous
 62
     7
370
    25
100
AcDbLine
 10
4.9497474683
 20
-6.119477937
 30
0.0
 11
19.7989898732
 21
2.4528072372
 31
0.0
  0
LINE
  5
24D
330
1F4
100
AcDbEntity
  8
0
  6
Continuous
 62
     7
370
    25
100
AcDbLine
 10
-1.4142135624
 20
14.6989289145
 30
0.0
 11
19.7989898732
 21
2.4528072372
 31
0.0
  0
LINE
  5
24E
330
1F4
100
AcDbEntity
  8
0
  6
Continuous
 62
     7
370
    25
100
AcDbLine
 10
-16.2634559673
 20
6.1266437404
 30
0.0
 11
-1.4142135624
 21
14.6989289145
 31
0.0
  0
LINE
  5
24F
330
1F4
100
AcDbEntity
  8
0
  6
Continuous
 62
     7
370
    25
100
AcDbLine
 10
-27.5771644663
 20
12.657908635
 30
0.0
 11
-16.2634559673
 21
6.1266437404
 31
0.0
  0
LINE
  5
250
330
1F4
100
AcDbEntity
  8
0
  6
Continuous
 62
     7
370
    25
100
AcDbLine
 10
-27.5771644663
 20
12.657908635
 30
0.0
 11
-12.7279220614
 21
21.2301938091
 31
0.0
  0
LINE
  5
251
330
1F4
100
AcDbEntity
  8
0
  6
Continuous
 62
     7
370
    25
100
AcDbLine
 10
-33.941125497
 20
33.4763154864
 30
0.0
 11
-12.7279220614
 21
21.2301938091
 31
0.0
  0
LINE
  5
252
330
1F4
100
AcDbEntity
  8
0
  6
Continuous
 62
     7
370
    25
100
AcDbLine
 10
-48.7903679019
 20
24.9040303123
 30
0.0
 11
-33.941125497
 21
33.4763154864
 31
0.0
  0
LINE
  5
253
330
1F4
100
AcDbEntity
  8
0
  6
Continuous
 62
     7
370
    25
100
AcDbLine
 10
-55.1543289326
 20
28.5778668155
 30
0.0
 11
-48.7903679019
 21
24.9040303123
 31
0.0
  0
LINE
  5
254
330
1F4
100
AcDbEntity
  8
0
  6
Continuous
 62
     7
370
    25
100
AcDbLine
 10
-33.2340187158
 20
41.2321925487
 30
0.0
 11
-55.1543289326
 21
28.5778668155
 31
0.0
  0
LINE
  5
255
330
1F4
100
AcDbEntity
  8
0
  6
Continuous
 62
     7
370
    25
100
AcDbLine
 10
-33.2340187158
 20
41.2321925487
 30
0.0
 11
33.2340187158
 21
2.8610112931
 31
0.0
  0
LINE
  5
256
330
1F4
100
AcDbEntity
  8
0
  6
Continuous
 62
     7
370
    25
100
AcDbLine
 10
-1.4142135624
 20
14.6989289145
 30
0.0
 11
-1.4142135624
 21
11.024495261
 31
0.0
  0
LINE
  5
257
330
1F4
100
AcDbEntity
  8
0
  6
Continuous
 62
     7
370
    25
100
AcDbLine
 10
-6.3639610307
 20
-26.5368465359
 30
0.0
 11
26.1629509039
 21
-45.3142331079
 31
0.0
  0
LINE
  5
258
330
1F4
100
AcDbEntity
  8
0
  6
Continuous
 62
     7
370
    25
100
AcDbLine
 10
-7.0710678119
 20
-25.3121016681
 30
0.0
 11
-7.0710678119
 21
-15.5136119255
 31
0.0
  0
LINE
  5
259
330
1F4
100
AcDbEntity
  8
0
  6
Continuous
 62
     7
370
    25
100
AcDbLine
 10
-40.3050865276
 20
5.3050603261
 30
0.0
 11
-8.4852813742
 21
-13.0641221899
 31
0.0
  0
LINE
  5
25A
330
1F4
100
AcDbEntity
  8
0
  6
Continuous
 62
     7
370
    25
100
AcDbLine
 10
-41.0121933088
 20
14.6965403134
 30
0.0
 11
-41.0121933088
 21
6.5298051939
 31
0.0
  0
LINE
  5
25B
330
1F4
100
AcDbEntity
  8
0
  6
Continuous
 62
     7
370
    25
100
AcDbLine
 10
-33.941125497
 20
33.4763154864
 30
0.0
 11
-33.941125497
 21
18.7785808725
 31
0.0
  0
LINE
  5
25C
330
1F4
100
AcDbEntity
  8
0
  6
Continuous
 62
     7
370
    25
100
AcDbLine
 10
-16.2634559673
 20
2.4522100869
 30
0.0
 11
-1.4142135624
 21
11.024495261
 31
0.0
  0
LINE
  5
25D
330
1F4
100
AcDbEntity
  8
0
  6
Continuous
 62
     7
370
    25
100
AcDbLine
 10
-16.2634559673
 20
6.1266437404
 30
0.0
 11
-16.2634559673
 21
2.4522100869
 31
0.0
  0
LINE
  5
25E
330
1F4
100
AcDbEntity
  8
0
  6
Continuous
 62
     7
370
    25
100
AcDbLine
 10
-27.5771644663
 20
8.9834749815
 30
0.0
 11
-16.2634559673
 21
2.4522100869
 31
0.0
  0
LINE
  5
25F
330
1F4
100
AcDbEntity
  8
0
  6
Continuous
 62
     7
370
    25
100
AcDbLine
 10
-27.5771644663
 20
12.657908635
 30
0.0
 11
-27.5771644663
 21
8.9834749815
 31
0.0
  0
LINE
  5
260
330
1F4
100
AcDbEntity
  8
0
  6
Continuous
 62
     7
370
    25
100
AcDbLine
 10
33.941125497
 20
-7.4278673869
 30
0.0
 11
36.7695526217
 21
-9.0606836105
 31
0.0
  0
LINE
  5
261
330
1F4
100
AcDbEntity
  8
0
  6
Continuous
 62
     7
370
    25
100
AcDbLine
 10
-48.7903679019
 20
24.9040303123
 30
0.0
 11
-48.7903679019
 21
10.2062956984
 31
0.0
  0
LINE
  5
262
330
1F4
100
AcDbEntity
  8
0
  6
Continuous
 62
     7
370
    25
100
AcDbLine
 10
-55.8614357137
 20
14.2883362575
 30
0.0
 11
-48.7903679019
 21
10.2062956984
 31
0.0
  0
LINE
  5
263
330
1F4
100
AcDbEntity
  8
0
  6
Continuous
 62
     7
370
    25
100
AcDbLine
 10
-55.8614357137
 20
28.1695300595
 30
0.0
 11
-55.8614357137
 21
14.2883362575
 31
0.0
  0
LINE
  5
264
330
1F4
100
AcDbEntity
  8
0
  6
Continuous
 62
     7
370
    25
100
AcDbLine
 10
-48.7903679019
 20
10.2062956984
 30
0.0
 11
-33.941125497
 21
18.7785808725
 31
0.0
  0
ARC
  5
265
330
1F4
100
AcDbEntity
  8
0
  6
Continuous
 62
     7
370
    25
100
AcDbCircle
 10
10.4855991788
 20
-11.0879201602
 30
0.0
 40
1.53680480757207
100
AcDbArc
 50
2.6054784857
 51
57.39452166
  0
ARC
  5
266
330
1F4
100
AcDbEntity
  8
0
  6
Continuous
 62
     7
370
    25
100
AcDbCircle
 10
32.4059093956
 20
1.566405573
 30
0.0
 40
1.536804807572052
100
AcDbArc
 50
2.6054784857
 51
57.39452166
  0
ARC
  5
267
330
1F4
100
AcDbEntity
  8
0
  6
Continuous
 62
     7
370
    25
100
AcDbCircle
 10
26.4389833177
 20
-44.9758235488
 30
0.0
 40
0.4367091974284857
100
AcDbArc
 50
230.7967147643
 51
9.2140369905
  0
ARC
  5
268
330
1F4
100
AcDbEntity
  8
0
  6
Continuous
 62
     7
370
    25
100
AcDbCircle
 10
-5.5358517105
 20
-25.2422408159
 30
0.0
 40
1.53680480757208
100
AcDbArc
 50
182.6054784857
 51
237.39452166
  0
ARC
  5
269
330
1F4
100
AcDbEntity
  8
0
  6
Continuous
 62
     7
370
    25
100
AcDbCircle
 10
-10.1415000146
 20
-15.65333363
 30
0.0
 40
3.073609615144159
100
AcDbArc
 50
2.6054784857
 51
57.39452166
  0
ARC
  5
26A
330
1F4
100
AcDbEntity
  8
0
  6
Continuous
 62
     7
370
    25
100
AcDbCircle
 10
-39.4769772075
 20
6.5996660461
 30
0.0
 40
1.536804807572181
100
AcDbArc
 50
182.6054784857
 51
237.39452166
  0
ARC
  5
26B
330
1F4
100
AcDbEntity
  8
0
  6
Continuous
 62
     7
370
    25
100
AcDbCircle
 10
-14.7524371661
 20
-2.7502465231
 30
0.0
 40
14.06327223481304
100
AcDbArc
 50
2.8945045125
 51
51.9658320241
  0
ARC
  5
26C
330
1F4
100
AcDbEntity
  8
0
  6
Continuous
 62
     7
370
    25
100
AcDbCircle
 10
17.7587851562
 20
-2.4791486181
 30
0.0
 40
7.861056521024055
100
AcDbArc
 50
169.4573542126
 51
185.5664306376
  0
ARC
  5
26D
330
1F4
100
AcDbEntity
  8
0
  6
Continuous
 62
     7
370
    25
100
AcDbCircle
 10
4.7056187119
 20
8.5386952028
 30
0.0
 40
13.20614897424857
100
AcDbArc
 50
186.7499295865
 51
245.1793753166
  0
ARC
  5
26E
330
1F4
100
AcDbEntity
  8
0
  6
Continuous
 62
     7
370
    25
100
AcDbCircle
 10
33.465439941
 20
-40.8844198213
 30
0.0
 40
0.4795255464585375
100
AcDbArc
 50
304.0563508348
 51
7.2558295586
  0
ARC
  5
26F
330
1F4
100
AcDbEntity
  8
0
  6
Continuous
 62
     7
370
    25
100
AcDbCircle
 10
0.4756902335
 20
5.9903958097
 30
0.0
 40
5.416494297168145
100
AcDbArc
 50
167.1684988945
 51
252.8261245728
  0
ARC
  5
270
330
1F4
100
AcDbEntity
  8
0
  6
Continuous
 62
     7
370
    25
100
AcDbCircle
 10
-55.4303613463
 20
28.2394572564
 30
0.0
 40
0.4367091974284809
100
AcDbArc
 50
50.7967147643
 51
189.2140369905
  0
ARC
  5
271
330
1F4
100
AcDbEntity
  8
0
  6
Continuous
 62
     7
370
    25
100
AcDbCircle
 10
-33.5269387706
 20
40.8233112196
 30
0.0
 40
0.5029772359018312
100
AcDbArc
 50
54.3824225248
 51
114.3071190461
  0
ARC
  5
272
330
1F4
100
AcDbEntity
  8
0
  6
Continuous
 62
     7
370
    25
100
AcDbCircle
 10
-15.8591781888
 20
18.7159216563
 30
0.0
 40
10.97878159727418
100
AcDbArc
 50
172.3060455344
 51
206.8018612558
  0
ARC
  5
273
330
1F4
100
AcDbEntity
  8
0
  6
Continuous
 62
     7
370
    25
100
AcDbCircle
 10
-19.4925078805
 20
16.6333872317
 30
0.0
 40
3.879467241044846
100
AcDbArc
 50
162.3969024957
 51
201.1145446212
  0
VIEWPORT
  5
3A3
330
1F4
100
AcDbEntity
  8
0
100
AcDbViewport
 10
0.0
 20
0.0
 30
0.0
 40
205.6
 41
156.0
 68
     1
 69
     1
 12
15.6122542373
 22
1.314385259
 13
0.0
 23
0.0
 14
10.0
 24
10.0
 15
10.0
 25
10.0
 16
0.0
 26
0.0
 36
1.0
 17
0.0
 27
0.0
 37
0.0
 42
50.0
 43
0.0
 44
0.0
 45
112.7903894225
 50
0.0
 51
0.0
 72
   100
 90
   557152
  1

281
     0
 71
     1
 74
     0
110
0.0
120
0.0
130
0.0
111
1.0
121
0.0
131
0.0
112
0.0
122
1.0
132
0.0
 79
     0
146
0.0
  0
MTEXT
  5
3B1
330
1F4
100
AcDbEntity
  8
0
  6
Continuous
 62
     7
100
AcDbMText
 10
-55.8670705437
 20
-58.2289184204
 30
0.0
 40
4.83362
 41
0.0
 71
     1
 72
     1
  1
Produit d'éducation SOLIDWORKS – A titre éducatif uniquement.
  7
SLDTEXTSTYLE0
 73
     1
 44
1.0
  0
ENDBLK
  5
1F7
330
1F4
100
AcDbEntity
  8
0
100
AcDbBlockEnd
  0
BLOCK
  5
276
330
274
100
AcDbEntity
  8
0
100
AcDbBlockBegin
  2
*Paper_Space6
 70
     0
 10
0.0
 20
0.0
 30
0.0
  3
*Paper_Space6
  1

  0
LINE
  5
278
330
274
100
AcDbEntity
  8
0
  6
CENTERX2
 62
     7
100
AcDbLine
 10
-55.3055058896
 20
15.2075544176
 30
0.0
 11
46.2665799674
 21
-12.3975620918
 31
0.0
  0
LINE
  5
279
330
274
100
AcDbEntity
  8
0
  6
CENTERX2
 62
     7
100
AcDbLine
 10
-4.6669538893
 20
20.84172318
 30
0.0
 11
-4.6669538893
 21
-2.5061914383
 31
0.0
  0
POINT
  5
27A
330
274
100
AcDbEntity
  8
0
  6
Continuous
 62
     7
100
AcDbPoint
 10
-4.6669538893
 20
1.4450810369
 30
0.0
  0
POINT
  5
27B
330
274
100
AcDbEntity
  8
0
  6
Continuous
 62
     7
100
AcDbPoint
 10
73.5871192464
 20
-43.6782129579
 30
0.0
  0
POINT
  5
27C
330
274
100
AcDbEntity
  8
0
  6
Continuous
 62
     7
100
AcDbPoint
 10
18.3279172743
 20
-4.8044322249
 30
0.0
  0
POINT
  5
27D
330
274
100
AcDbEntity
  8
0
  6
Continuous
 62
     7
100
AcDbPoint
 10
-27.6618250529
 20
7.6945942987
 30
0.0
  0
LWPOLYLINE
  5
292
330
274
100
AcDbEntity
  8
0
  6
Continuous
 62
     7
370
    25
100
AcDbPolyline
 90
       36
 70
   128
 43
0.0
 10
-12.8341231956
 20
10.6170194318
 10
-12.4205758446
 20
10.5280225053
 10
-11.9828203112
 20
10.4784870988
 10
-11.5349264184
 20
10.4700053212
 10
-11.0912898446
 20
10.5028497838
 10
-10.6661694342
 20
10.5759648384
 10
-10.273228907
 20
10.6870005072
 10
-9.9250976948
 20
10.8323880123
 10
-9.6329650213
 20
11.0074544797
 10
-9.4062202709
 20
11.2065731291
 10
-9.2521512066
 20
11.4233441232
 10
-9.1757097347
 20
11.6508002641
 10
-9.1793527471
 20
11.881630924
 10
-9.2629631543
 20
12.1084170158
 10
-9.4238536492
 20
12.3238694477
 10
-9.6568530788
 20
12.5210634014
 10
-9.9544726497
 20
12.693660901
 10
-10.307146624
 20
12.8361145208
 10
-10.70353977
 20
12.9438456842
 10
-11.1309116859
 20
13.013391823
 10
-11.5755262866
 20
13.0425176672
 10
-12.0230932931
 20
13.030287088
 10
-12.4592275335
 20
12.9770931863
 10
-12.8699112943
 20
12.8846456581
 10
-13.2419448618
 20
12.7559158427
 10
-13.5633707709
 20
12.5950412226
 10
-13.8238581283
 20
12.4071924402
 10
-14.0150346562
 20
12.1984071101
 10
-14.1307557836
 20
11.9753957645
 10
-14.1673021382
 20
11.7453261715
 10
-14.1234990902
 20
11.5155929573
 10
-14.0007545055
 20
11.2935799363
 10
-13.8030134961
 20
11.0864227897
 10
-13.5366316208
 20
10.9007797186
 10
-13.2101706121
 20
10.7426174441
 10
-12.8341231956
 20
10.6170194318
  0
LWPOLYLINE
  5
29B
330
274
100
AcDbEntity
  8
0
  6
Continuous
 62
     7
370
    25
100
AcDbPolyline
 90
       45
 70
   128
 43
0.0
 10
35.9416691649
 20
-2.4629021771
 10
35.9224305061
 20
-1.9876298136
 10
35.8651061731
 20
-1.5595876665
 10
35.7708631241
 20
-1.1874894396
 10
35.6416198758
 20
-0.8789099797
 10
35.480007448
 20
-0.6401310747
 10
35.2893158037
 20
-0.4760135747
 10
35.0734268749
 20
-0.3898984386
 10
34.8367355376
 20
-0.3835387223
 10
34.5840601448
 20
-0.4570638911
 10
34.3205444389
 20
-0.6089771849
 10
34.0515528398
 20
-0.8361860868
 10
33.7825612406
 20
-1.134065279
 10
33.5190455348
 20
-1.4965508001
 10
33.266370142
 20
-1.9162634901
 10
33.0296788047
 20
-2.3846592092
 10
32.8137898758
 20
-2.8922027711
 10
32.6230982316
 20
-3.4285620526
 10
32.4614858038
 20
-3.9828183255
 10
32.3322425555
 20
-4.5436885303
 10
32.2379995065
 20
-5.0997549672
 10
32.1806751735
 20
-5.639697727
 10
32.1614365146
 20
-6.1525251322
 10
32.1806751735
 20
-6.6277974958
 10
32.2379995065
 20
-7.0558396429
 10
32.3322425555
 20
-7.4279378698
 10
32.4614858038
 20
-7.7365173297
 10
32.6230982316
 20
-7.9752962346
 10
32.8137898758
 20
-8.1394137346
 10
33.0296788047
 20
-8.2255288707
 10
33.266370142
 20
-8.2318885871
 10
33.5190455348
 20
-8.1583634182
 10
33.7825612406
 20
-8.0064501245
 10
34.0515528398
 20
-7.7792412225
 10
34.3205444389
 20
-7.4813620303
 10
34.5840601448
 20
-7.1188765093
 10
34.8367355376
 20
-6.6991638192
 10
35.0734268749
 20
-6.2307681002
 10
35.2893158037
 20
-5.7232245382
 10
35.480007448
 20
-5.1868652567
 10
35.6416198758
 20
-4.6326089839
 10
35.7708631241
 20
-4.071738779
 10
35.8651061731
 20
-3.5156723421
 10
35.9224305061
 20
-2.9757295823
 10
35.9416691649
 20
-2.4629021771
  0
LWPOLYLINE
  5
2A6
330
274
100
AcDbEntity
  8
0
  6
Continuous
 62
     7
370
    25
100
AcDbPolyline
 90
        3
 70
   128
 43
0.0
 10
-19.7020619578
 20
5.5313012465
 10
-19.7370373
 20
6.2632046004
 10
-19.77710317
 20
6.6085059186
  0
LWPOLYLINE
  5
2A7
330
274
100
AcDbEntity
  8
0
  6
Continuous
 62
     7
370
    25
100
AcDbPolyline
 90
       62
 70
   128
 43
0.0
 10
-21.5346551366
 20
10.9537142865
 10
-21.8390089276
 20
11.3718879736
 10
-22.3727895409
 20
12.0223030368
 10
-22.9530503885
 20
12.6346860399
 10
-23.5746921171
 20
13.2036553392
 10
-24.2322517169
 20
13.724210812
 10
-24.9199505305
 20
14.1917777981
 10
-25.631745036
 20
14.602247302
 10
-26.3613799577
 20
14.9520121029
 10
-27.1024432377
 20
15.2379984552
 10
-27.8484223851
 20
15.4576931005
 10
-28.5927617085
 20
15.6091653545
 10
-29.3289199271
 20
15.6910840734
 10
-30.050427656
 20
15.7027293526
 10
-30.7509442593
 20
15.6439988531
 10
-31.424313572
 20
15.5154087005
 10
-32.0646180003
 20
15.3180889497
 10
-32.6662305258
 20
15.0537736538
 10
-33.2238641561
 20
14.7247856252
 10
-33.7326183868
 20
14.3340160224
 10
-34.1880222674
 20
13.8848989427
 10
-34.5860736922
 20
13.3813812433
 10
-34.923274571
 20
12.8278878557
 10
-35.1966615703
 20
12.2292828998
 10
-35.4038321554
 20
11.5908269373
 10
-35.5429657037
 20
10.9181307424
 10
-35.6128395046
 20
10.2171059933
 10
-35.6128395046
 20
9.4939133207
 10
-35.5429657037
 20
8.7549081679
 10
-35.4038321554
 20
8.0065849386
 10
-35.1966615703
 20
7.2555199244
 10
-34.923274571
 20
6.5083135116
 10
-34.5860736922
 20
5.7715321769
 10
-34.1880222674
 20
5.0516507814
 10
-33.7326183868
 20
4.3549956685
 10
-33.2238641561
 20
3.6876890685
 10
-32.6662305258
 20
3.0555952957
 10
-32.0646180003
 20
2.4642692129
 10
-31.424313572
 20
1.918907415
 10
-30.7509442593
 20
1.4243025612
 10
-30.050427656
 20
0.9848012566
 10
-29.3289199271
 20
0.6042658545
 10
-28.5927617085
 20
0.2860405137
 10
-27.8484223851
 20
0.03292181
 10
-27.1024432377
 20
-0.1528658404
 10
-26.3613799577
 20
-0.269689729
 10
-25.631745036
 20
-0.3165232032
 10
-24.9199505305
 20
-0.2929546887
 10
-24.2322517169
 20
-0.1991913064
 10
-23.5746921171
 20
-0.0360570525
 10
-22.9530503885
 20
0.1950144435
 10
-22.3727895409
 20
0.4919925168
 10
-21.8390089276
 20
0.8522673137
 10
-21.3563994317
 20
1.2726727261
 10
-20.929202243
 20
1.7495142162
 10
-20.5611715855
 20
2.2786012838
 10
-20.2555417261
 20
2.8552842928
 10
-20.0149985508
 20
3.4744953321
 10
-19.8416559618
 20
4.1307927528
 10
-19.7370373
 20
4.8184089897
 10
-19.7020619578
 20
5.5313012465
 10
-19.7020619578
 20
5.5313012465
  0
LWPOLYLINE
  5
2A8
330
274
100
AcDbEntity
  8
0
  6
Continuous
 62
     7
370
    25
100
AcDbPolyline
 90
       40
 70
   128
 43
0.0
 10
21.0202258848
 20
1.7236683951
 10
20.3579972912
 20
2.1032207784
 10
19.6283623695
 20
2.4529855793
 10
18.8872990895
 20
2.7389719316
 10
18.1413199421
 20
2.958666577
 10
17.3969806187
 20
3.1101388309
 10
16.6608224001
 20
3.1920575498
 10
15.9393146712
 20
3.2037028291
 10
15.2387980679
 20
3.1449723295
 10
14.5654287552
 20
3.0163821769
 10
13.925124327
 20
2.8190624262
 10
13.3235118014
 20
2.5547471303
 10
12.7658781711
 20
2.2257591016
 10
12.2571239404
 20
1.8349894988
 10
11.8017200598
 20
1.3858724192
 10
11.403668635
 20
0.8823547197
 10
11.0664677562
 20
0.3288613321
 10
10.7930807569
 20
-0.2697436238
 10
10.5859101718
 20
-0.9081995862
 10
10.4467766235
 20
-1.5808957812
 10
10.3769028226
 20
-2.2819205303
 10
10.3769028226
 20
-3.0051132029
 10
10.4467766235
 20
-3.7441183557
 10
10.5859101718
 20
-4.492441585
 10
10.7930807569
 20
-5.2435065992
 10
11.0664677562
 20
-5.990713012
 10
11.403668635
 20
-6.7274943466
 10
11.8017200598
 20
-7.4473757422
 10
12.2571239404
 20
-8.1440308551
 10
12.7658781711
 20
-8.8113374551
 10
13.3235118014
 20
-9.4434312279
 10
13.925124327
 20
-10.0347573107
 10
14.5654287552
 20
-10.5801191085
 10
15.2387980679
 20
-11.0747239624
 10
15.9393146712
 20
-11.514225267
 10
16.6608224001
 20
-11.8947606691
 10
17.3969806187
 20
-12.2129860099
 10
18.1413199421
 20
-12.4661047136
 10
18.8872990895
 20
-12.651892364
 10
19.1403315669
 20
-12.6994474039
  0
LWPOLYLINE
  5
2AA
330
274
100
AcDbEntity
  8
0
  6
Continuous
 62
     7
370
    25
100
AcDbPolyline
 90
       37
 70
   128
 43
0.0
 10
-12.5516757722
 20
4.6447895741
 10
-12.617968341
 20
3.9675927315
 10
-12.617968341
 20
3.2444000589
 10
-12.5480945401
 20
2.5053949061
 10
-12.4089609918
 20
1.7570716768
 10
-12.2017904067
 20
1.0060066626
 10
-11.9284034074
 20
0.2588002498
 10
-11.5912025286
 20
-0.4779810848
 10
-11.1931511038
 20
-1.1978624804
 10
-10.7377472232
 20
-1.8945175933
 10
-10.2289929925
 20
-2.5618241933
 10
-9.6713593622
 20
-3.1939179661
 10
-9.0697468367
 20
-3.7852440489
 10
-8.4294424084
 20
-4.3306058467
 10
-7.7560730957
 20
-4.8252107006
 10
-7.0555564924
 20
-5.2647120052
 10
-6.3340487635
 20
-5.6452474073
 10
-5.5978905449
 20
-5.9634727481
 10
-4.8535512215
 20
-6.2165914518
 10
-4.1075720741
 20
-6.4023791022
 10
-3.3665087941
 20
-6.5192029908
 10
-2.6368738724
 20
-6.5660364649
 10
-1.9250793669
 20
-6.5424679504
 10
-1.2373805533
 20
-6.4487045682
 10
-0.5798209535
 20
-6.2855703143
 10
0.0418207752
 20
-6.0544988183
 10
0.6220816227
 20
-5.7575207449
 10
1.155862236
 20
-5.3972459481
 10
1.6384717319
 20
-4.9768405357
 10
2.0656689206
 20
-4.4999990456
 10
2.4336995781
 20
-3.970911978
 10
2.7393294375
 20
-3.394228969
 10
2.9798726128
 20
-2.7750179297
 10
3.1532152018
 20
-2.118720509
 10
3.2578338637
 20
-1.4311042721
 10
3.2928092058
 20
-0.7182120153
 10
3.2928092058
 20
-0.7182120153
  0
LWPOLYLINE
  5
2AF
330
274
100
AcDbEntity
  8
0
  6
Continuous
 62
     7
370
    25
100
AcDbPolyline
 90
       18
 70
   128
 43
0.0
 10
14.0372519961
 20
2.8594323602
 10
13.8527778943
 20
2.2803634614
 10
13.713644346
 20
1.6076672665
 10
13.6437705451
 20
0.9066425174
 10
13.6437705451
 20
0.1834498448
 10
13.713644346
 20
-0.5555553081
 10
13.8527778943
 20
-1.3038785373
 10
14.0599484794
 20
-2.0549435515
 10
14.3333354787
 20
-2.8021499644
 10
14.6705363575
 20
-3.538931299
 10
15.0685877823
 20
-4.2588126945
 10
15.5239916629
 20
-4.9554678074
 10
16.0327458936
 20
-5.6227744075
 10
16.5903795239
 20
-6.2548681803
 10
17.1919920495
 20
-6.846194263
 10
17.8322964777
 20
-7.3915560609
 10
18.5056657904
 20
-7.8861609147
 10
19.1403315669
 20
-8.2873831396
  0
LWPOLYLINE
  5
2B1
330
274
100
AcDbEntity
  8
0
  6
Continuous
 62
     7
370
    25
100
AcDbPolyline
 90
       16
 70
   128
 43
0.0
 10
19.1403315669
 20
-3.4771779555
 10
18.8877705898
 20
-3.1535277568
 10
18.5815045259
 20
-2.6737736142
 10
18.3365801628
 20
-2.172483588
 10
18.1579834542
 20
-1.6598624976
 10
18.0493501141
 20
-1.14634583
 10
18.012891604
 20
-0.6423873038
 10
18.0493501141
 20
-0.1582460613
 10
18.1579834542
 20
0.2962221781
 10
18.3365801628
 20
0.7117657515
 10
18.5815045259
 20
1.07992539
 10
18.8877705898
 20
1.3932064252
 10
19.2491436607
 20
1.6452313586
 10
19.6582672249
 20
1.8308696893
 10
20.1068127065
 20
1.9463423563
 10
20.5687746426
 20
1.9890389918
  0
LWPOLYLINE
  5
2B7
330
274
100
AcDbEntity
  8
0
  6
Continuous
 62
     7
370
    25
100
AcDbPolyline
 90
       45
 70
   128
 43
0.0
 10
-40.1182892993
 20
18.2085647657
 10
-40.1375279582
 20
18.6838371292
 10
-40.1948522912
 20
19.1118792763
 10
-40.2890953402
 20
19.4839775033
 10
-40.4183385885
 20
19.7925569632
 10
-40.5799510163
 20
20.0313358681
 10
-40.7706426605
 20
20.1954533681
 10
-40.9865315894
 20
20.2815685042
 10
-41.2232229267
 20
20.2879282206
 10
-41.4758983195
 20
20.2144030517
 10
-41.7394140253
 20
20.062489758
 10
-42.0084056245
 20
19.835280856
 10
-42.2773972236
 20
19.5374016638
 10
-42.5409129295
 20
19.1749161427
 10
-42.7935883223
 20
18.7552034527
 10
-43.0302796596
 20
18.2868077336
 10
-43.2461685884
 20
17.7792641717
 10
-43.4368602327
 20
17.2429048902
 10
-43.5984726605
 20
16.6886486173
 10
-43.7277159088
 20
16.1277784125
 10
-43.8219589578
 20
15.5717119756
 10
-43.8792832908
 20
15.0317692158
 10
-43.8985219496
 20
14.5189418106
 10
-43.8792832908
 20
14.0436694471
 10
-43.8219589578
 20
13.6156273
 10
-43.7277159088
 20
13.243529073
 10
-43.5984726605
 20
12.9349496131
 10
-43.4368602327
 20
12.6961707082
 10
-43.2461685884
 20
12.5320532082
 10
-43.0302796596
 20
12.4459380721
 10
-42.7935883223
 20
12.4395783557
 10
-42.5409129295
 20
12.5131035246
 10
-42.2773972236
 20
12.6650168183
 10
-42.0084056245
 20
12.8922257203
 10
-41.7394140253
 20
13.1901049125
 10
-41.4758983195
 20
13.5525904336
 10
-41.2232229267
 20
13.9723031236
 10
-40.9865315894
 20
14.4406988427
 10
-40.7706426605
 20
14.9482424046
 10
-40.5799510163
 20
15.4846016861
 10
-40.4183385885
 20
16.038857959
 10
-40.2890953402
 20
16.5997281638
 10
-40.1948522912
 20
17.1557946007
 10
-40.1375279582
 20
17.6957373605
 10
-40.1182892993
 20
18.2085647657
  0
LWPOLYLINE
  5
2B8
330
274
100
AcDbEntity
  8
0
  6
Continuous
 62
     7
370
    25
100
AcDbPolyline
 90
       21
 70
   128
 43
0.0
 10
-8.7247542608
 20
3.6047143083
 10
-8.6615356849
 20
3.4473632974
 10
-8.3243348061
 20
2.7105819628
 10
-7.9262833813
 20
1.9907005672
 10
-7.4708795007
 20
1.2940454544
 10
-6.96212527
 20
0.6267388543
 10
-6.4044916397
 20
-0.0053549185
 10
-5.8028791141
 20
-0.5966810013
 10
-5.1625746859
 20
-1.1420427991
 10
-4.4892053732
 20
-1.636647653
 10
-3.7886887699
 20
-2.0761489576
 10
-3.067181041
 20
-2.4566843597
 10
-2.3310228224
 20
-2.7749097004
 10
-1.586683499
 20
-3.0280284042
 10
-0.8407043516
 20
-3.2138160546
 10
-0.0996410716
 20
-3.3306399432
 10
0.6299938501
 20
-3.3774734173
 10
1.3417883556
 20
-3.3539049028
 10
2.0294871692
 20
-3.2601415206
 10
2.687046769
 20
-3.0970072667
 10
2.8905791114
 20
-3.0302205006
  0
LWPOLYLINE
  5
2BA
330
274
100
AcDbEntity
  8
0
  6
Continuous
 62
     7
370
    25
100
AcDbPolyline
 90
       23
 70
   128
 43
0.0
 10
2.1788738757
 20
3.5204930754
 10
2.1453487159
 20
3.1760209685
 10
2.0367153758
 20
2.7215527291
 10
1.8581186672
 20
2.3060091558
 10
1.6131943041
 20
1.9378495172
 10
1.3069282402
 20
1.624568482
 10
0.9455551693
 20
1.3725435486
 10
0.5364316051
 20
1.1869052179
 10
0.0878861235
 20
1.0714325509
 10
-0.3909501829
 20
1.0284762382
 10
-0.8903295879
 20
1.0589107464
 10
-1.4000861668
 20
1.1621165167
 10
-1.9098427457
 20
1.3359925772
 10
-2.4092221507
 20
1.5769993127
 10
-2.8880584571
 20
1.8802305212
 10
-3.3366039387
 20
2.2395132896
 10
-3.7457275029
 20
2.6475336569
 10
-4.1071005738
 20
3.095985505
 10
-4.4133666377
 20
3.5757396476
 10
-4.6582910008
 20
4.0770296738
 10
-4.8368877094
 20
4.5896507642
 10
-4.9455210495
 20
5.1031674318
 10
-4.9819578731
 20
5.5950398964
  0
LWPOLYLINE
  5
2C0
330
274
100
AcDbEntity
  8
0
  6
Continuous
 62
     7
370
    25
100
AcDbPolyline
 90
       28
 70
   128
 43
0.0
 10
-31.9524903311
 20
15.3584588837
 10
-32.1369644329
 20
14.779389985
 10
-32.2760979812
 20
14.10669379
 10
-32.3459717821
 20
13.4056690409
 10
-32.3459717821
 20
12.6824763683
 10
-32.2760979812
 20
11.9434712155
 10
-32.1369644329
 20
11.1951479862
 10
-31.9297938478
 20
10.444082972
 10
-31.6564068485
 20
9.6968765592
 10
-31.3192059697
 20
8.9600952246
 10
-30.9211545449
 20
8.240213829
 10
-30.4657506643
 20
7.5435587161
 10
-29.9569964336
 20
6.8762521161
 10
-29.3993628033
 20
6.2441583433
 10
-28.7977502778
 20
5.6528322605
 10
-28.1574458495
 20
5.1074704627
 10
-27.4840765368
 20
4.6128656088
 10
-26.7835599335
 20
4.1733643042
 10
-26.0620522046
 20
3.7928289021
 10
-25.325893986
 20
3.4746035613
 10
-24.5815546626
 20
3.2214848576
 10
-23.8355755152
 20
3.0356972072
 10
-23.0945122352
 20
2.9188733186
 10
-22.3648773135
 20
2.8720398445
 10
-21.653082808
 20
2.895608359
 10
-20.9653839944
 20
2.9893717412
 10
-20.3078243946
 20
3.1525059951
 10
-20.1042920522
 20
3.2192927612
  0
LWPOLYLINE
  5
2C1
330
274
100
AcDbEntity
  8
0
  6
Continuous
 62
     7
370
    25
100
AcDbPolyline
 90
       28
 70
   128
 43
0.0
 10
-21.5429020303
 20
8.0078328819
 10
-21.6879429234
 20
7.8740817438
 10
-22.0493159943
 20
7.6220568104
 10
-22.4584395585
 20
7.4364184797
 10
-22.9069850401
 20
7.3209458127
 10
-23.3858213465
 20
7.2779895
 10
-23.8852007515
 20
7.3084240082
 10
-24.3949573304
 20
7.4116297784
 10
-24.9047139093
 20
7.5855058389
 10
-25.4040933143
 20
7.8265125745
 10
-25.8829296207
 20
8.1297437829
 10
-26.3314751023
 20
8.4890265514
 10
-26.7405986665
 20
8.8970469187
 10
-27.1019717374
 20
9.3454987668
 10
-27.4082378013
 20
9.8252529094
 10
-27.6531621644
 20
10.3265429356
 10
-27.831758873
 20
10.839164026
 10
-27.9403922131
 20
11.3526806935
 10
-27.9768507232
 20
11.8566392198
 10
-27.9403922131
 20
12.3407804623
 10
-27.831758873
 20
12.7952487017
 10
-27.6531621644
 20
13.210792275
 10
-27.4082378013
 20
13.5789519136
 10
-27.1019717374
 20
13.8922329488
 10
-26.7405986665
 20
14.1442578822
 10
-26.3314751023
 20
14.3298962129
 10
-25.8829296207
 20
14.4453688799
 10
-25.4209676847
 20
14.4880655154
  0
LINE
  5
2C6
330
274
100
AcDbEntity
  8
0
  6
Continuous
 62
     7
370
    25
100
AcDbLine
 10
-42.2661298775
 20
34.2991782413
 30
0.0
 11
-56.7336869343
 21
20.1783990304
 31
0.0
  0
LINE
  5
2C7
330
274
100
AcDbEntity
  8
0
  6
Continuous
 62
     7
370
    25
100
AcDbLine
 10
37.5991759882
 20
-38.8542683093
 30
0.0
 11
42.2661298775
 21
-34.2991782413
 31
0.0
  0
LINE
  5
2C8
330
274
100
AcDbEntity
  8
0
  6
Continuous
 62
     7
370
    25
100
AcDbLine
 10
19.1403315669
 20
-15.5401775026
 30
0.0
 11
27.9845127837
 21
-17.9438364494
 31
0.0
  0
LINE
  5
2C9
330
274
100
AcDbEntity
  8
0
  6
Continuous
 62
     7
370
    25
100
AcDbLine
 10
19.1403315669
 20
-0.11116609
 30
0.0
 11
19.1403315669
 21
-15.5401775026
 31
0.0
  0
LINE
  5
2CA
330
274
100
AcDbEntity
  8
0
  6
Continuous
 62
     7
370
    25
100
AcDbLine
 10
27.100094662
 20
-2.2744591421
 30
0.0
 11
19.1403315669
 21
-0.11116609
 31
0.0
  0
LINE
  5
2CB
330
274
100
AcDbEntity
  8
0
  6
Continuous
 62
     7
370
    25
100
AcDbLine
 10
27.9845127837
 20
-17.9438364494
 30
0.0
 11
27.9845127837
 21
-3.3719923375
 31
0.0
  0
LINE
  5
2CC
330
274
100
AcDbEntity
  8
0
  6
Continuous
 62
     7
370
    25
100
AcDbLine
 10
27.100094662
 20
-2.2744591421
 30
0.0
 11
41.5676517188
 21
11.8463200688
 31
0.0
  0
LINE
  5
2CD
330
274
100
AcDbEntity
  8
0
  6
Continuous
 62
     7
370
    25
100
AcDbLine
 10
42.4520698405
 20
10.7487868734
 30
0.0
 11
27.9845127837
 21
-3.3719923375
 31
0.0
  0
LINE
  5
2CE
330
274
100
AcDbEntity
  8
0
  6
Continuous
 62
     7
370
    25
100
AcDbLine
 10
19.1403315669
 20
-0.11116609
 30
0.0
 11
28.9409347344
 21
9.4545230529
 31
0.0
  0
LINE
  5
2CF
330
274
100
AcDbEntity
  8
0
  6
Continuous
 62
     7
370
    25
100
AcDbLine
 10
2.4083910841
 20
16.6654998934
 30
0.0
 11
28.9409347344
 21
9.4545230529
 31
0.0
  0
LINE
  5
2D0
330
274
100
AcDbEntity
  8
0
  6
Continuous
 62
     7
370
    25
100
AcDbLine
 10
-7.3922120834
 20
7.0998107506
 30
0.0
 11
2.4083910841
 21
16.6654998934
 31
0.0
  0
LINE
  5
2D1
330
274
100
AcDbEntity
  8
0
  6
Continuous
 62
     7
370
    25
100
AcDbLine
 10
-21.5429020303
 20
10.9456650655
 30
0.0
 11
-7.3922120834
 21
7.0998107506
 31
0.0
  0
LINE
  5
2D2
330
274
100
AcDbEntity
  8
0
  6
Continuous
 62
     7
370
    25
100
AcDbLine
 10
-21.5429020303
 20
10.9456650655
 30
0.0
 11
-11.7422988627
 21
20.5113542084
 31
0.0
  0
LINE
  5
2D3
330
274
100
AcDbEntity
  8
0
  6
Continuous
 62
     7
370
    25
100
AcDbLine
 10
-38.274842513
 20
27.7223310489
 30
0.0
 11
-11.7422988627
 21
20.5113542084
 31
0.0
  0
LINE
  5
2D4
330
274
100
AcDbEntity
  8
0
  6
Continuous
 62
     7
370
    25
100
AcDbLine
 10
-48.0754456806
 20
18.156641906
 30
0.0
 11
-38.274842513
 21
27.7223310489
 31
0.0
  0
LINE
  5
2D5
330
274
100
AcDbEntity
  8
0
  6
Continuous
 62
     7
370
    25
100
AcDbLine
 10
-56.0352087757
 20
20.3199349582
 30
0.0
 11
-48.0754456806
 21
18.156641906
 31
0.0
  0
LINE
  5
2D6
330
274
100
AcDbEntity
  8
0
  6
Continuous
 62
     7
370
    25
100
AcDbLine
 10
-41.5676517188
 20
34.4407141691
 30
0.0
 11
-56.0352087757
 21
20.3199349582
 31
0.0
  0
LINE
  5
2D7
330
274
100
AcDbEntity
  8
0
  6
Continuous
 62
     7
370
    25
100
AcDbLine
 10
-41.5676517188
 20
34.4407141691
 30
0.0
 11
41.5676517188
 21
11.8463200688
 31
0.0
  0
LINE
  5
2D8
330
274
100
AcDbEntity
  8
0
  6
Continuous
 62
     7
370
    25
100
AcDbLine
 10
27.9845127837
 20
-17.9438364494
 30
0.0
 11
37.7851159512
 21
-8.3781473066
 31
0.0
  0
LINE
  5
2D9
330
274
100
AcDbEntity
  8
0
  6
Continuous
 62
     7
370
    25
100
AcDbLine
 10
42.4520698405
 20
10.7487868734
 30
0.0
 11
42.4520698405
 21
-2.1944393672
 31
0.0
  0
LINE
  5
2DA
330
274
100
AcDbEntity
  8
0
  6
Continuous
 62
     7
370
    25
100
AcDbLine
 10
44.3188513962
 20
-0.37240334
 30
0.0
 11
42.4520698405
 21
-2.1944393672
 31
0.0
  0
LINE
  5
2DB
330
274
100
AcDbEntity
  8
0
  6
Continuous
 62
     7
370
    25
100
AcDbLine
 10
44.3188513962
 20
-0.37240334
 30
0.0
 11
44.3188513962
 21
-7.0583082854
 31
0.0
  0
LINE
  5
2DC
330
274
100
AcDbEntity
  8
0
  6
Continuous
 62
     7
370
    25
100
AcDbLine
 10
44.3188513962
 20
-7.0583082854
 30
0.0
 11
42.4520698405
 21
-8.8803443127
 31
0.0
  0
LINE
  5
2DD
330
274
100
AcDbEntity
  8
0
  6
Continuous
 62
     7
370
    25
100
AcDbLine
 10
42.4520698405
 20
-8.8803443127
 30
0.0
 11
42.4520698405
 21
-33.8239127631
 31
0.0
  0
LINE
  5
2DE
330
274
100
AcDbEntity
  8
0
  6
Continuous
 62
     7
370
    25
100
AcDbLine
 10
37.7851159512
 20
-38.3790028311
 30
0.0
 11
42.4520698405
 21
-33.8239127631
 31
0.0
  0
LINE
  5
2DF
330
274
100
AcDbEntity
  8
0
  6
Continuous
 62
     7
370
    25
100
AcDbLine
 10
37.7851159512
 20
-8.3781473066
 30
0.0
 11
37.7851159512
 21
-38.3790028311
 31
0.0
  0
LINE
  5
2E0
330
274
100
AcDbEntity
  8
0
  6
Continuous
 62
     7
370
    25
100
AcDbLine
 10
2.4083910841
 20
16.6654998934
 30
0.0
 11
2.4083910841
 21
12.8082470403
 31
0.0
  0
LINE
  5
2E1
330
274
100
AcDbEntity
  8
0
  6
Continuous
 62
     7
370
    25
100
AcDbLine
 10
-3.7825357676
 20
-27.9389730817
 30
0.0
 11
36.9006978295
 21
-38.9958042371
 31
0.0
  0
LINE
  5
2E2
330
274
100
AcDbEntity
  8
0
  6
Continuous
 62
     7
370
    25
100
AcDbLine
 10
-4.6669538893
 20
-26.8414398863
 30
0.0
 11
-4.6669538893
 21
-16.5554322779
 31
0.0
  0
LINE
  5
2E3
330
274
100
AcDbEntity
  8
0
  6
Continuous
 62
     7
370
    25
100
AcDbLine
 10
-46.2346056081
 20
-3.5439006263
 30
0.0
 11
-6.4357901327
 21
-14.3603658871
 31
0.0
  0
LINE
  5
2E4
330
274
100
AcDbEntity
  8
0
  6
Continuous
 62
     7
370
    25
100
AcDbLine
 10
-47.1190237298
 20
3.6611276378
 30
0.0
 11
-47.1190237298
 21
-2.4463674309
 31
0.0
  0
LINE
  5
2E5
330
274
100
AcDbEntity
  8
0
  6
Continuous
 62
     7
370
    25
100
AcDbLine
 10
-38.274842513
 20
27.7223310489
 30
0.0
 11
-38.274842513
 21
12.2933196363
 31
0.0
  0
LINE
  5
2E6
330
274
100
AcDbEntity
  8
0
  6
Continuous
 62
     7
370
    25
100
AcDbLine
 10
-7.3922120834
 20
3.2425578974
 30
0.0
 11
2.4083910841
 21
12.8082470403
 31
0.0
  0
LINE
  5
2E7
330
274
100
AcDbEntity
  8
0
  6
Continuous
 62
     7
370
    25
100
AcDbLine
 10
-7.3922120834
 20
7.0998107506
 30
0.0
 11
-7.3922120834
 21
3.2425578974
 31
0.0
  0
LINE
  5
2E8
330
274
100
AcDbEntity
  8
0
  6
Continuous
 62
     7
370
    25
100
AcDbLine
 10
-21.5429020303
 20
7.0884122123
 30
0.0
 11
-7.3922120834
 21
3.2425578974
 31
0.0
  0
LINE
  5
2E9
330
274
100
AcDbEntity
  8
0
  6
Continuous
 62
     7
370
    25
100
AcDbLine
 10
-21.5429020303
 20
10.9456650655
 30
0.0
 11
-21.5429020303
 21
7.0884122123
 31
0.0
  0
LINE
  5
2EA
330
274
100
AcDbEntity
  8
0
  6
Continuous
 62
     7
370
    25
100
AcDbLine
 10
42.4520698405
 20
0.1349478866
 30
0.0
 11
44.3188513962
 21
-0.37240334
 31
0.0
  0
LINE
  5
2EB
330
274
100
AcDbEntity
  8
0
  6
Continuous
 62
     7
370
    25
100
AcDbLine
 10
-48.0754456806
 20
18.156641906
 30
0.0
 11
-48.0754456806
 21
2.7276304934
 31
0.0
  0
LINE
  5
2EC
330
274
100
AcDbEntity
  8
0
  6
Continuous
 62
     7
370
    25
100
AcDbLine
 10
-56.9196268973
 20
5.1312894402
 30
0.0
 11
-48.0754456806
 21
2.7276304934
 31
0.0
  0
LINE
  5
2ED
330
274
100
AcDbEntity
  8
0
  6
Continuous
 62
     7
370
    25
100
AcDbLine
 10
-56.9196268973
 20
19.7031335522
 30
0.0
 11
-56.9196268973
 21
5.1312894402
 31
0.0
  0
LINE
  5
2EE
330
274
100
AcDbEntity
  8
0
  6
Continuous
 62
     7
370
    25
100
AcDbLine
 10
-48.0754456806
 20
2.7276304934
 30
0.0
 11
-38.274842513
 21
12.2933196363
 31
0.0
  0
LINE
  5
2EF
330
274
100
AcDbEntity
  8
0
  6
Continuous
 62
     7
370
    25
100
AcDbLine
 10
0.9009823886
 20
4.7417381784
 30
0.0
 11
-0.9657991671
 21
2.9197021512
 31
0.0
  0
LINE
  5
2F0
330
274
100
AcDbEntity
  8
0
  6
Continuous
 62
     7
370
    25
100
AcDbLine
 10
0.9657991671
 20
2.3947351131
 30
0.0
 11
2.1585978341
 21
3.5589431791
 31
0.0
  0
LINE
  5
2F1
330
274
100
AcDbEntity
  8
0
  6
Continuous
 62
     7
370
    25
100
AcDbLine
 10
-22.093888775
 20
10.9912514402
 30
0.0
 11
-23.9606703307
 21
9.169215413
 31
0.0
  0
LINE
  5
2F2
330
274
100
AcDbEntity
  8
0
  6
Continuous
 62
     7
370
    25
100
AcDbLine
 10
-22.0290719965
 20
8.6442483749
 30
0.0
 11
-21.5429020303
 21
9.1187651662
 31
0.0
  0
ARC
  5
2F3
330
274
100
AcDbEntity
  8
0
  6
Continuous
 62
     7
370
    25
100
AcDbCircle
 10
26.7721405889
 20
-3.4438413487
 30
0.0
 40
1.214499328616504
100
AcDbArc
 50
3.391562315
 51
74.3338098233
  0
ARC
  5
2F4
330
274
100
AcDbEntity
  8
0
  6
Continuous
 62
     7
370
    25
100
AcDbCircle
 10
41.2396976457
 20
10.6769378622
 30
0.0
 40
1.214499328616528
100
AcDbArc
 50
3.391562315
 51
74.3338098233
  0
ARC
  5
2F5
330
274
100
AcDbEntity
  8
0
  6
Continuous
 62
     7
370
    25
100
AcDbCircle
 10
37.1351226833
 20
-38.3894662786
 30
0.0
 40
0.6500774815444694
100
AcDbArc
 50
248.862298024
 51
0.9222550965
  0
ARC
  5
2F6
330
274
100
AcDbEntity
  8
0
  6
Continuous
 62
     7
370
    25
100
AcDbCircle
 10
-3.4545816945
 20
-26.7695908751
 30
0.0
 40
1.214499328616519
100
AcDbArc
 50
183.391562315
 51
254.3338098233
  0
ARC
  5
2F7
330
274
100
AcDbEntity
  8
0
  6
Continuous
 62
     7
370
    25
100
AcDbCircle
 10
-7.091698279
 20
-16.6991303003
 30
0.0
 40
2.428998657233026
100
AcDbArc
 50
3.391562315
 51
74.3338098233
  0
ARC
  5
2F8
330
274
100
AcDbEntity
  8
0
  6
Continuous
 62
     7
370
    25
100
AcDbCircle
 10
-45.906651535
 20
-2.3745184197
 30
0.0
 40
1.214499328616521
100
AcDbArc
 50
183.391562315
 51
254.3338098233
  0
ARC
  5
2F9
330
274
100
AcDbEntity
  8
0
  6
Continuous
 62
     7
370
    25
100
AcDbCircle
 10
-7.5054686613
 20
-1.3112840855
 30
0.0
 40
10.81455220409535
100
AcDbArc
 50
3.1436883799
 51
61.4042049152
  0
ARC
  5
2FA
330
274
100
AcDbEntity
  8
0
  6
Continuous
 62
     7
370
    25
100
AcDbCircle
 10
-56.2696336295
 20
19.7135969997
 30
0.0
 40
0.6500774815444486
100
AcDbArc
 50
68.862298024
 51
180.9222550965
  0
ARC
  5
2FB
330
274
100
AcDbEntity
  8
0
  6
Continuous
 62
     7
370
    25
100
AcDbCircle
 10
-41.7936781687
 20
33.7618933107
 30
0.0
 40
0.7154618884850177
100
AcDbArc
 50
71.583829316
 51
131.326192755
  0
ARC
  5
2FC
330
274
100
AcDbEntity
  8
0
  6
Continuous
 62
     7
370
    25
100
AcDbCircle
 10
41.8067499109
 20
-33.845447482
 30
0.0
 40
0.6456791429340637
100
AcDbArc
 50
315.354471361
 51
1.9112857848
  0
ARC
  5
2FD
330
274
100
AcDbEntity
  8
0
  6
Continuous
 62
     7
370
    25
100
AcDbCircle
 10
3.3333746698
 20
9.247254946
 30
0.0
 40
5.120177101621303
100
AcDbArc
 50
197.6697064844
 51
241.6367312601
  0
ARC
  5
2FE
330
274
100
AcDbEntity
  8
0
  6
Continuous
 62
     7
370
    25
100
AcDbCircle
 10
1.0407559032
 20
6.4866445259
 30
0.0
 40
4.092595894370377
100
AcDbArc
 50
240.6404163549
 51
268.9505573277
  0
ARC
  5
2FF
330
274
100
AcDbEntity
  8
0
  6
Continuous
 62
     7
370
    25
100
AcDbCircle
 10
-19.6614964938
 20
15.4967682077
 30
0.0
 40
5.120177101621274
100
AcDbArc
 50
197.6697064844
 51
241.6367312601
  0
ARC
  5
300
330
274
100
AcDbEntity
  8
0
  6
Continuous
 62
     7
370
    25
100
AcDbCircle
 10
-21.9541152604
 20
12.7361577877
 30
0.0
 40
4.092595894370445
100
AcDbArc
 50
240.6404163549
 51
268.9505573277
  0
VIEWPORT
  5
3A5
330
274
100
AcDbEntity
  8
0
100
AcDbViewport
 10
0.0
 20
0.0
 30
0.0
 40
205.6
 41
156.0
 68
     1
 69
     1
 12
15.6122542373
 22
1.314385259
 13
0.0
 23
0.0
 14
10.0
 24
10.0
 15
10.0
 25
10.0
 16
0.0
 26
0.0
 36
1.0
 17
0.0
 27
0.0
 37
0.0
 42
50.0
 43
0.0
 44
0.0
 45
112.7903894225
 50
0.0
 51
0.0
 72
   100
 90
   557152
  1

281
     0
 71
     1
 74
     0
110
0.0
120
0.0
130
0.0
111
1.0
121
0.0
131
0.0
112
0.0
122
1.0
132
0.0
 79
     0
146
0.0
  0
MTEXT
  5
3B2
330
274
100
AcDbEntity
  8
0
  6
Continuous
 62
     7
100
AcDbMText
 10
-56.919711111
 20
-44.6977793496
 30
0.0
 40
4.83362
 41
0.0
 71
     1
 72
     1
  1
Produit d'éducation SOLIDWORKS – A titre éducatif uniquement.
  7
SLDTEXTSTYLE0
 73
     1
 44
1.0
  0
ENDBLK
  5
277
330
274
100
AcDbEntity
  8
0
100
AcDbBlockEnd
  0
BLOCK
  5
303
330
301
100
AcDbEntity
  8
0
100
AcDbBlockBegin
  2
*Paper_Space7
 70
     0
 10
0.0
 20
0.0
 30
0.0
  3
*Paper_Space7
  1

  0
LINE
  5
305
330
301
100
AcDbEntity
  8
0
  6
CENTERX2
 62
     7
100
AcDbLine
 10
-57.0939435277
 20
10.2293408223
 30
0.0
 11
50.3348664532
 21
-3.3054170211
 31
0.0
  0
LINE
  5
306
330
301
100
AcDbEntity
  8
0
  6
CENTERX2
 62
     7
100
AcDbLine
 10
-3.5355339051
 20
24.8162249145
 30
0.0
 11
-3.5355339051
 21
-0.8644385765
 31
0.0
  0
POINT
  5
307
330
301
100
AcDbEntity
  8
0
  6
Continuous
 62
     7
100
AcDbPoint
 10
-3.5355339051
 20
3.4816154696
 30
0.0
  0
POINT
  5
308
330
301
100
AcDbEntity
  8
0
  6
Continuous
 62
     7
100
AcDbPoint
 10
79.230728914
 20
-33.184931567
 30
0.0
  0
POINT
  5
309
330
301
100
AcDbEntity
  8
0
  6
Continuous
 62
     7
100
AcDbPoint
 10
20.7852391097
 20
0.4174860859
 30
0.0
  0
POINT
  5
30A
330
301
100
AcDbEntity
  8
0
  6
Continuous
 62
     7
100
AcDbPoint
 10
-27.8563069199
 20
6.5457448533
 30
0.0
  0
LWPOLYLINE
  5
31D
330
301
100
AcDbEntity
  8
0
  6
Continuous
 62
     7
370
    25
100
AcDbPolyline
 90
       45
 70
   128
 43
0.0
 10
39.9678188451
 20
6.9640317909
 10
39.953244257
 20
7.4945898633
 10
39.9098171892
 20
7.9886401462
 10
39.8384216916
 20
8.4361252007
 10
39.7405111707
 20
8.8279355214
 10
39.6180788023
 20
9.1560949802
 10
39.4736169564
 20
9.4139231967
 10
39.3100664595
 20
9.596171532
 10
39.1307567281
 20
9.6991299356
 10
38.9393379913
 20
9.7207024712
 10
38.7397069826
 20
9.6604499843
 10
38.5359276135
 20
9.5195990416
 10
38.3321482445
 20
9.3010169624
 10
38.1325172357
 20
9.0091534472
 10
37.941098499
 20
8.6499499957
 10
37.7617887676
 20
8.2307189542
 10
37.5982382707
 20
7.7599946579
 10
37.4537764248
 20
7.2473596958
 10
37.3313440563
 20
6.7032498376
 10
37.2334335354
 20
6.1387415908
 10
37.1620380379
 20
5.5653267154
 10
37.1186109701
 20
4.9946782848
 10
37.104036382
 20
4.4384130553
 10
37.1186109701
 20
3.907854983
 10
37.1620380379
 20
3.4138047
 10
37.2334335354
 20
2.9663196455
 10
37.3313440563
 20
2.5745093248
 10
37.4537764248
 20
2.2463498661
 10
37.5982382707
 20
1.9885216495
 10
37.7617887676
 20
1.8062733142
 10
37.941098499
 20
1.7033149107
 10
38.1325172357
 20
1.6817423751
 10
38.3321482445
 20
1.741994862
 10
38.5359276135
 20
1.8828458046
 10
38.7397069826
 20
2.1014278839
 10
38.9393379913
 20
2.393291399
 10
39.1307567281
 20
2.7524948505
 10
39.3100664595
 20
3.171725892
 10
39.4736169564
 20
3.6424501884
 10
39.6180788023
 20
4.1550851504
 10
39.7405111707
 20
4.6991950087
 10
39.8384216916
 20
5.2637032555
 10
39.9098171892
 20
5.8371181308
 10
39.953244257
 20
6.4077665614
 10
39.9678188451
 20
6.9640317909
  0
LWPOLYLINE
  5
328
330
301
100
AcDbEntity
  8
0
  6
Continuous
 62
     7
370
    25
100
AcDbPolyline
 90
       36
 70
   128
 43
0.0
 10
-9.7227182391
 20
16.8812126139
 10
-9.2909521652
 20
16.8411318621
 10
-8.8446546661
 20
16.8273934942
 10
-8.3981701104
 20
16.8404390728
 10
-7.9658488793
 20
16.8798493022
 10
-7.5615861327
 20
16.9443575052
 10
-7.1983752081
 20
17.031890335
 10
-6.8878900033
 20
17.1396344146
 10
-6.6401097683
 20
17.2641267604
 10
-6.4629983638
 20
17.4013660862
 10
-6.362248296
 20
17.546941407
 10
-6.3410977549
 20
17.6961738123
 10
-6.4002265365
 20
17.8442668497
 10
-6.5377341929
 20
17.9864606872
 10
-6.749201115
 20
18.1181850979
 10
-7.0278305819
 20
18.2352063508
 10
-7.3646672132
 20
18.3337632865
 10
-7.7488848026
 20
18.4106882041
 10
-8.1681342805
 20
18.4635086734
 10
-8.6089406237
 20
18.4905270011
 10
-9.0571359538
 20
18.4908747958
 10
-9.4983149039
 20
18.4645408792
 10
-9.9182976197
 20
18.412371645
 10
-10.3035855111
 20
18.3360438554
 10
-10.6417951082
 20
18.2380107482
 10
-10.9220560763
 20
18.1214231883
 10
-11.1353605974
 20
17.9900283957
 10
-11.2748528885
 20
17.8480495071
 10
-11.3360495527
 20
17.7000498409
 10
-11.3169836789
 20
17.5507862282
 10
-11.2182680598
 20
17.4050561241
 10
-11.0430754968
 20
17.2675434143
 10
-10.797036823
 20
17.1426678703
 10
-10.4880599237
 20
17.0344430949
 10
-10.1260755707
 20
16.9463475213
 10
-9.7227182391
 20
16.8812126139
  0
LWPOLYLINE
  5
337
330
301
100
AcDbEntity
  8
0
  6
Continuous
 62
     7
370
    25
100
AcDbPolyline
 90
       68
 70
   128
 43
0.0
 10
-19.4375777994
 20
5.485084682
 10
-19.4745698465
 20
6.2843196289
 10
-19.5852209004
 20
7.0858519901
 10
-19.7685585556
 20
7.8826378703
 10
-20.0229716343
 20
8.6676750866
 10
-20.3462243451
 20
9.4340647037
 10
-20.7354759316
 20
10.1750716622
 10
-21.1873056369
 20
10.8841839661
 10
-21.6977427652
 20
11.5551699111
 10
-22.2623015768
 20
12.1821328486
 10
-22.8760207084
 20
12.7595630058
 10
-23.5335067744
 20
13.2823859055
 10
-24.2289817634
 20
13.7460069615
 10
-24.9563338164
 20
14.1463518552
 10
-25.7091709373
 20
14.4799023413
 10
-26.4808771664
 20
14.7437271661
 10
-27.2646707216
 20
14.9355078275
 10
-28.053663597
 20
15.0535589503
 10
-28.8409220948
 20
15.0968430968
 10
-29.6195277591
 20
15.0649798846
 10
-30.3826381752
 20
14.9582493285
 10
-31.1235471015
 20
14.7775893807
 10
-31.8357434035
 20
14.5245876872
 10
-32.5129682746
 20
14.2014676359
 10
-33.1492702384
 20
13.8110688176
 10
-33.7390574501
 20
13.356822071
 10
-34.2771468387
 20
12.842719333
 10
-34.7588096552
 20
12.2732785568
 10
-35.1798130295
 20
11.6535040085
 10
-35.5364571687
 20
10.988842289
 10
-35.8256078715
 20
10.2851344696
 10
-36.0447240709
 20
9.5485647597
 10
-36.1918801659
 20
8.7856061606
 10
-36.2657829436
 20
8.0029635797
 10
-36.2657829436
 20
7.2075149083
 10
-36.1918801659
 20
6.4062505778
 10
-36.0447240709
 20
5.606212128
 10
-35.8256078715
 20
4.8144303256
 10
-35.5364571687
 20
4.0378633776
 10
-35.1798130295
 20
3.2833357821
 10
-34.7588096552
 20
2.5574783548
 10
-34.2771468387
 20
1.8666699569
 10
-33.7390574501
 20
1.2169814375
 10
-33.1492702384
 20
0.6141222826
 10
-32.5129682746
 20
0.06339044
 10
-31.8357434035
 20
-0.4303742388
 10
-31.1235471015
 20
-0.8628325322
 10
-30.3826381752
 20
-1.2301839812
 10
-29.6195277591
 20
-1.529200288
 10
-28.8409220948
 20
-1.7572536865
 10
-28.053663597
 20
-1.9123400354
 10
-27.2646707216
 20
-1.9930964301
 10
-26.4808771664
 20
-1.9988131806
 10
-25.7091709373
 20
-1.9294400478
 10
-24.9563338164
 20
-1.7855866854
 10
-24.2289817634
 20
-1.5685172819
 10
-23.5335067744
 20
-1.280139451
 10
-22.8760207084
 20
-0.9229874674
 10
-22.2623015768
 20
-0.5001999957
 10
-21.6977427652
 20
-0.0154925072
 10
-21.1873056369
 20
0.526875371
 10
-20.7354759316
 20
1.1221372907
 10
-20.3462243451
 20
1.7650620687
 10
-20.0229716343
 20
2.4499996589
 10
-19.7685585556
 20
3.1709308051
 10
-19.5852209004
 20
3.9215199385
 10
-19.4745698465
 20
4.6951708549
 10
-19.4375777994
 20
5.485084682
  0
LWPOLYLINE
  5
338
330
301
100
AcDbEntity
  8
0
  6
Continuous
 62
     7
370
    25
100
AcDbPolyline
 90
       50
 70
   128
 43
0.0
 10
24.5855900696
 20
7.5102180163
 10
24.4125642662
 20
7.6177481941
 10
23.6852122132
 20
8.0180930878
 10
22.9323750924
 20
8.3516435739
 10
22.1606688633
 20
8.6154683986
 10
21.3768753081
 20
8.8072490601
 10
20.5878824327
 20
8.9253001828
 10
19.8006239348
 20
8.9685843294
 10
19.0220182705
 20
8.9367211172
 10
18.2589078544
 20
8.8299905611
 10
17.5179989282
 20
8.6493306133
 10
16.8058026261
 20
8.3963289198
 10
16.128577755
 20
8.0732088685
 10
15.4922757913
 20
7.6828100502
 10
14.9024885795
 20
7.2285633036
 10
14.364399191
 20
6.7144605656
 10
13.8827363745
 20
6.1450197894
 10
13.4617330002
 20
5.525245241
 10
13.1050888609
 20
4.8605835216
 10
12.8159381582
 20
4.1568757022
 10
12.5968219588
 20
3.4203059923
 10
12.4496658637
 20
2.6573473931
 10
12.375763086
 20
1.8747048123
 10
12.375763086
 20
1.0792561408
 10
12.4496658637
 20
0.2779918104
 10
12.5968219588
 20
-0.5220466394
 10
12.8159381582
 20
-1.3138284418
 10
13.1050888609
 20
-2.0903953899
 10
13.4617330002
 20
-2.8449229853
 10
13.8827363745
 20
-3.5707804126
 10
14.364399191
 20
-4.2615888105
 10
14.9024885795
 20
-4.9112773299
 10
15.4922757913
 20
-5.5141364849
 10
16.128577755
 20
-6.0648683274
 10
16.8058026261
 20
-6.5586330062
 10
17.5179989282
 20
-6.9910912997
 10
18.2589078544
 20
-7.3584427486
 10
19.0220182705
 20
-7.6574590554
 10
19.8006239348
 20
-7.885512454
 10
20.5878824327
 20
-8.0405988028
 10
21.3768753081
 20
-8.1213551975
 10
22.1606688633
 20
-8.127071948
 10
22.9323750924
 20
-8.0576988153
 10
23.6852122132
 20
-7.9138454529
 10
24.4125642662
 20
-7.6967760493
 10
25.1080392553
 20
-7.4083982184
 10
25.7655253212
 20
-7.0512462348
 10
26.3792444529
 20
-6.6284587631
 10
26.9438032645
 20
-6.1437512747
 10
27.112196419
 20
-5.9773322971
  0
LWPOLYLINE
  5
33A
330
301
100
AcDbEntity
  8
0
  6
Continuous
 62
     7
370
    25
100
AcDbPolyline
 90
       47
 70
   128
 43
0.0
 10
-8.1210043879
 20
11.1754885303
 10
-8.1921952598
 20
11.1373382522
 10
-8.8284972235
 20
10.7469394339
 10
-9.4182844353
 20
10.2926926873
 10
-9.9563738239
 20
9.7785899493
 10
-10.4380366404
 20
9.2091491731
 10
-10.8590400146
 20
8.5893746248
 10
-11.2156841539
 20
7.9247129053
 10
-11.5048348566
 20
7.2210050859
 10
-11.723951056
 20
6.484435376
 10
-11.8711071511
 20
5.7214767768
 10
-11.9450099288
 20
4.938834196
 10
-11.9450099288
 20
4.1433855245
 10
-11.8711071511
 20
3.3421211941
 10
-11.723951056
 20
2.5420827443
 10
-11.5048348566
 20
1.7503009419
 10
-11.2156841539
 20
0.9737339939
 10
-10.8590400146
 20
0.2192063984
 10
-10.4380366404
 20
-0.5066510289
 10
-9.9563738239
 20
-1.1974594268
 10
-9.4182844353
 20
-1.8471479462
 10
-8.8284972235
 20
-2.4500071012
 10
-8.1921952598
 20
-3.0007389437
 10
-7.5149703887
 20
-3.4945036225
 10
-6.8027740866
 20
-3.9269619159
 10
-6.0618651604
 20
-4.2943133649
 10
-5.2987547443
 20
-4.5933296717
 10
-4.52014908
 20
-4.8213830703
 10
-3.7328905822
 20
-4.9764694191
 10
-2.9438977068
 20
-5.0572258138
 10
-2.1601041515
 20
-5.0629425643
 10
-1.3883979225
 20
-4.9935694315
 10
-0.6355608016
 20
-4.8497160691
 10
0.0917912514
 20
-4.6326466656
 10
0.7872662405
 20
-4.3442688347
 10
1.4447523064
 20
-3.9871168511
 10
2.0584714381
 20
-3.5643293794
 10
2.6230302496
 20
-3.0796218909
 10
3.133467378
 20
-2.5372540127
 10
3.5852970832
 20
-1.941992093
 10
3.9745486697
 20
-1.299067315
 10
4.2978013805
 20
-0.6141297248
 10
4.5522144592
 20
0.1068014214
 10
4.7355521144
 20
0.8573905548
 10
4.8462031683
 20
1.6310414712
 10
4.8831952154
 20
2.4209552983
 10
4.8831952154
 20
2.4209552983
  0
LWPOLYLINE
  5
33B
330
301
100
AcDbEntity
  8
0
  6
Continuous
 62
     7
370
    25
100
AcDbPolyline
 90
       28
 70
   128
 43
0.0
 10
16.1997686269
 20
8.1113591466
 10
15.9366067338
 20
7.7078787162
 10
15.5799625945
 20
7.0432169968
 10
15.2908118918
 20
6.3395091773
 10
15.0716956924
 20
5.6029394675
 10
14.9245395973
 20
4.8399808683
 10
14.8506368196
 20
4.0573382874
 10
14.8506368196
 20
3.261889616
 10
14.9245395973
 20
2.4606252855
 10
15.0716956924
 20
1.6605868358
 10
15.2908118918
 20
0.8688050334
 10
15.5799625945
 20
0.0922380853
 10
15.9366067338
 20
-0.6622895102
 10
16.357610108
 20
-1.3881469374
 10
16.8392729245
 20
-2.0789553353
 10
17.3773623131
 20
-2.7286438548
 10
17.9671495249
 20
-3.3315030097
 10
18.6034514886
 20
-3.8822348522
 10
19.2806763597
 20
-4.3759995311
 10
19.9928726618
 20
-4.8084578245
 10
20.733781588
 20
-5.1758092735
 10
21.4968920041
 20
-5.4748255803
 10
22.2754976684
 20
-5.7028789788
 10
23.0627561662
 20
-5.8579653276
 10
23.8517490416
 20
-5.9387217223
 10
24.6355425969
 20
-5.9444384728
 10
25.407248826
 20
-5.8750653401
 10
25.7930002082
 20
-5.8111291969
  0
LWPOLYLINE
  5
33E
330
301
100
AcDbEntity
  8
0
  6
Continuous
 62
     7
370
    25
100
AcDbPolyline
 90
       45
 70
   128
 43
0.0
 10
-40.4778149732
 20
17.0992289832
 10
-40.4923895613
 20
17.6297870556
 10
-40.5358166291
 20
18.1238373385
 10
-40.6072121266
 20
18.571322393
 10
-40.7051226475
 20
18.9631327137
 10
-40.827555016
 20
19.2912921725
 10
-40.9720168619
 20
19.549120389
 10
-41.1355673588
 20
19.7313687243
 10
-41.3148770902
 20
19.8343271278
 10
-41.5062958269
 20
19.8558996635
 10
-41.7059268357
 20
19.7956471765
 10
-41.9097062047
 20
19.6547962339
 10
-42.1134855738
 20
19.4362141546
 10
-42.3131165825
 20
19.1443506395
 10
-42.5045353193
 20
18.785147188
 10
-42.6838450507
 20
18.3659161465
 10
-42.8473955476
 20
17.8951918502
 10
-42.9918573935
 20
17.3825568881
 10
-43.1142897619
 20
16.8384470298
 10
-43.2122002828
 20
16.2739387831
 10
-43.2835957804
 20
15.7005239077
 10
-43.3270228482
 20
15.1298754771
 10
-43.3415974363
 20
14.5736102476
 10
-43.3270228482
 20
14.0430521752
 10
-43.2835957804
 20
13.5490018923
 10
-43.2122002828
 20
13.1015168378
 10
-43.1142897619
 20
12.7097065171
 10
-42.9918573935
 20
12.3815470583
 10
-42.8473955476
 20
12.1237188418
 10
-42.6838450507
 20
11.9414705065
 10
-42.5045353193
 20
11.8385121029
 10
-42.3131165825
 20
11.8169395673
 10
-42.1134855738
 20
11.8771920543
 10
-41.9097062047
 20
12.0180429969
 10
-41.7059268357
 20
12.2366250762
 10
-41.5062958269
 20
12.5284885913
 10
-41.3148770902
 20
12.8876920428
 10
-41.1355673588
 20
13.3069230843
 10
-40.9720168619
 20
13.7776473806
 10
-40.827555016
 20
14.2902823427
 10
-40.7051226475
 20
14.8343922009
 10
-40.6072121266
 20
15.3989004477
 10
-40.5358166291
 20
15.9723153231
 10
-40.4923895613
 20
16.5429637537
 10
-40.4778149732
 20
17.0992289832
  0
LWPOLYLINE
  5
343
330
301
100
AcDbEntity
  8
0
  6
Continuous
 62
     7
370
    25
100
AcDbPolyline
 90
       29
 70
   128
 43
0.0
 10
24.5855900696
 20
-1.1439159658
 10
24.3274363795
 20
-1.1980561009
 10
23.7992623763
 20
-1.2473179455
 10
23.2601128433
 20
-1.2182570575
 10
22.7209633103
 20
-1.1114650328
 10
22.1927893071
 20
-0.9291158491
 10
21.6863429331
 20
-0.67492161
 10
21.2119339761
 20
-0.354056977
 10
20.7792200345
 20
0.0269461711
 10
20.397009916
 20
0.460331709
 10
20.0730843167
 20
0.937277157
 10
19.8140374276
 20
1.448073281
 10
19.6251426962
 20
1.9823217451
 10
19.5102454747
 20
2.5291467912
 10
19.4716847391
 20
3.0774166381
 10
19.5102454747
 20
3.615970093
 10
19.6251426962
 20
4.1338437606
 10
19.8140374276
 20
4.6204952263
 10
20.0730843167
 20
5.0660176698
 10
20.397009916
 20
5.4613415388
 10
20.7792200345
 20
5.7984191794
 10
21.2119339761
 20
6.070388663
 10
21.6863429331
 20
6.2717134751
 10
22.1927893071
 20
6.398295223
 10
22.7209633103
 20
6.4475570676
 10
23.2601128433
 20
6.4184961796
 10
23.7992623763
 20
6.3117041549
 10
24.3274363795
 20
6.1293549712
 10
24.5855900696
 20
6.0101662206
  0
LWPOLYLINE
  5
345
330
301
100
AcDbEntity
  8
0
  6
Continuous
 62
     7
370
    25
100
AcDbPolyline
 90
       31
 70
   128
 43
0.0
 10
-8.1210043879
 20
11.1754885303
 10
-8.3841662811
 20
10.7720080999
 10
-8.7408104203
 20
10.1073463805
 10
-9.029961123
 20
9.403638561
 10
-9.2490773225
 20
8.6670688512
 10
-9.3962334175
 20
7.904110252
 10
-9.4701361952
 20
7.1214676711
 10
-9.4701361952
 20
6.3260189997
 10
-9.3962334175
 20
5.5247546692
 10
-9.2490773225
 20
4.7247162195
 10
-9.029961123
 20
3.9329344171
 10
-8.7408104203
 20
3.156367469
 10
-8.3841662811
 20
2.4018398735
 10
-7.9631629068
 20
1.6759824463
 10
-7.4815000903
 20
0.9851740484
 10
-6.9434107017
 20
0.335485529
 10
-6.3536234899
 20
-0.267373626
 10
-5.7173215262
 20
-0.8181054685
 10
-5.0400966551
 20
-1.3118701473
 10
-4.3279003531
 20
-1.7443284408
 10
-3.5869914268
 20
-2.1116798898
 10
-2.8238810107
 20
-2.4106961965
 10
-2.0452753464
 20
-2.6387495951
 10
-1.2580168486
 20
-2.7938359439
 10
-0.4690239732
 20
-2.8745923386
 10
0.314769582
 20
-2.8803090891
 10
1.0864758111
 20
-2.8109359564
 10
1.839312932
 20
-2.667082594
 10
2.566664985
 20
-2.4500131905
 10
3.262139974
 20
-2.1616353595
 10
3.5248103113
 20
-2.029624116
  0
LWPOLYLINE
  5
34A
330
301
100
AcDbEntity
  8
0
  6
Continuous
 62
     7
370
    25
100
AcDbPolyline
 90
       45
 70
   128
 43
0.0
 10
2.7277679327
 20
5.1869518677
 10
2.6892071971
 20
4.6483984128
 10
2.5743099755
 20
4.1305247453
 10
2.3854152442
 20
3.6438732795
 10
2.126368355
 20
3.1983508361
 10
1.8024427557
 20
2.803026967
 10
1.4202326373
 20
2.4659493264
 10
0.9875186956
 20
2.1939798428
 10
0.5131097386
 20
1.9926550308
 10
0.0066633647
 20
1.8660732828
 10
-0.5215106386
 20
1.8168114382
 10
-1.0606601715
 20
1.8458723262
 10
-1.5998097045
 20
1.9526643509
 10
-2.1279837078
 20
2.1350135346
 10
-2.6344300817
 20
2.3892077737
 10
-3.1088390387
 20
2.7100724067
 10
-3.5415529804
 20
3.0910755548
 10
-3.9237630988
 20
3.5244610927
 10
-4.2476886981
 20
4.0014065407
 10
-4.5067355872
 20
4.5122026647
 10
-4.6956303186
 20
5.0464511288
 10
-4.8105275401
 20
5.5932761749
 10
-4.8490882758
 20
6.1415460218
 10
-4.8105275401
 20
6.6800994767
 10
-4.6956303186
 20
7.1979731443
 10
-4.5067355872
 20
7.68462461
 10
-4.2476886981
 20
8.1301470535
 10
-3.9237630988
 20
8.5254709225
 10
-3.5415529804
 20
8.8625485631
 10
-3.1088390387
 20
9.1345180467
 10
-2.6344300817
 20
9.3358428588
 10
-2.1279837078
 20
9.4624246068
 10
-1.5998097045
 20
9.5116864513
 10
-1.0606601715
 20
9.4826255633
 10
-0.5215106386
 20
9.3758335386
 10
0.0066633647
 20
9.193484355
 10
0.5131097386
 20
8.9392901158
 10
0.9875186956
 20
8.6184254829
 10
1.4202326373
 20
8.2374223347
 10
1.8024427557
 20
7.8040367968
 10
2.126368355
 20
7.3270913489
 10
2.3854152442
 20
6.8162952248
 10
2.5743099755
 20
6.2820467607
 10
2.6892071971
 20
5.7352217147
 10
2.7277679327
 20
5.1869518677
  0
LWPOLYLINE
  5
34B
330
301
100
AcDbEntity
  8
0
  6
Continuous
 62
     7
370
    25
100
AcDbPolyline
 90
       31
 70
   128
 43
0.0
 10
-32.4417774027
 20
14.239617914
 10
-32.7049392959
 20
13.8361374836
 10
-33.0615834351
 20
13.1714757642
 10
-33.3507341379
 20
12.4677679447
 10
-33.5698503373
 20
11.7311982349
 10
-33.7170064324
 20
10.9682396357
 10
-33.79090921
 20
10.1855970549
 10
-33.79090921
 20
9.3901483834
 10
-33.7170064324
 20
8.588884053
 10
-33.5698503373
 20
7.7888456032
 10
-33.3507341379
 20
6.9970638008
 10
-33.0615834351
 20
6.2204968527
 10
-32.7049392959
 20
5.4659692572
 10
-32.2839359216
 20
4.74011183
 10
-31.8022731051
 20
4.0493034321
 10
-31.2641837165
 20
3.3996149127
 10
-30.6743965048
 20
2.7967557577
 10
-30.0380945411
 20
2.2460239152
 10
-29.3608696699
 20
1.7522592364
 10
-28.6486733679
 20
1.3198009429
 10
-27.9077644417
 20
0.952449494
 10
-27.1446540255
 20
0.6534331872
 10
-26.3660483612
 20
0.4253797886
 10
-25.5787898634
 20
0.2702934398
 10
-24.789796988
 20
0.1895370451
 10
-24.0060034328
 20
0.1838202946
 10
-23.2342972037
 20
0.2531934273
 10
-22.4814600828
 20
0.3970467897
 10
-21.7541080299
 20
0.6141161932
 10
-21.0586330408
 20
0.9024940242
 10
-20.7959627036
 20
1.0345052678
  0
LWPOLYLINE
  5
351
330
301
100
AcDbEntity
  8
0
  6
Continuous
 62
     7
370
    25
100
AcDbPolyline
 90
       45
 70
   128
 43
0.0
 10
-21.5930050821
 20
8.2510812514
 10
-21.6315658178
 20
7.7125277965
 10
-21.7464630393
 20
7.194654129
 10
-21.9353577707
 20
6.7080026633
 10
-22.1944046598
 20
6.2624802198
 10
-22.5183302591
 20
5.8671563508
 10
-22.9005403775
 20
5.5300787101
 10
-23.3332543192
 20
5.2581092265
 10
-23.8076632762
 20
5.0567844145
 10
-24.3141096501
 20
4.9302026665
 10
-24.8422836534
 20
4.880940822
 10
-25.3814331864
 20
4.91000171
 10
-25.9205827193
 20
5.0167937346
 10
-26.4487567226
 20
5.1991429183
 10
-26.9552030965
 20
5.4533371574
 10
-27.4296120535
 20
5.7742017904
 10
-27.8623259952
 20
6.1552049385
 10
-28.2445361136
 20
6.5885904764
 10
-28.5684617129
 20
7.0655359244
 10
-28.8275086021
 20
7.5763320484
 10
-29.0164033334
 20
8.1105805125
 10
-29.131300555
 20
8.6574055586
 10
-29.1698612906
 20
9.2056754056
 10
-29.131300555
 20
9.7442288604
 10
-29.0164033334
 20
10.262102528
 10
-28.8275086021
 20
10.7487539937
 10
-28.5684617129
 20
11.1942764372
 10
-28.2445361136
 20
11.5896003062
 10
-27.8623259952
 20
11.9266779469
 10
-27.4296120535
 20
12.1986474304
 10
-26.9552030965
 20
12.3999722425
 10
-26.4487567226
 20
12.5265539905
 10
-25.9205827193
 20
12.575815835
 10
-25.3814331864
 20
12.546754947
 10
-24.8422836534
 20
12.4399629223
 10
-24.3141096501
 20
12.2576137387
 10
-23.8076632762
 20
12.0034194995
 10
-23.3332543192
 20
11.6825548666
 10
-22.9005403775
 20
11.3015517184
 10
-22.5183302591
 20
10.8681661805
 10
-22.1944046598
 20
10.3912207326
 10
-21.9353577707
 20
9.8804246085
 10
-21.7464630393
 20
9.3461761444
 10
-21.6315658178
 20
8.7993510984
 10
-21.5930050821
 20
8.2510812514
  0
LINE
  5
357
330
301
100
AcDbEntity
  8
0
  6
Continuous
 62
     7
370
    25
100
AcDbLine
 10
-44.6259121238
 20
30.8020381986
 30
0.0
 11
-55.5860672297
 21
21.1360899514
 31
0.0
  0
LINE
  5
358
330
301
100
AcDbEntity
  8
0
  6
Continuous
 62
     7
370
    25
100
AcDbLine
 10
41.0903782187
 20
-33.9200860202
 30
0.0
 11
44.6259121238
 21
-30.8020381986
 31
0.0
  0
LINE
  5
359
330
301
100
AcDbEntity
  8
0
  6
Continuous
 62
     7
370
    25
100
AcDbLine
 10
24.5855900696
 20
-5.6590098181
 30
0.0
 11
33.9397335369
 21
-6.8375211195
 31
0.0
  0
LINE
  5
35A
330
301
100
AcDbEntity
  8
0
  6
Continuous
 62
     7
370
    25
100
AcDbLine
 10
24.5855900696
 20
11.3115529309
 30
0.0
 11
24.5855900696
 21
-5.6590098181
 31
0.0
  0
LINE
  5
35B
330
301
100
AcDbEntity
  8
0
  6
Continuous
 62
     7
370
    25
100
AcDbLine
 10
33.0043191902
 20
10.2508927596
 30
0.0
 11
24.5855900696
 21
11.3115529309
 31
0.0
  0
LINE
  5
35C
330
301
100
AcDbEntity
  8
0
  6
Continuous
 62
     7
370
    25
100
AcDbLine
 10
33.9397335369
 20
-6.8375211195
 30
0.0
 11
33.9397335369
 21
9.1902325878
 31
0.0
  0
LINE
  5
35D
330
301
100
AcDbEntity
  8
0
  6
Continuous
 62
     7
370
    25
100
AcDbLine
 10
33.0043191902
 20
10.2508927596
 30
0.0
 11
43.964474296
 21
19.9168410068
 31
0.0
  0
LINE
  5
35E
330
301
100
AcDbEntity
  8
0
  6
Continuous
 62
     7
370
    25
100
AcDbLine
 10
44.8998886428
 20
18.856180835
 30
0.0
 11
33.9397335369
 21
9.1902325878
 31
0.0
  0
LINE
  5
35F
330
301
100
AcDbEntity
  8
0
  6
Continuous
 62
     7
370
    25
100
AcDbLine
 10
33.9397335369
 20
-6.8375211195
 30
0.0
 11
41.3643547376
 21
-0.289620694
 31
0.0
  0
LINE
  5
360
330
301
100
AcDbEntity
  8
0
  6
Continuous
 62
     7
370
    25
100
AcDbLine
 10
44.8998886428
 20
18.856180835
 30
0.0
 11
44.8998886428
 21
4.6197643067
 31
0.0
  0
LINE
  5
361
330
301
100
AcDbEntity
  8
0
  6
Continuous
 62
     7
370
    25
100
AcDbLine
 10
46.3141022048
 20
5.8669834354
 30
0.0
 11
44.8998886428
 21
4.6197643067
 31
0.0
  0
LINE
  5
362
330
301
100
AcDbEntity
  8
0
  6
Continuous
 62
     7
370
    25
100
AcDbLine
 10
46.3141022048
 20
5.8669834354
 30
0.0
 11
46.3141022048
 21
-1.4869270892
 31
0.0
  0
LINE
  5
363
330
301
100
AcDbEntity
  8
0
  6
Continuous
 62
     7
370
    25
100
AcDbLine
 10
46.3141022048
 20
-1.4869270892
 30
0.0
 11
44.8998886428
 21
-2.7341462179
 31
0.0
  0
LINE
  5
364
330
301
100
AcDbEntity
  8
0
  6
Continuous
 62
     7
370
    25
100
AcDbLine
 10
44.8998886428
 20
-2.7341462179
 30
0.0
 11
44.8998886428
 21
-30.1698893287
 31
0.0
  0
LINE
  5
365
330
301
100
AcDbEntity
  8
0
  6
Continuous
 62
     7
370
    25
100
AcDbLine
 10
41.3643547376
 20
-33.2879371504
 30
0.0
 11
44.8998886428
 21
-30.1698893287
 31
0.0
  0
LINE
  5
366
330
301
100
AcDbEntity
  8
0
  6
Continuous
 62
     7
370
    25
100
AcDbLine
 10
41.3643547376
 20
-0.289620694
 30
0.0
 11
41.3643547376
 21
-33.2879371504
 31
0.0
  0
LINE
  5
367
330
301
100
AcDbEntity
  8
0
  6
Continuous
 62
     7
370
    25
100
AcDbLine
 10
24.5855900696
 20
11.3115529309
 30
0.0
 11
32.0102112704
 21
17.8594533564
 31
0.0
  0
LINE
  5
368
330
301
100
AcDbEntity
  8
0
  6
Continuous
 62
     7
370
    25
100
AcDbLine
 10
3.9477808687
 20
21.3949872607
 30
0.0
 11
32.0102112704
 21
17.8594533564
 31
0.0
  0
LINE
  5
369
330
301
100
AcDbEntity
  8
0
  6
Continuous
 62
     7
370
    25
100
AcDbLine
 10
-3.4768403321
 20
14.8470868351
 30
0.0
 11
3.9477808687
 21
21.3949872607
 31
0.0
  0
LINE
  5
36A
330
301
100
AcDbEntity
  8
0
  6
Continuous
 62
     7
370
    25
100
AcDbLine
 10
-18.4434698797
 20
16.7327049174
 30
0.0
 11
-3.4768403321
 21
14.8470868351
 31
0.0
  0
LINE
  5
36B
330
301
100
AcDbEntity
  8
0
  6
Continuous
 62
     7
370
    25
100
AcDbLine
 10
-18.4434698797
 20
16.7327049174
 30
0.0
 11
-11.0188486789
 21
23.2806053429
 31
0.0
  0
LINE
  5
36C
330
301
100
AcDbEntity
  8
0
  6
Continuous
 62
     7
370
    25
100
AcDbLine
 10
-39.0812790806
 20
26.8161392472
 30
0.0
 11
-11.0188486789
 21
23.2806053429
 31
0.0
  0
LINE
  5
36D
330
301
100
AcDbEntity
  8
0
  6
Continuous
 62
     7
370
    25
100
AcDbLine
 10
-46.5059002814
 20
20.2682388217
 30
0.0
 11
-39.0812790806
 21
26.8161392472
 31
0.0
  0
LINE
  5
36E
330
301
100
AcDbEntity
  8
0
  6
Continuous
 62
     7
370
    25
100
AcDbLine
 10
-54.9246294019
 20
21.328898993
 30
0.0
 11
-46.5059002814
 21
20.2682388217
 31
0.0
  0
LINE
  5
36F
330
301
100
AcDbEntity
  8
0
  6
Continuous
 62
     7
370
    25
100
AcDbLine
 10
-43.964474296
 20
30.9948472402
 30
0.0
 11
-54.9246294019
 21
21.328898993
 31
0.0
  0
LINE
  5
370
330
301
100
AcDbEntity
  8
0
  6
Continuous
 62
     7
370
    25
100
AcDbLine
 10
-43.964474296
 20
30.9948472402
 30
0.0
 11
43.964474296
 21
19.9168410068
 31
0.0
  0
LINE
  5
371
330
301
100
AcDbEntity
  8
0
  6
Continuous
 62
     7
370
    25
100
AcDbLine
 10
-3.4768403321
 20
10.6044461479
 30
0.0
 11
3.9477808687
 21
17.1523465734
 31
0.0
  0
LINE
  5
372
330
301
100
AcDbEntity
  8
0
  6
Continuous
 62
     7
370
    25
100
AcDbLine
 10
-3.4768403321
 20
14.8470868351
 30
0.0
 11
-3.4768403321
 21
10.6044461479
 31
0.0
  0
LINE
  5
373
330
301
100
AcDbEntity
  8
0
  6
Continuous
 62
     7
370
    25
100
AcDbLine
 10
3.9477808687
 20
21.3949872607
 30
0.0
 11
3.9477808687
 21
17.1523465734
 31
0.0
  0
LINE
  5
374
330
301
100
AcDbEntity
  8
0
  6
Continuous
 62
     7
370
    25
100
AcDbLine
 10
-18.4434698797
 20
12.4900642302
 30
0.0
 11
-3.4768403321
 21
10.6044461479
 31
0.0
  0
LINE
  5
375
330
301
100
AcDbEntity
  8
0
  6
Continuous
 62
     7
370
    25
100
AcDbLine
 10
-18.4434698797
 20
16.7327049174
 30
0.0
 11
-18.4434698797
 21
12.4900642302
 31
0.0
  0
LINE
  5
376
330
301
100
AcDbEntity
  8
0
  6
Continuous
 62
     7
370
    25
100
AcDbLine
 10
-2.6001195584
 20
-28.6917430753
 30
0.0
 11
40.4289403909
 21
-34.1128950619
 31
0.0
  0
LINE
  5
377
330
301
100
AcDbEntity
  8
0
  6
Continuous
 62
     7
370
    25
100
AcDbLine
 10
-3.5355339051
 20
-27.6310829035
 30
0.0
 11
-3.5355339051
 21
-16.3173744042
 31
0.0
  0
LINE
  5
378
330
301
100
AcDbEntity
  8
0
  6
Continuous
 62
     7
370
    25
100
AcDbLine
 10
-47.5000082012
 20
-8.8927532043
 30
0.0
 11
-5.4063625986
 21
-14.1960540607
 31
0.0
  0
LINE
  5
379
330
301
100
AcDbEntity
  8
0
  6
Continuous
 62
     7
370
    25
100
AcDbLine
 10
-48.4354225479
 20
3.5407730281
 30
0.0
 11
-48.4354225479
 21
-7.8320930325
 31
0.0
  0
LINE
  5
37A
330
301
100
AcDbEntity
  8
0
  6
Continuous
 62
     7
370
    25
100
AcDbLine
 10
-39.0812790806
 20
26.8161392472
 30
0.0
 11
-39.0812790806
 21
9.8455764982
 31
0.0
  0
LINE
  5
37B
330
301
100
AcDbEntity
  8
0
  6
Continuous
 62
     7
370
    25
100
AcDbLine
 10
-46.5059002814
 20
3.2976760727
 30
0.0
 11
-39.0812790806
 21
9.8455764982
 31
0.0
  0
LINE
  5
37C
330
301
100
AcDbEntity
  8
0
  6
Continuous
 62
     7
370
    25
100
AcDbLine
 10
-46.5059002814
 20
20.2682388217
 30
0.0
 11
-46.5059002814
 21
3.2976760727
 31
0.0
  0
LINE
  5
37D
330
301
100
AcDbEntity
  8
0
  6
Continuous
 62
     7
370
    25
100
AcDbLine
 10
-55.8600437486
 20
4.4761873742
 30
0.0
 11
-46.5059002814
 21
3.2976760727
 31
0.0
  0
LINE
  5
37E
330
301
100
AcDbEntity
  8
0
  6
Continuous
 62
     7
370
    25
100
AcDbLine
 10
-55.8600437486
 20
20.5039410815
 30
0.0
 11
-55.8600437486
 21
4.4761873742
 31
0.0
  0
LINE
  5
37F
330
301
100
AcDbEntity
  8
0
  6
Continuous
 62
     7
370
    25
100
AcDbLine
 10
44.8998886428
 20
6.0451575965
 30
0.0
 11
46.3141022048
 21
5.8669834354
 31
0.0
  0
LINE
  5
380
330
301
100
AcDbEntity
  8
0
  6
Continuous
 62
     7
370
    25
100
AcDbLine
 10
24.5855900696
 20
1.1216883494
 30
0.0
 11
23.2992851294
 21
-0.012725978
 31
0.0
  0
LINE
  5
381
330
301
100
AcDbEntity
  8
0
  6
Continuous
 62
     7
370
    25
100
AcDbLine
 10
0.3927256766
 20
4.2986225344
 30
0.0
 11
-1.0214878854
 21
3.0514034057
 31
0.0
  0
LINE
  5
382
330
301
100
AcDbEntity
  8
0
  6
Continuous
 62
     7
370
    25
100
AcDbLine
 10
2.5526646874
 20
4.0615619238
 30
0.0
 11
2.4357014475
 21
4.041231781
 31
0.0
  0
LINE
  5
383
330
301
100
AcDbEntity
  8
0
  6
Continuous
 62
     7
370
    25
100
AcDbLine
 10
1.0214878854
 20
2.7940126523
 30
0.0
 11
2.4357014475
 21
4.041231781
 31
0.0
  0
LINE
  5
384
330
301
100
AcDbEntity
  8
0
  6
Continuous
 62
     7
370
    25
100
AcDbLine
 10
-23.9280473382
 20
7.3627519181
 30
0.0
 11
-25.3422609003
 21
6.1155327894
 31
0.0
  0
LINE
  5
385
330
301
100
AcDbEntity
  8
0
  6
Continuous
 62
     7
370
    25
100
AcDbLine
 10
-21.7681083275
 20
7.1256913075
 30
0.0
 11
-21.8850715674
 21
7.1053611647
 31
0.0
  0
LINE
  5
386
330
301
100
AcDbEntity
  8
0
  6
Continuous
 62
     7
370
    25
100
AcDbLine
 10
-23.2992851294
 20
5.858142036
 30
0.0
 11
-21.8850715674
 21
7.1053611647
 31
0.0
  0
ARC
  5
387
330
301
100
AcDbEntity
  8
0
  6
Continuous
 62
     7
370
    25
100
AcDbCircle
 10
32.8478079002
 20
9.1700537345
 30
0.0
 40
1.092112073957696
100
AcDbArc
 50
1.0587090425
 51
81.7605351794
  0
ARC
  5
388
330
301
100
AcDbEntity
  8
0
  6
Continuous
 62
     7
370
    25
100
AcDbCircle
 10
43.8079630061
 20
18.8360019817
 30
0.0
 40
1.092112073957719
100
AcDbArc
 50
1.0587090425
 51
81.7605351794
  0
ARC
  5
389
330
301
100
AcDbEntity
  8
0
  6
Continuous
 62
     7
370
    25
100
AcDbCircle
 10
40.5506713942
 20
-33.3081160038
 30
0.0
 40
0.8139335166446376
100
AcDbArc
 50
261.3986348259
 51
1.4206093965
  0
ARC
  5
38A
330
301
100
AcDbEntity
  8
0
  6
Continuous
 62
     7
370
    25
100
AcDbCircle
 10
-2.4436082685
 20
-27.6109040502
 30
0.0
 40
1.0921120739577
100
AcDbArc
 50
181.0587090425
 51
261.7605351794
  0
ARC
  5
38B
330
301
100
AcDbEntity
  8
0
  6
Continuous
 62
     7
370
    25
100
AcDbCircle
 10
-5.7193851784
 20
-16.3577321109
 30
0.0
 40
2.184224147915402
100
AcDbArc
 50
1.0587090425
 51
81.7605351794
  0
ARC
  5
38C
330
301
100
AcDbEntity
  8
0
  6
Continuous
 62
     7
370
    25
100
AcDbCircle
 10
-47.3434969112
 20
-7.8119141792
 30
0.0
 40
1.092112073957704
100
AcDbArc
 50
181.0587090425
 51
261.7605351794
  0
ARC
  5
38D
330
301
100
AcDbEntity
  8
0
  6
Continuous
 62
     7
370
    25
100
AcDbCircle
 10
-4.9927984043
 20
2.215844838
 30
0.0
 40
9.878123317609857
100
AcDbArc
 50
1.1897814968
 51
73.7806079045
  0
ARC
  5
38E
330
301
100
AcDbEntity
  8
0
  6
Continuous
 62
     7
370
    25
100
AcDbCircle
 10
-55.0463604052
 20
20.5241199349
 30
0.0
 40
0.8139335166446509
100
AcDbArc
 50
81.3986348259
 51
181.4206093965
  0
ARC
  5
38F
330
301
100
AcDbEntity
  8
0
  6
Continuous
 62
     7
370
    25
100
AcDbCircle
 10
-44.0827673077
 20
30.1697085992
 30
0.0
 40
0.8335748397240346
100
AcDbArc
 50
81.8415869733
 51
130.6612067915
  0
ARC
  5
390
330
301
100
AcDbEntity
  8
0
  6
Continuous
 62
     7
370
    25
100
AcDbCircle
 10
26.266970646
 20
5.2458384375
 30
0.0
 40
4.299101994628694
100
AcDbArc
 50
164.6283534829
 51
246.9770121915
  0
ARC
  5
391
330
301
100
AcDbEntity
  8
0
  6
Continuous
 62
     7
370
    25
100
AcDbCircle
 10
24.8165843218
 20
3.6629336543
 30
0.0
 40
3.976514877614834
100
AcDbArc
 50
247.5693393319
 51
266.6698350573
  0
ARC
  5
392
330
301
100
AcDbEntity
  8
0
  6
Continuous
 62
     7
370
    25
100
AcDbCircle
 10
44.0664351509
 20
-30.1841122077
 30
0.0
 40
0.833574839732594
100
AcDbArc
 50
312.158037431
 51
0.9776572489
  0
ARC
  5
393
330
301
100
AcDbEntity
  8
0
  6
Continuous
 62
     7
370
    25
100
AcDbCircle
 10
1.9498860264
 20
8.3096990623
 30
0.0
 40
4.302729746100741
100
AcDbArc
 50
164.6379220872
 51
248.7830374744
  0
ARC
  5
394
330
301
100
AcDbEntity
  8
0
  6
Continuous
 62
     7
370
    25
100
AcDbCircle
 10
0.4632528191
 20
6.5996632912
 30
0.0
 40
3.846375329448658
100
AcDbArc
 50
247.2935213628
 51
278.3449670814
  0
ARC
  5
395
330
301
100
AcDbEntity
  8
0
  6
Continuous
 62
     7
370
    25
100
AcDbCircle
 10
-22.3708869885
 20
11.373828446
 30
0.0
 40
4.302729746100745
100
AcDbArc
 50
164.6379220872
 51
248.7830374744
  0
ARC
  5
396
330
301
100
AcDbEntity
  8
0
  6
Continuous
 62
     7
370
    25
100
AcDbCircle
 10
-23.8575201957
 20
9.6637926749
 30
0.0
 40
3.846375329448684
100
AcDbArc
 50
247.2935213628
 51
278.3449670814
  0
VIEWPORT
  5
3A7
330
301
100
AcDbEntity
  8
0
100
AcDbViewport
 10
0.0
 20
0.0
 30
0.0
 40
205.6
 41
156.0
 68
     1
 69
     1
 12
15.6122542373
 22
1.314385259
 13
0.0
 23
0.0
 14
10.0
 24
10.0
 15
10.0
 25
10.0
 16
0.0
 26
0.0
 36
1.0
 17
0.0
 27
0.0
 37
0.0
 42
50.0
 43
0.0
 44
0.0
 45
112.7903894225
 50
0.0
 51
0.0
 72
   100
 90
   557152
  1

281
     0
 71
     1
 74
     0
110
0.0
120
0.0
130
0.0
111
1.0
121
0.0
131
0.0
112
0.0
122
1.0
132
0.0
 79
     0
146
0.0
  0
MTEXT
  5
3B3
330
301
100
AcDbEntity
  8
0
  6
Continuous
 62
     7
100
AcDbMText
 10
-57.0939435277
 20
-35.1416159121
 30
0.0
 40
4.83362
 41
0.0
 71
     1
 72
     1
  1
Produit d'éducation SOLIDWORKS – A titre éducatif uniquement.
  7
SLDTEXTSTYLE0
 73
     1
 44
1.0
  0
ENDBLK
  5
304
330
301
100
AcDbEntity
  8
0
100
AcDbBlockEnd
  0
ENDSEC
  0
SECTION
  2
ENTITIES
  0
LINE
  5
73
330
1F
100
AcDbEntity
  8
0
  6
CENTERX2
 62
     7
100
AcDbLine
 10
-57.2563482805
 20
7.0
 30
0.0
 11
57.5898804064
 21
7.0
 31
0.0
  0
LINE
  5
74
330
1F
100
AcDbEntity
  8
0
  6
CENTERX2
 62
     7
100
AcDbLine
 10
0.0
 20
29.628770518
 30
0.0
 11
0.0
 21
2.390313569
 31
0.0
  0
POINT
  5
75
330
1F
100
AcDbEntity
  8
0
  6
Continuous
 62
     7
100
AcDbPoint
 10
0.0
 20
7.0
 30
0.0
  0
POINT
  5
76
330
1F
100
AcDbEntity
  8
0
  6
Continuous
 62
     7
100
AcDbPoint
 10
88.480856755
 20
-20.8306389884
 30
0.0
  0
POINT
  5
77
330
1F
100
AcDbEntity
  8
0
  6
Continuous
 62
     7
100
AcDbPoint
 10
26.0
 20
7.0
 30
0.0
  0
POINT
  5
78
330
1F
100
AcDbEntity
  8
0
  6
Continuous
 62
     7
100
AcDbPoint
 10
-26.0
 20
7.0
 30
0.0
  0
CIRCLE
  5
8A
330
1F
100
AcDbEntity
  8
0
  6
Continuous
 62
     7
370
    25
100
AcDbCircle
 10
26.0
 20
7.0
 30
0.0
 40
8.99999999999999
  0
CIRCLE
  5
8B
330
1F
100
AcDbEntity
  8
0
  6
Continuous
 62
     7
370
    25
100
AcDbCircle
 10
-26.0
 20
7.0
 30
0.0
 40
8.999999999999996
  0
CIRCLE
  5
8E
330
1F
100
AcDbEntity
  8
0
  6
Continuous
 62
     7
370
    25
100
AcDbCircle
 10
0.0
 20
7.0
 30
0.0
 40
8.999999999999998
  0
CIRCLE
  5
95
330
1F
100
AcDbEntity
  8
0
  6
Continuous
 62
     7
370
    25
100
AcDbCircle
 10
26.0
 20
7.0
 30
0.0
 40
4.050000000000004
  0
CIRCLE
  5
96
330
1F
100
AcDbEntity
  8
0
  6
Continuous
 62
     7
370
    25
100
AcDbCircle
 10
0.0
 20
7.0
 30
0.0
 40
4.05
  0
CIRCLE
  5
97
330
1F
100
AcDbEntity
  8
0
  6
Continuous
 62
     7
370
    25
100
AcDbCircle
 10
-26.0
 20
7.0
 30
0.0
 40
4.050000000000004
  0
LINE
  5
98
330
1F
100
AcDbEntity
  8
0
  6
Continuous
 62
     7
370
    25
100
AcDbLine
 10
38.0
 20
27.0
 30
0.0
 11
38.0
 21
9.0
 31
0.0
  0
LINE
  5
99
330
1F
100
AcDbEntity
  8
0
  6
Continuous
 62
     7
370
    25
100
AcDbLine
 10
48.0
 20
26.0
 30
0.0
 11
48.0
 21
-26.0
 31
0.0
  0
LINE
  5
9A
330
1F
100
AcDbEntity
  8
0
  6
Continuous
 62
     7
370
    25
100
AcDbLine
 10
38.0
 20
9.0
 30
0.0
 11
48.0
 21
9.0
 31
0.0
  0
LINE
  5
9B
330
1F
100
AcDbEntity
  8
0
  6
Continuous
 62
     7
370
    25
100
AcDbLine
 10
-38.0
 20
27.0
 30
0.0
 11
-38.0
 21
9.0
 31
0.0
  0
LINE
  5
9C
330
1F
100
AcDbEntity
  8
0
  6
Continuous
 62
     7
370
    25
100
AcDbLine
 10
-48.0
 20
9.0
 30
0.0
 11
-38.0
 21
9.0
 31
0.0
  0
LINE
  5
9D
330
1F
100
AcDbEntity
  8
0
  6
Continuous
 62
     7
370
    25
100
AcDbLine
 10
-48.0
 20
26.0
 30
0.0
 11
-48.0
 21
-11.0
 31
0.0
  0
LINE
  5
9E
330
1F
100
AcDbEntity
  8
0
  6
Continuous
 62
     7
370
    25
100
AcDbLine
 10
-8.0
 20
22.5
 30
0.0
 11
8.0
 21
22.5
 31
0.0
  0
LINE
  5
9F
330
1F
100
AcDbEntity
  8
0
  6
Continuous
 62
     7
370
    25
100
AcDbLine
 10
-8.0
 20
27.0
 30
0.0
 11
-8.0
 21
22.5
 31
0.0
  0
LINE
  5
A0
330
1F
100
AcDbEntity
  8
0
  6
Continuous
 62
     7
370
    25
100
AcDbLine
 10
8.0
 20
27.0
 30
0.0
 11
8.0
 21
22.5
 31
0.0
  0
LINE
  5
A1
330
1F
100
AcDbEntity
  8
0
  6
Continuous
 62
     7
370
    25
100
AcDbLine
 10
-47.0
 20
27.0
 30
0.0
 11
47.0
 21
27.0
 31
0.0
  0
LINE
  5
A2
330
1F
100
AcDbEntity
  8
0
  6
Continuous
 62
     7
370
    25
100
AcDbLine
 10
0.0
 20
-26.0
 30
0.0
 11
0.0
 21
-14.0
 31
0.0
  0
LINE
  5
A3
330
1F
100
AcDbEntity
  8
0
  6
Continuous
 62
     7
370
    25
100
AcDbLine
 10
-47.0
 20
-12.0
 30
0.0
 11
-2.0
 21
-12.0
 31
0.0
  0
LINE
  5
A4
330
1F
100
AcDbEntity
  8
0
  6
Continuous
 62
     7
370
    25
100
AcDbLine
 10
1.0
 20
-27.0
 30
0.0
 11
47.0
 21
-27.0
 31
0.0
  0
ARC
  5
A5
330
1F
100
AcDbEntity
  8
0
  6
Continuous
 62
     7
370
    25
100
AcDbCircle
 10
47.0
 20
26.0
 30
0.0
 40
1.000000000000004
100
AcDbArc
 50
0.0
 51
90.0
  0
ARC
  5
A6
330
1F
100
AcDbEntity
  8
0
  6
Continuous
 62
     7
370
    25
100
AcDbCircle
 10
-47.0
 20
26.0
 30
0.0
 40
1.0
100
AcDbArc
 50
90.0
 51
180.0
  0
ARC
  5
A7
330
1F
100
AcDbEntity
  8
0
  6
Continuous
 62
     7
370
    25
100
AcDbCircle
 10
1.0
 20
-26.0
 30
0.0
 40
1.000000000000004
100
AcDbArc
 50
180.0
 51
270.0
  0
ARC
  5
A8
330
1F
100
AcDbEntity
  8
0
  6
Continuous
 62
     7
370
    25
100
AcDbCircle
 10
-2.0
 20
-14.0
 30
0.0
 40
2.000000000000005
100
AcDbArc
 50
0.0
 51
90.0
  0
ARC
  5
A9
330
1F
100
AcDbEntity
  8
0
  6
Continuous
 62
     7
370
    25
100
AcDbCircle
 10
-47.0
 20
-11.0
 30
0.0
 40
1.0
100
AcDbArc
 50
180.0
 51
270.0
  0
ARC
  5
AA
330
1F
100
AcDbEntity
  8
0
  6
Continuous
 62
     7
370
    25
100
AcDbCircle
 10
47.0
 20
-26.0
 30
0.0
 40
1.0
100
AcDbArc
 50
270.0
 51
0.0
  0
MTEXT
  5
3AB
330
1F
100
AcDbEntity
  8
0
  6
Continuous
 62
     7
100
AcDbMText
 10
-57.2563482805
 20
-28.0195663917
 30
0.0
 40
4.83362
 41
0.0
 71
     1
 72
     1
  1
Produit d'éducation SOLIDWORKS – A titre éducatif uniquement.
  7
SLDTEXTSTYLE0
 73
     1
 44
1.0
  0
CIRCLE
  5
B7
330
1B
100
AcDbEntity
 67
     1
  8
0
  6
Continuous
 62
     7
370
    25
100
AcDbCircle
 10
0.0
 20
-25.0
 30
0.0
 40
2.5
  0
LINE
  5
CA
330
1B
100
AcDbEntity
 67
     1
  8
0
  6
Continuous
 62
     7
370
    25
100
AcDbLine
 10
47.0
 20
-31.0
 30
0.0
 11
47.0
 21
0.0
 31
0.0
  0
LINE
  5
CB
330
1B
100
AcDbEntity
 67
     1
  8
0
  6
Continuous
 62
     7
370
    25
100
AcDbLine
 10
48.0
 20
-31.0
 30
0.0
 11
38.0
 21
-31.0
 31
0.0
  0
LINE
  5
CC
330
1B
100
AcDbEntity
 67
     1
  8
0
  6
Continuous
 62
     7
370
    25
100
AcDbLine
 10
38.0
 20
-31.0
 30
0.0
 11
38.0
 21
-10.0
 31
0.0
  0
LINE
  5
CD
330
1B
100
AcDbEntity
 67
     1
  8
0
  6
Continuous
 62
     7
370
    25
100
AcDbLine
 10
8.0
 20
-10.0
 30
0.0
 11
38.0
 21
-10.0
 31
0.0
  0
LINE
  5
CE
330
1B
100
AcDbEntity
 67
     1
  8
0
  6
Continuous
 62
     7
370
    25
100
AcDbLine
 10
8.0
 20
-31.0
 30
0.0
 11
8.0
 21
-10.0
 31
0.0
  0
LINE
  5
CF
330
1B
100
AcDbEntity
 67
     1
  8
0
  6
Continuous
 62
     7
370
    25
100
AcDbLine
 10
-8.0
 20
-31.0
 30
0.0
 11
8.0
 21
-31.0
 31
0.0
  0
LINE
  5
D0
330
1B
100
AcDbEntity
 67
     1
  8
0
  6
Continuous
 62
     7
370
    25
100
AcDbLine
 10
-8.0
 20
-31.0
 30
0.0
 11
-8.0
 21
-10.0
 31
0.0
  0
LINE
  5
D1
330
1B
100
AcDbEntity
 67
     1
  8
0
  6
Continuous
 62
     7
370
    25
100
AcDbLine
 10
-38.0
 20
-10.0
 30
0.0
 11
-8.0
 21
-10.0
 31
0.0
  0
LINE
  5
D2
330
1B
100
AcDbEntity
 67
     1
  8
0
  6
Continuous
 62
     7
370
    25
100
AcDbLine
 10
-38.0
 20
-31.0
 30
0.0
 11
-38.0
 21
-10.0
 31
0.0
  0
LINE
  5
D3
330
1B
100
AcDbEntity
 67
     1
  8
0
  6
Continuous
 62
     7
370
    25
100
AcDbLine
 10
-48.0
 20
-31.0
 30
0.0
 11
-38.0
 21
-31.0
 31
0.0
  0
LINE
  5
D4
330
1B
100
AcDbEntity
 67
     1
  8
0
  6
Continuous
 62
     7
370
    25
100
AcDbLine
 10
-47.0
 20
0.0
 30
0.0
 11
-47.0
 21
-31.0
 31
0.0
  0
LINE
  5
D5
330
1B
100
AcDbEntity
 67
     1
  8
0
  6
Continuous
 62
     7
370
    25
100
AcDbLine
 10
-48.0
 20
0.0
 30
0.0
 11
48.0
 21
0.0
 31
0.0
  0
LINE
  5
D6
330
1B
100
AcDbEntity
 67
     1
  8
0
  6
Continuous
 62
     7
370
    25
100
AcDbLine
 10
48.0
 20
4.0
 30
0.0
 11
48.0
 21
-31.0
 31
0.0
  0
LINE
  5
D7
330
1B
100
AcDbEntity
 67
     1
  8
0
  6
Continuous
 62
     7
370
    25
100
AcDbLine
 10
-48.0
 20
-31.0
 30
0.0
 11
-48.0
 21
4.0
 31
0.0
  0
LINE
  5
D8
330
1B
100
AcDbEntity
 67
     1
  8
0
  6
Continuous
 62
     7
370
    25
100
AcDbLine
 10
1.0920164834
 20
4.0
 30
0.0
 11
1.0920164834
 21
0.0
 31
0.0
  0
LINE
  5
D9
330
1B
100
AcDbEntity
 67
     1
  8
0
  6
Continuous
 62
     7
370
    25
100
AcDbLine
 10
-1.0920164834
 20
0.0
 30
0.0
 11
-1.0920164834
 21
4.0
 31
0.0
  0
LINE
  5
DA
330
1B
100
AcDbEntity
 67
     1
  8
0
  6
Continuous
 62
     7
370
    25
100
AcDbLine
 10
-24.9079835166
 20
4.0
 30
0.0
 11
-24.9079835166
 21
0.0
 31
0.0
  0
LINE
  5
DB
330
1B
100
AcDbEntity
 67
     1
  8
0
  6
Continuous
 62
     7
370
    25
100
AcDbLine
 10
-27.0920164834
 20
0.0
 30
0.0
 11
-27.0920164834
 21
4.0
 31
0.0
  0
LINE
  5
DC
330
1B
100
AcDbEntity
 67
     1
  8
0
  6
Continuous
 62
     7
370
    25
100
AcDbLine
 10
27.0920164834
 20
4.0
 30
0.0
 11
27.0920164834
 21
0.0
 31
0.0
  0
LINE
  5
DD
330
1B
100
AcDbEntity
 67
     1
  8
0
  6
Continuous
 62
     7
370
    25
100
AcDbLine
 10
24.9079835166
 20
0.0
 30
0.0
 11
24.9079835166
 21
4.0
 31
0.0
  0
LINE
  5
DE
330
1B
100
AcDbEntity
 67
     1
  8
0
  6
Continuous
 62
     7
370
    25
100
AcDbLine
 10
1.0920164834
 20
4.0
 30
0.0
 11
24.9079835166
 21
4.0
 31
0.0
  0
LINE
  5
DF
330
1B
100
AcDbEntity
 67
     1
  8
0
  6
Continuous
 62
     7
370
    25
100
AcDbLine
 10
27.0920164834
 20
4.0
 30
0.0
 11
48.0
 21
4.0
 31
0.0
  0
LINE
  5
E0
330
1B
100
AcDbEntity
 67
     1
  8
0
  6
Continuous
 62
     7
370
    25
100
AcDbLine
 10
-48.0
 20
4.0
 30
0.0
 11
-27.0920164834
 21
4.0
 31
0.0
  0
LINE
  5
E1
330
1B
100
AcDbEntity
 67
     1
  8
0
  6
Continuous
 62
     7
370
    25
100
AcDbLine
 10
-24.9079835166
 20
4.0
 30
0.0
 11
-1.0920164834
 21
4.0
 31
0.0
  0
VIEWPORT
  5
397
330
1B
100
AcDbEntity
 67
     1
  8
0
100
AcDbViewport
 10
0.0
 20
0.0
 30
0.0
 40
205.6
 41
156.0
 68
     1
 69
     1
 12
15.6122542373
 22
1.314385259
 13
0.0
 23
0.0
 14
10.0
 24
10.0
 15
10.0
 25
10.0
 16
0.0
 26
0.0
 36
1.0
 17
0.0
 27
0.0
 37
0.0
 42
50.0
 43
0.0
 44
0.0
 45
112.7903894225
 50
0.0
 51
0.0
 72
   100
 90
   557152
  1

281
     0
 71
     1
 74
     0
110
0.0
120
0.0
130
0.0
111
1.0
121
0.0
131
0.0
112
0.0
122
1.0
132
0.0
 79
     0
146
0.0
  0
MTEXT
  5
3AA
330
1B
100
AcDbEntity
 67
     1
  8
0
  6
Continuous
 62
     7
100
AcDbMText
 10
-48.0
 20
-32.0195663917
 30
0.0
 40
4.83362
 41
0.0
 71
     1
 72
     1
  1
Produit d'éducation SOLIDWORKS – A titre éducatif uniquement.
  7
SLDTEXTSTYLE0
 73
     1
 44
1.0
  0
ENDSEC
  0
SECTION
  2
OBJECTS
  0
DICTIONARY
  5
C
330
0
100
AcDbDictionary
281
     1
  3
ACAD_GROUP
350
D
  3
ACAD_LAYOUT
350
1A
  3
ACAD_MLINESTYLE
350
17
  3
ACAD_PLOTSETTINGS
350
19
  3
ACAD_PLOTSTYLENAME
350
E
  3
ACAD_SCALELIST
350
47
  3
DWGPROPS
350
3B4
  0
DICTIONARY
  5
D
102
{ACAD_REACTORS
330
C
102
}
330
C
100
AcDbDictionary
281
     1
  0
DICTIONARY
  5
1A
102
{ACAD_REACTORS
330
C
102
}
330
C
100
AcDbDictionary
281
     1
  3
_Arrière
350
13C
  3
_Dessous
350
1AE
  3
_Dessus
350
1E
  3
_Dimétrique
350
302
  3
_Droite
350
26
  3
_Gauche
350
181
  3
_Isométrique
350
1F5
  3
_Normal à
350
100
  3
_Trimétrique
350
275
  3
Model
350
22
  0
DICTIONARY
  5
17
102
{ACAD_REACTORS
330
C
102
}
330
C
100
AcDbDictionary
281
     1
  3
Standard
350
18
  0
DICTIONARY
  5
19
102
{ACAD_REACTORS
330
C
102
}
330
C
100
AcDbDictionary
281
     1
  0
ACDBDICTIONARYWDFLT
  5
E
102
{ACAD_REACTORS
330
C
102
}
330
C
100
AcDbDictionary
281
     1
  3
Normal
350
F
100
AcDbDictionaryWithDefault
340
F
  0
DICTIONARY
  5
47
102
{ACAD_REACTORS
330
C
102
}
330
C
100
AcDbDictionary
281
     1
  3
A0
350
48
  3
A1
350
49
  3
A2
350
4A
  3
A3
350
4B
  3
A4
350
4C
  3
A5
350
4D
  3
A6
350
4E
  3
A7
350
4F
  3
A8
350
50
  3
A9
350
51
  3
B0
350
52
  3
B1
350
53
  3
B2
350
54
  3
B3
350
55
  3
B4
350
56
  3
B5
350
57
  3
B6
350
58
  3
B7
350
59
  3
B8
350
5A
  3
B9
350
5B
  3
C0
350
5C
  3
C1
350
5D
  3
C2
350
5E
  3
C3
350
5F
  3
C4
350
60
  3
C5
350
61
  3
C6
350
62
  3
C7
350
63
  3
C8
350
64
  3
C9
350
65
  3
D0
350
66
  3
D1
350
67
  3
D2
350
68
  0
XRECORD
  5
3B4
102
{ACAD_REACTORS
330
C
102
}
330
C
100
AcDbXrecord
280
     1
  1
DWGPROPS COOKIE
  2

  3

  4

  6

  7

  8
Alain BATAILLE
  9

300
=
301
=
302
=
303
=
304
=
305
=
306
=
307
=
308
=
309
=
 40
0.0
 41
2459856.718544942
 42
2459856.718985497
  1

 90
        0
  0
LAYOUT
  5
13C
102
{ACAD_REACTORS
330
1A
102
}
330
1A
100
AcDbPlotSettings
  1

  2
none_device
  4
ISO_A4_(210.00_x_297.00_MM)
  6

 40
7.5
 41
20.0
 42
7.5
 43
20.0
 44
210.0
 45
297.0
 46
0.0
 47
0.0
 48
0.0
 49
0.0
140
0.0
141
0.0
142
1.0
143
0.373540856
 70
   688
 72
     1
 73
     1
 74
     1
  7

 75
     0
147
2.6770833333
148
48.0
149
31.0
100
AcDbLayout
  1
_Arrière
 70
     1
 71
     4
 10
0.0
 20
0.0
 11
0.0
 21
0.0
 12
0.0
 22
0.0
 32
0.0
 14
0.0
 24
0.0
 34
0.0
 15
0.0
 25
0.0
 35
0.0
146
0.0
 13
0.0
 23
0.0
 33
0.0
 16
1.0
 26
0.0
 36
0.0
 17
0.0
 27
1.0
 37
0.0
 76
     0
330
13B
331
39D
  0
LAYOUT
  5
1AE
102
{ACAD_REACTORS
330
1A
102
}
330
1A
100
AcDbPlotSettings
  1

  2
none_device
  4
ISO_A4_(210.00_x_297.00_MM)
  6

 40
7.5
 41
20.0
 42
7.5
 43
20.0
 44
210.0
 45
297.0
 46
0.0
 47
0.0
 48
0.0
 49
0.0
140
0.0
141
0.0
142
1.0
143
0.373540856
 70
   688
 72
     1
 73
     1
 74
     1
  7

 75
     0
147
2.6770833333
148
48.0
149
31.0
100
AcDbLayout
  1
_Dessous
 70
     1
 71
     6
 10
0.0
 20
0.0
 11
0.0
 21
0.0
 12
0.0
 22
0.0
 32
0.0
 14
0.0
 24
0.0
 34
0.0
 15
0.0
 25
0.0
 35
0.0
146
0.0
 13
0.0
 23
0.0
 33
0.0
 16
1.0
 26
0.0
 36
0.0
 17
0.0
 27
1.0
 37
0.0
 76
     0
330
1AD
331
3A1
  0
LAYOUT
  5
1E
102
{ACAD_REACTORS
330
1A
102
}
330
1A
100
AcDbPlotSettings
  1

  2
none_device
  4
ISO_A4_(210.00_x_297.00_MM)
  6

 40
7.5
 41
20.0
 42
7.5
 43
20.0
 44
210.0
 45
297.0
 46
0.0
 47
0.0
 48
0.0
 49
0.0
140
0.0
141
0.0
142
1.0
143
0.373540856
 70
   688
 72
     1
 73
     1
 74
     1
  7

 75
     0
147
2.6770833333
148
48.0
149
31.0
100
AcDbLayout
  1
_Dessus
 70
     1
 71
     1
 10
-55.4708171206
 20
-33.8015564202
 11
55.4708171206
 21
44.6420233463
 12
0.0
 22
0.0
 32
0.0
 14
-48.0
 24
-31.0
 34
0.0
 15
48.0
 25
4.0
 35
0.0
146
0.0
 13
0.0
 23
0.0
 33
0.0
 16
1.0
 26
0.0
 36
0.0
 17
0.0
 27
1.0
 37
0.0
 76
     0
330
1B
331
397
  0
LAYOUT
  5
302
102
{ACAD_REACTORS
330
1A
102
}
330
1A
100
AcDbPlotSettings
  1

  2
none_device
  4
ISO_A4_(210.00_x_297.00_MM)
  6

 40
7.5
 41
20.0
 42
7.5
 43
20.0
 44
210.0
 45
297.0
 46
0.0
 47
0.0
 48
0.0
 49
0.0
140
0.0
141
0.0
142
1.0
143
0.373540856
 70
   688
 72
     1
 73
     1
 74
     1
  7

 75
     0
147
2.6770833333
148
48.0
149
31.0
100
AcDbLayout
  1
_Dimétrique
 70
     1
 71
     9
 10
0.0
 20
0.0
 11
0.0
 21
0.0
 12
0.0
 22
0.0
 32
0.0
 14
0.0
 24
0.0
 34
0.0
 15
0.0
 25
0.0
 35
0.0
146
0.0
 13
0.0
 23
0.0
 33
0.0
 16
1.0
 26
0.0
 36
0.0
 17
0.0
 27
1.0
 37
0.0
 76
     0
330
301
331
3A7
  0
LAYOUT
  5
26
102
{ACAD_REACTORS
330
1A
102
}
330
1A
100
AcDbPlotSettings
  1

  2
none_device
  4
ISO_A4_(210.00_x_297.00_MM)
  6

 40
7.5
 41
20.0
 42
7.5
 43
20.0
 44
210.0
 45
297.0
 46
0.0
 47
0.0
 48
0.0
 49
0.0
140
0.0
141
0.0
142
1.0
143
0.373540856
 70
   688
 72
     1
 73
     1
 74
     1
  7

 75
     0
147
2.6770833333
148
48.0
149
31.0
100
AcDbLayout
  1
_Droite
 70
     1
 71
     2
 10
0.0
 20
0.0
 11
0.0
 21
0.0
 12
0.0
 22
0.0
 32
0.0
 14
0.0
 24
0.0
 34
0.0
 15
0.0
 25
0.0
 35
0.0
146
0.0
 13
0.0
 23
0.0
 33
0.0
 16
1.0
 26
0.0
 36
0.0
 17
0.0
 27
1.0
 37
0.0
 76
     0
330
23
331
399
  0
LAYOUT
  5
181
102
{ACAD_REACTORS
330
1A
102
}
330
1A
100
AcDbPlotSettings
  1

  2
none_device
  4
ISO_A4_(210.00_x_297.00_MM)
  6

 40
7.5
 41
20.0
 42
7.5
 43
20.0
 44
210.0
 45
297.0
 46
0.0
 47
0.0
 48
0.0
 49
0.0
140
0.0
141
0.0
142
1.0
143
0.373540856
 70
   688
 72
     1
 73
     1
 74
     1
  7

 75
     0
147
2.6770833333
148
48.0
149
31.0
100
AcDbLayout
  1
_Gauche
 70
     1
 71
     5
 10
0.0
 20
0.0
 11
0.0
 21
0.0
 12
0.0
 22
0.0
 32
0.0
 14
0.0
 24
0.0
 34
0.0
 15
0.0
 25
0.0
 35
0.0
146
0.0
 13
0.0
 23
0.0
 33
0.0
 16
1.0
 26
0.0
 36
0.0
 17
0.0
 27
1.0
 37
0.0
 76
     0
330
180
331
39F
  0
LAYOUT
  5
1F5
102
{ACAD_REACTORS
330
1A
102
}
330
1A
100
AcDbPlotSettings
  1

  2
none_device
  4
ISO_A4_(210.00_x_297.00_MM)
  6

 40
7.5
 41
20.0
 42
7.5
 43
20.0
 44
210.0
 45
297.0
 46
0.0
 47
0.0
 48
0.0
 49
0.0
140
0.0
141
0.0
142
1.0
143
0.373540856
 70
   688
 72
     1
 73
     1
 74
     1
  7

 75
     0
147
2.6770833333
148
48.0
149
31.0
100
AcDbLayout
  1
_Isométrique
 70
     1
 71
     7
 10
0.0
 20
0.0
 11
0.0
 21
0.0
 12
0.0
 22
0.0
 32
0.0
 14
0.0
 24
0.0
 34
0.0
 15
0.0
 25
0.0
 35
0.0
146
0.0
 13
0.0
 23
0.0
 33
0.0
 16
1.0
 26
0.0
 36
0.0
 17
0.0
 27
1.0
 37
0.0
 76
     0
330
1F4
331
3A3
  0
LAYOUT
  5
100
102
{ACAD_REACTORS
330
1A
102
}
330
1A
100
AcDbPlotSettings
  1

  2
none_device
  4
ISO_A4_(210.00_x_297.00_MM)
  6

 40
7.5
 41
20.0
 42
7.5
 43
20.0
 44
210.0
 45
297.0
 46
0.0
 47
0.0
 48
0.0
 49
0.0
140
0.0
141
0.0
142
1.0
143
0.373540856
 70
   688
 72
     1
 73
     1
 74
     1
  7

 75
     0
147
2.6770833333
148
48.0
149
31.0
100
AcDbLayout
  1
_Normal à
 70
     1
 71
     3
 10
0.0
 20
0.0
 11
0.0
 21
0.0
 12
0.0
 22
0.0
 32
0.0
 14
0.0
 24
0.0
 34
0.0
 15
0.0
 25
0.0
 35
0.0
146
0.0
 13
0.0
 23
0.0
 33
0.0
 16
1.0
 26
0.0
 36
0.0
 17
0.0
 27
1.0
 37
0.0
 76
     0
330
FF
331
39B
  0
LAYOUT
  5
275
102
{ACAD_REACTORS
330
1A
102
}
330
1A
100
AcDbPlotSettings
  1

  2
none_device
  4
ISO_A4_(210.00_x_297.00_MM)
  6

 40
7.5
 41
20.0
 42
7.5
 43
20.0
 44
210.0
 45
297.0
 46
0.0
 47
0.0
 48
0.0
 49
0.0
140
0.0
141
0.0
142
1.0
143
0.373540856
 70
   688
 72
     1
 73
     1
 74
     1
  7

 75
     0
147
2.6770833333
148
48.0
149
31.0
100
AcDbLayout
  1
_Trimétrique
 70
     1
 71
     8
 10
0.0
 20
0.0
 11
0.0
 21
0.0
 12
0.0
 22
0.0
 32
0.0
 14
0.0
 24
0.0
 34
0.0
 15
0.0
 25
0.0
 35
0.0
146
0.0
 13
0.0
 23
0.0
 33
0.0
 16
1.0
 26
0.0
 36
0.0
 17
0.0
 27
1.0
 37
0.0
 76
     0
330
274
331
3A5
  0
LAYOUT
  5
22
102
{ACAD_REACTORS
330
1A
102
}
330
1A
100
AcDbPlotSettings
  1

  2
none_device
  4
ANSI_A_(11.00_x_8.50_Inches)
  6

 40
6.35
 41
19.05
 42
6.35000508
 43
19.05000254
 44
279.4
 45
215.9
 46
103.7182833448
 47
86.4053245055
 48
0.0
 49
0.0
140
0.0
141
0.0
142
0.0747235409
143
1.0
 70
  1696
 72
     0
 73
     0
 74
     0
  7

 75
     0
147
0.0179189148
148
-1300.4909072572
149
0.0
100
AcDbLayout
  1
Model
 70
     1
 71
     0
 10
0.0
 20
0.0
 11
420.0
 21
297.0
 12
0.0
 22
0.0
 32
0.0
 14
-57.2563482805
 24
-27.0
 34
0.0
 15
88.480856755
 25
29.628770518
 35
0.0
146
0.0
 13
0.0
 23
0.0
 33
0.0
 16
1.0
 26
0.0
 36
0.0
 17
0.0
 27
1.0
 37
0.0
 76
     0
330
1F
331
29
  0
MLINESTYLE
  5
18
102
{ACAD_REACTORS
330
17
102
}
330
17
100
AcDbMlineStyle
  2
Standard
 70
     0
  3

 62
   256
 51
90.0
 52
90.0
 71
     2
 49
0.5
 62
   256
  6
BYLAYER
 49
-0.5
 62
   256
  6
BYLAYER
  0
ACDBPLACEHOLDER
  5
F
102
{ACAD_REACTORS
330
E
102
}
330
E
  0
SCALE
  5
48
102
{ACAD_REACTORS
330
47
102
}
330
47
100
AcDbScale
 70
     0
300
1:1
140
1.0
141
1.0
290
     1
  0
SCALE
  5
49
102
{ACAD_REACTORS
330
47
102
}
330
47
100
AcDbScale
 70
     0
300
1:2
140
1.0
141
2.0
290
     0
  0
SCALE
  5
4A
102
{ACAD_REACTORS
330
47
102
}
330
47
100
AcDbScale
 70
     0
300
1:4
140
1.0
141
4.0
290
     0
  0
SCALE
  5
4B
102
{ACAD_REACTORS
330
47
102
}
330
47
100
AcDbScale
 70
     0
300
1:5
140
1.0
141
5.0
290
     0
  0
SCALE
  5
4C
102
{ACAD_REACTORS
330
47
102
}
330
47
100
AcDbScale
 70
     0
300
1:8
140
1.0
141
8.0
290
     0
  0
SCALE
  5
4D
102
{ACAD_REACTORS
330
47
102
}
330
47
100
AcDbScale
 70
     0
300
1:10
140
1.0
141
10.0
290
     0
  0
SCALE
  5
4E
102
{ACAD_REACTORS
330
47
102
}
330
47
100
AcDbScale
 70
     0
300
1:16
140
1.0
141
16.0
290
     0
  0
SCALE
  5
4F
102
{ACAD_REACTORS
330
47
102
}
330
47
100
AcDbScale
 70
     0
300
1:20
140
1.0
141
20.0
290
     0
  0
SCALE
  5
50
102
{ACAD_REACTORS
330
47
102
}
330
47
100
AcDbScale
 70
     0
300
1:30
140
1.0
141
30.0
290
     0
  0
SCALE
  5
51
102
{ACAD_REACTORS
330
47
102
}
330
47
100
AcDbScale
 70
     0
300
1:40
140
1.0
141
40.0
290
     0
  0
SCALE
  5
52
102
{ACAD_REACTORS
330
47
102
}
330
47
100
AcDbScale
 70
     0
300
1:50
140
1.0
141
50.0
290
     0
  0
SCALE
  5
53
102
{ACAD_REACTORS
330
47
102
}
330
47
100
AcDbScale
 70
     0
300
1:100
140
1.0
141
100.0
290
     0
  0
SCALE
  5
54
102
{ACAD_REACTORS
330
47
102
}
330
47
100
AcDbScale
 70
     0
300
2:1
140
2.0
141
1.0
290
     0
  0
SCALE
  5
55
102
{ACAD_REACTORS
330
47
102
}
330
47
100
AcDbScale
 70
     0
300
4:1
140
4.0
141
1.0
290
     0
  0
SCALE
  5
56
102
{ACAD_REACTORS
330
47
102
}
330
47
100
AcDbScale
 70
     0
300
8:1
140
8.0
141
1.0
290
     0
  0
SCALE
  5
57
102
{ACAD_REACTORS
330
47
102
}
330
47
100
AcDbScale
 70
     0
300
10:1
140
10.0
141
1.0
290
     0
  0
SCALE
  5
58
102
{ACAD_REACTORS
330
47
102
}
330
47
100
AcDbScale
 70
     0
300
100:1
140
100.0
141
1.0
290
     0
  0
SCALE
  5
59
102
{ACAD_REACTORS
330
47
102
}
330
47
100
AcDbScale
 70
     0
300
1/128" = 1'-0"
140
0.0078125
141
12.0
290
     0
  0
SCALE
  5
5A
102
{ACAD_REACTORS
330
47
102
}
330
47
100
AcDbScale
 70
     0
300
1/64" = 1'-0"
140
0.015625
141
12.0
290
     0
  0
SCALE
  5
5B
102
{ACAD_REACTORS
330
47
102
}
330
47
100
AcDbScale
 70
     0
300
1/32" = 1'-0"
140
0.03125
141
12.0
290
     0
  0
SCALE
  5
5C
102
{ACAD_REACTORS
330
47
102
}
330
47
100
AcDbScale
 70
     0
300
1/16" = 1'-0"
140
0.0625
141
12.0
290
     0
  0
SCALE
  5
5D
102
{ACAD_REACTORS
330
47
102
}
330
47
100
AcDbScale
 70
     0
300
3/32" = 1'-0"
140
0.09375
141
12.0
290
     0
  0
SCALE
  5
5E
102
{ACAD_REACTORS
330
47
102
}
330
47
100
AcDbScale
 70
     0
300
1/8" = 1'-0"
140
0.125
141
12.0
290
     0
  0
SCALE
  5
5F
102
{ACAD_REACTORS
330
47
102
}
330
47
100
AcDbScale
 70
     0
300
3/16" = 1'-0"
140
0.1875
141
12.0
290
     0
  0
SCALE
  5
60
102
{ACAD_REACTORS
330
47
102
}
330
47
100
AcDbScale
 70
     0
300
1/4" = 1'-0"
140
0.25
141
12.0
290
     0
  0
SCALE
  5
61
102
{ACAD_REACTORS
330
47
102
}
330
47
100
AcDbScale
 70
     0
300
3/8" = 1'-0"
140
0.375
141
12.0
290
     0
  0
SCALE
  5
62
102
{ACAD_REACTORS
330
47
102
}
330
47
100
AcDbScale
 70
     0
300
1/2" = 1'-0"
140
0.5
141
12.0
290
     0
  0
SCALE
  5
63
102
{ACAD_REACTORS
330
47
102
}
330
47
100
AcDbScale
 70
     0
300
3/4" = 1'-0"
140
0.75
141
12.0
290
     0
  0
SCALE
  5
64
102
{ACAD_REACTORS
330
47
102
}
330
47
100
AcDbScale
 70
     0
300
1" = 1'-0"
140
1.0
141
12.0
290
     0
  0
SCALE
  5
65
102
{ACAD_REACTORS
330
47
102
}
330
47
100
AcDbScale
 70
     0
300
1-1/2" = 1'-0"
140
1.5
141
12.0
290
     0
  0
SCALE
  5
66
102
{ACAD_REACTORS
330
47
102
}
330
47
100
AcDbScale
 70
     0
300
3" = 1'-0"
140
3.0
141
12.0
290
     0
  0
SCALE
  5
67
102
{ACAD_REACTORS
330
47
102
}
330
47
100
AcDbScale
 70
     0
300
6" = 1'-0"
140
6.0
141
12.0
290
     0
  0
SCALE
  5
68
102
{ACAD_REACTORS
330
47
102
}
330
47
100
AcDbScale
 70
     0
300
1'-0" = 1'-0"
140
12.0
141
12.0
290
     0
  0
ENDSEC
  0
EOF
