ISO-10303-21;
HEADER;
/* Generated by software containing ST-Developer
 * from STEP Tools, Inc. (www.steptools.com) 
 */

FILE_DESCRIPTION(
/* description */ (''),
/* implementation_level */ '2;1');

FILE_NAME(
/* name */ 'D:/3D/impressions/K100/bague_adaptation_gsxr_k100 v4.step',

/* time_stamp */ '2022-10-02T23:13:53+02:00',
/* author */ (''),
/* organization */ (''),
/* preprocessor_version */ 'ST-DEVELOPER v19',
/* originating_system */ 'Autodesk Translation Framework v11.7.0.108',
/* authorisation */ '');

FILE_SCHEMA (('AUTOMOTIVE_DESIGN { 1 0 10303 214 3 1 1 }'));
ENDSEC;

DATA;
#10=MECHANICAL_DESIGN_GEOMETRIC_PRESENTATION_REPRESENTATION('',(#13),#321);
#11=SHAPE_REPRESENTATION_RELATIONSHIP('SRR','None',#328,#12);
#12=ADVANCED_BREP_SHAPE_REPRESENTATION('',(#14),#320);
#13=STYLED_ITEM('',(#337),#14);
#14=MANIFOLD_SOLID_BREP('Body1',#171);
#15=TOROIDAL_SURFACE('',#198,24.,2.);
#16=CYLINDRICAL_SURFACE('',#191,25.);
#17=CYLINDRICAL_SURFACE('',#196,30.);
#18=CYLINDRICAL_SURFACE('',#203,26.);
#19=CYLINDRICAL_SURFACE('',#208,17.5);
#20=FACE_BOUND('',#41,.T.);
#21=FACE_BOUND('',#48,.T.);
#22=FACE_BOUND('',#50,.T.);
#23=FACE_BOUND('',#53,.T.);
#24=PLANE('',#189);
#25=PLANE('',#205);
#26=PLANE('',#207);
#27=PLANE('',#210);
#28=FACE_OUTER_BOUND('',#39,.T.);
#29=FACE_OUTER_BOUND('',#40,.T.);
#30=FACE_OUTER_BOUND('',#42,.T.);
#31=FACE_OUTER_BOUND('',#43,.T.);
#32=FACE_OUTER_BOUND('',#44,.T.);
#33=FACE_OUTER_BOUND('',#45,.T.);
#34=FACE_OUTER_BOUND('',#46,.T.);
#35=FACE_OUTER_BOUND('',#47,.T.);
#36=FACE_OUTER_BOUND('',#49,.T.);
#37=FACE_OUTER_BOUND('',#51,.T.);
#38=FACE_OUTER_BOUND('',#52,.T.);
#39=EDGE_LOOP('',(#116,#117,#118,#119,#120));
#40=EDGE_LOOP('',(#121));
#41=EDGE_LOOP('',(#122));
#42=EDGE_LOOP('',(#123,#124,#125,#126,#127));
#43=EDGE_LOOP('',(#128,#129,#130,#131,#132));
#44=EDGE_LOOP('',(#133,#134,#135,#136,#137));
#45=EDGE_LOOP('',(#138,#139,#140,#141,#142));
#46=EDGE_LOOP('',(#143,#144,#145,#146,#147));
#47=EDGE_LOOP('',(#148));
#48=EDGE_LOOP('',(#149));
#49=EDGE_LOOP('',(#150));
#50=EDGE_LOOP('',(#151));
#51=EDGE_LOOP('',(#152,#153,#154,#155));
#52=EDGE_LOOP('',(#156));
#53=EDGE_LOOP('',(#157));
#54=LINE('',#276,#60);
#55=LINE('',#286,#61);
#56=LINE('',#292,#62);
#57=LINE('',#296,#63);
#58=LINE('',#307,#64);
#59=LINE('',#315,#65);
#60=VECTOR('',#217,25.25);
#61=VECTOR('',#230,25.);
#62=VECTOR('',#237,29.75);
#63=VECTOR('',#242,30.);
#64=VECTOR('',#255,26.);
#65=VECTOR('',#266,17.5);
#66=CIRCLE('',#186,25.5);
#67=CIRCLE('',#187,25.);
#68=CIRCLE('',#188,25.);
#69=CIRCLE('',#190,29.5);
#70=CIRCLE('',#192,25.);
#71=CIRCLE('',#194,30.);
#72=CIRCLE('',#195,30.);
#73=CIRCLE('',#197,30.);
#74=CIRCLE('',#199,24.);
#75=CIRCLE('',#200,2.);
#76=CIRCLE('',#201,26.);
#77=CIRCLE('',#202,26.);
#78=CIRCLE('',#204,26.);
#79=CIRCLE('',#206,17.5);
#80=CIRCLE('',#209,17.5);
#81=VERTEX_POINT('',#273);
#82=VERTEX_POINT('',#275);
#83=VERTEX_POINT('',#277);
#84=VERTEX_POINT('',#281);
#85=VERTEX_POINT('',#284);
#86=VERTEX_POINT('',#288);
#87=VERTEX_POINT('',#289);
#88=VERTEX_POINT('',#294);
#89=VERTEX_POINT('',#298);
#90=VERTEX_POINT('',#300);
#91=VERTEX_POINT('',#302);
#92=VERTEX_POINT('',#306);
#93=VERTEX_POINT('',#310);
#94=VERTEX_POINT('',#314);
#95=EDGE_CURVE('',#81,#81,#66,.T.);
#96=EDGE_CURVE('',#81,#82,#54,.T.);
#97=EDGE_CURVE('',#82,#83,#67,.T.);
#98=EDGE_CURVE('',#83,#82,#68,.T.);
#99=EDGE_CURVE('',#84,#84,#69,.T.);
#100=EDGE_CURVE('',#85,#85,#70,.T.);
#101=EDGE_CURVE('',#85,#83,#55,.T.);
#102=EDGE_CURVE('',#86,#87,#71,.T.);
#103=EDGE_CURVE('',#87,#86,#72,.T.);
#104=EDGE_CURVE('',#86,#84,#56,.T.);
#105=EDGE_CURVE('',#88,#88,#73,.T.);
#106=EDGE_CURVE('',#88,#87,#57,.T.);
#107=EDGE_CURVE('',#89,#89,#74,.T.);
#108=EDGE_CURVE('',#89,#90,#75,.T.);
#109=EDGE_CURVE('',#90,#91,#76,.T.);
#110=EDGE_CURVE('',#91,#90,#77,.T.);
#111=EDGE_CURVE('',#91,#92,#58,.T.);
#112=EDGE_CURVE('',#92,#92,#78,.T.);
#113=EDGE_CURVE('',#93,#93,#79,.T.);
#114=EDGE_CURVE('',#93,#94,#59,.T.);
#115=EDGE_CURVE('',#94,#94,#80,.T.);
#116=ORIENTED_EDGE('',*,*,#95,.T.);
#117=ORIENTED_EDGE('',*,*,#96,.T.);
#118=ORIENTED_EDGE('',*,*,#97,.T.);
#119=ORIENTED_EDGE('',*,*,#98,.T.);
#120=ORIENTED_EDGE('',*,*,#96,.F.);
#121=ORIENTED_EDGE('',*,*,#99,.F.);
#122=ORIENTED_EDGE('',*,*,#95,.F.);
#123=ORIENTED_EDGE('',*,*,#100,.T.);
#124=ORIENTED_EDGE('',*,*,#101,.T.);
#125=ORIENTED_EDGE('',*,*,#97,.F.);
#126=ORIENTED_EDGE('',*,*,#98,.F.);
#127=ORIENTED_EDGE('',*,*,#101,.F.);
#128=ORIENTED_EDGE('',*,*,#102,.T.);
#129=ORIENTED_EDGE('',*,*,#103,.T.);
#130=ORIENTED_EDGE('',*,*,#104,.T.);
#131=ORIENTED_EDGE('',*,*,#99,.T.);
#132=ORIENTED_EDGE('',*,*,#104,.F.);
#133=ORIENTED_EDGE('',*,*,#105,.F.);
#134=ORIENTED_EDGE('',*,*,#106,.T.);
#135=ORIENTED_EDGE('',*,*,#102,.F.);
#136=ORIENTED_EDGE('',*,*,#103,.F.);
#137=ORIENTED_EDGE('',*,*,#106,.F.);
#138=ORIENTED_EDGE('',*,*,#107,.T.);
#139=ORIENTED_EDGE('',*,*,#108,.T.);
#140=ORIENTED_EDGE('',*,*,#109,.T.);
#141=ORIENTED_EDGE('',*,*,#110,.T.);
#142=ORIENTED_EDGE('',*,*,#108,.F.);
#143=ORIENTED_EDGE('',*,*,#109,.F.);
#144=ORIENTED_EDGE('',*,*,#110,.F.);
#145=ORIENTED_EDGE('',*,*,#111,.T.);
#146=ORIENTED_EDGE('',*,*,#112,.T.);
#147=ORIENTED_EDGE('',*,*,#111,.F.);
#148=ORIENTED_EDGE('',*,*,#107,.F.);
#149=ORIENTED_EDGE('',*,*,#113,.F.);
#150=ORIENTED_EDGE('',*,*,#105,.T.);
#151=ORIENTED_EDGE('',*,*,#112,.F.);
#152=ORIENTED_EDGE('',*,*,#113,.T.);
#153=ORIENTED_EDGE('',*,*,#114,.T.);
#154=ORIENTED_EDGE('',*,*,#115,.F.);
#155=ORIENTED_EDGE('',*,*,#114,.F.);
#156=ORIENTED_EDGE('',*,*,#100,.F.);
#157=ORIENTED_EDGE('',*,*,#115,.T.);
#158=CONICAL_SURFACE('',#185,25.25,0.785398163397446);
#159=CONICAL_SURFACE('',#193,29.75,0.785398163397446);
#160=ADVANCED_FACE('',(#28),#158,.F.);
#161=ADVANCED_FACE('',(#29,#20),#24,.T.);
#162=ADVANCED_FACE('',(#30),#16,.F.);
#163=ADVANCED_FACE('',(#31),#159,.T.);
#164=ADVANCED_FACE('',(#32),#17,.T.);
#165=ADVANCED_FACE('',(#33),#15,.T.);
#166=ADVANCED_FACE('',(#34),#18,.T.);
#167=ADVANCED_FACE('',(#35,#21),#25,.T.);
#168=ADVANCED_FACE('',(#36,#22),#26,.T.);
#169=ADVANCED_FACE('',(#37),#19,.F.);
#170=ADVANCED_FACE('',(#38,#23),#27,.T.);
#171=CLOSED_SHELL('',(#160,#161,#162,#163,#164,#165,#166,#167,#168,#169,
#170));
#172=DERIVED_UNIT_ELEMENT(#174,1.);
#173=DERIVED_UNIT_ELEMENT(#323,-3.);
#174=(
MASS_UNIT()
NAMED_UNIT(*)
SI_UNIT(.KILO.,.GRAM.)
);
#175=DERIVED_UNIT((#172,#173));
#176=MEASURE_REPRESENTATION_ITEM('density measure',
POSITIVE_RATIO_MEASURE(7850.),#175);
#177=PROPERTY_DEFINITION_REPRESENTATION(#182,#179);
#178=PROPERTY_DEFINITION_REPRESENTATION(#183,#180);
#179=REPRESENTATION('material name',(#181),#320);
#180=REPRESENTATION('density',(#176),#320);
#181=DESCRIPTIVE_REPRESENTATION_ITEM('Steel','Steel');
#182=PROPERTY_DEFINITION('material property','material name',#330);
#183=PROPERTY_DEFINITION('material property','density of part',#330);
#184=AXIS2_PLACEMENT_3D('placement',#271,#211,#212);
#185=AXIS2_PLACEMENT_3D('',#272,#213,#214);
#186=AXIS2_PLACEMENT_3D('',#274,#215,#216);
#187=AXIS2_PLACEMENT_3D('',#278,#218,#219);
#188=AXIS2_PLACEMENT_3D('',#279,#220,#221);
#189=AXIS2_PLACEMENT_3D('',#280,#222,#223);
#190=AXIS2_PLACEMENT_3D('',#282,#224,#225);
#191=AXIS2_PLACEMENT_3D('',#283,#226,#227);
#192=AXIS2_PLACEMENT_3D('',#285,#228,#229);
#193=AXIS2_PLACEMENT_3D('',#287,#231,#232);
#194=AXIS2_PLACEMENT_3D('',#290,#233,#234);
#195=AXIS2_PLACEMENT_3D('',#291,#235,#236);
#196=AXIS2_PLACEMENT_3D('',#293,#238,#239);
#197=AXIS2_PLACEMENT_3D('',#295,#240,#241);
#198=AXIS2_PLACEMENT_3D('',#297,#243,#244);
#199=AXIS2_PLACEMENT_3D('',#299,#245,#246);
#200=AXIS2_PLACEMENT_3D('',#301,#247,#248);
#201=AXIS2_PLACEMENT_3D('',#303,#249,#250);
#202=AXIS2_PLACEMENT_3D('',#304,#251,#252);
#203=AXIS2_PLACEMENT_3D('',#305,#253,#254);
#204=AXIS2_PLACEMENT_3D('',#308,#256,#257);
#205=AXIS2_PLACEMENT_3D('',#309,#258,#259);
#206=AXIS2_PLACEMENT_3D('',#311,#260,#261);
#207=AXIS2_PLACEMENT_3D('',#312,#262,#263);
#208=AXIS2_PLACEMENT_3D('',#313,#264,#265);
#209=AXIS2_PLACEMENT_3D('',#316,#267,#268);
#210=AXIS2_PLACEMENT_3D('',#317,#269,#270);
#211=DIRECTION('axis',(0.,0.,1.));
#212=DIRECTION('refdir',(1.,0.,0.));
#213=DIRECTION('center_axis',(0.,-1.,0.));
#214=DIRECTION('ref_axis',(1.,0.,0.));
#215=DIRECTION('center_axis',(0.,-1.,0.));
#216=DIRECTION('ref_axis',(1.,0.,0.));
#217=DIRECTION('',(0.707106781186546,0.707106781186549,8.65956056235491E-17));
#218=DIRECTION('center_axis',(0.,1.,0.));
#219=DIRECTION('ref_axis',(1.,0.,0.));
#220=DIRECTION('center_axis',(0.,1.,0.));
#221=DIRECTION('ref_axis',(1.,0.,0.));
#222=DIRECTION('center_axis',(0.,-1.,0.));
#223=DIRECTION('ref_axis',(0.,0.,-1.));
#224=DIRECTION('center_axis',(0.,1.,0.));
#225=DIRECTION('ref_axis',(1.,0.,0.));
#226=DIRECTION('center_axis',(0.,1.,0.));
#227=DIRECTION('ref_axis',(-1.,0.,0.));
#228=DIRECTION('center_axis',(0.,1.,0.));
#229=DIRECTION('ref_axis',(1.,0.,0.));
#230=DIRECTION('',(0.,-1.,0.));
#231=DIRECTION('center_axis',(0.,1.,0.));
#232=DIRECTION('ref_axis',(1.,0.,0.));
#233=DIRECTION('center_axis',(0.,-1.,0.));
#234=DIRECTION('ref_axis',(1.,0.,0.));
#235=DIRECTION('center_axis',(0.,-1.,0.));
#236=DIRECTION('ref_axis',(1.,0.,0.));
#237=DIRECTION('',(0.707106781186546,-0.707106781186549,-8.65956056235492E-17));
#238=DIRECTION('center_axis',(0.,1.,0.));
#239=DIRECTION('ref_axis',(-1.,0.,0.));
#240=DIRECTION('center_axis',(0.,1.,0.));
#241=DIRECTION('ref_axis',(1.,0.,0.));
#242=DIRECTION('',(0.,-1.,0.));
#243=DIRECTION('center_axis',(0.,1.,0.));
#244=DIRECTION('ref_axis',(0.,0.,1.));
#245=DIRECTION('center_axis',(0.,-1.,0.));
#246=DIRECTION('ref_axis',(1.,0.,0.));
#247=DIRECTION('center_axis',(-1.,0.,1.22464679914735E-16));
#248=DIRECTION('ref_axis',(-1.22464679914735E-16,0.,-1.));
#249=DIRECTION('center_axis',(0.,1.,0.));
#250=DIRECTION('ref_axis',(1.,0.,0.));
#251=DIRECTION('center_axis',(0.,1.,0.));
#252=DIRECTION('ref_axis',(1.,0.,0.));
#253=DIRECTION('center_axis',(0.,1.,0.));
#254=DIRECTION('ref_axis',(-1.,0.,0.));
#255=DIRECTION('',(0.,-1.,0.));
#256=DIRECTION('center_axis',(0.,1.,0.));
#257=DIRECTION('ref_axis',(1.,0.,0.));
#258=DIRECTION('center_axis',(0.,1.,0.));
#259=DIRECTION('ref_axis',(0.,0.,1.));
#260=DIRECTION('center_axis',(0.,1.,0.));
#261=DIRECTION('ref_axis',(1.,0.,0.));
#262=DIRECTION('center_axis',(0.,1.,0.));
#263=DIRECTION('ref_axis',(0.,0.,1.));
#264=DIRECTION('center_axis',(0.,1.,0.));
#265=DIRECTION('ref_axis',(-1.,0.,0.));
#266=DIRECTION('',(0.,-1.,0.));
#267=DIRECTION('center_axis',(0.,1.,0.));
#268=DIRECTION('ref_axis',(1.,0.,0.));
#269=DIRECTION('center_axis',(0.,-1.,0.));
#270=DIRECTION('ref_axis',(0.,0.,-1.));
#271=CARTESIAN_POINT('',(0.,0.,0.));
#272=CARTESIAN_POINT('Origin',(0.,-5.75,0.));
#273=CARTESIAN_POINT('',(-25.5,-6.,-3.12284933782575E-15));
#274=CARTESIAN_POINT('Origin',(0.,-6.,0.));
#275=CARTESIAN_POINT('',(-25.,-5.5,3.06161699786838E-15));
#276=CARTESIAN_POINT('',(-25.25,-5.75,-3.09223316784707E-15));
#277=CARTESIAN_POINT('',(25.,-5.5,-3.06161699786838E-15));
#278=CARTESIAN_POINT('Origin',(0.,-5.5,0.));
#279=CARTESIAN_POINT('Origin',(0.,-5.5,0.));
#280=CARTESIAN_POINT('Origin',(-30.,-6.,0.));
#281=CARTESIAN_POINT('',(-29.5,-6.,3.61270805748469E-15));
#282=CARTESIAN_POINT('Origin',(0.,-6.,0.));
#283=CARTESIAN_POINT('Origin',(0.,2.5,0.));
#284=CARTESIAN_POINT('',(25.,11.,-3.06161699786838E-15));
#285=CARTESIAN_POINT('Origin',(0.,11.,0.));
#286=CARTESIAN_POINT('',(25.,2.5,-3.06161699786838E-15));
#287=CARTESIAN_POINT('Origin',(0.,-5.75,0.));
#288=CARTESIAN_POINT('',(-30.,-5.5,-3.67394039744206E-15));
#289=CARTESIAN_POINT('',(30.,-5.5,-3.67394039744206E-15));
#290=CARTESIAN_POINT('Origin',(0.,-5.5,0.));
#291=CARTESIAN_POINT('Origin',(0.,-5.5,0.));
#292=CARTESIAN_POINT('',(-29.75,-5.75,3.64332422746338E-15));
#293=CARTESIAN_POINT('Origin',(0.,4.5,0.));
#294=CARTESIAN_POINT('',(30.,15.,-3.67394039744206E-15));
#295=CARTESIAN_POINT('Origin',(0.,15.,0.));
#296=CARTESIAN_POINT('',(30.,4.5,-3.67394039744206E-15));
#297=CARTESIAN_POINT('Origin',(0.,25.,0.));
#298=CARTESIAN_POINT('',(-2.93915231795365E-15,27.,-24.));
#299=CARTESIAN_POINT('Origin',(0.,27.,0.));
#300=CARTESIAN_POINT('',(-3.18408167778312E-15,25.,-26.));
#301=CARTESIAN_POINT('Origin',(-2.93915231795365E-15,25.,-24.));
#302=CARTESIAN_POINT('',(26.,25.,-3.18408167778312E-15));
#303=CARTESIAN_POINT('Origin',(0.,25.,0.));
#304=CARTESIAN_POINT('Origin',(0.,25.,0.));
#305=CARTESIAN_POINT('Origin',(0.,21.,0.));
#306=CARTESIAN_POINT('',(26.,15.,-3.18408167778312E-15));
#307=CARTESIAN_POINT('',(26.,21.,-3.18408167778312E-15));
#308=CARTESIAN_POINT('Origin',(0.,15.,0.));
#309=CARTESIAN_POINT('Origin',(-17.5,27.,0.));
#310=CARTESIAN_POINT('',(17.5,27.,-2.14313189850787E-15));
#311=CARTESIAN_POINT('Origin',(0.,27.,0.));
#312=CARTESIAN_POINT('Origin',(-26.,15.,0.));
#313=CARTESIAN_POINT('Origin',(0.,19.,0.));
#314=CARTESIAN_POINT('',(17.5,11.,-2.14313189850787E-15));
#315=CARTESIAN_POINT('',(17.5,19.,-2.14313189850787E-15));
#316=CARTESIAN_POINT('Origin',(0.,11.,0.));
#317=CARTESIAN_POINT('Origin',(-25.,11.,0.));
#318=UNCERTAINTY_MEASURE_WITH_UNIT(LENGTH_MEASURE(0.01),#322,
'DISTANCE_ACCURACY_VALUE',
'Maximum model space distance between geometric entities at asserted c
onnectivities');
#319=UNCERTAINTY_MEASURE_WITH_UNIT(LENGTH_MEASURE(0.01),#322,
'DISTANCE_ACCURACY_VALUE',
'Maximum model space distance between geometric entities at asserted c
onnectivities');
#320=(
GEOMETRIC_REPRESENTATION_CONTEXT(3)
GLOBAL_UNCERTAINTY_ASSIGNED_CONTEXT((#318))
GLOBAL_UNIT_ASSIGNED_CONTEXT((#322,#324,#325))
REPRESENTATION_CONTEXT('','3D')
);
#321=(
GEOMETRIC_REPRESENTATION_CONTEXT(3)
GLOBAL_UNCERTAINTY_ASSIGNED_CONTEXT((#319))
GLOBAL_UNIT_ASSIGNED_CONTEXT((#322,#324,#325))
REPRESENTATION_CONTEXT('','3D')
);
#322=(
LENGTH_UNIT()
NAMED_UNIT(*)
SI_UNIT(.MILLI.,.METRE.)
);
#323=(
LENGTH_UNIT()
NAMED_UNIT(*)
SI_UNIT($,.METRE.)
);
#324=(
NAMED_UNIT(*)
PLANE_ANGLE_UNIT()
SI_UNIT($,.RADIAN.)
);
#325=(
NAMED_UNIT(*)
SI_UNIT($,.STERADIAN.)
SOLID_ANGLE_UNIT()
);
#326=SHAPE_DEFINITION_REPRESENTATION(#327,#328);
#327=PRODUCT_DEFINITION_SHAPE('',$,#330);
#328=SHAPE_REPRESENTATION('',(#184),#320);
#329=PRODUCT_DEFINITION_CONTEXT('part definition',#334,'design');
#330=PRODUCT_DEFINITION('bague_adaptation_gsxr_k100',
'bague_adaptation_gsxr_k100 v4',#331,#329);
#331=PRODUCT_DEFINITION_FORMATION('',$,#336);
#332=PRODUCT_RELATED_PRODUCT_CATEGORY('bague_adaptation_gsxr_k100 v4',
'bague_adaptation_gsxr_k100 v4',(#336));
#333=APPLICATION_PROTOCOL_DEFINITION('international standard',
'automotive_design',2009,#334);
#334=APPLICATION_CONTEXT(
'Core Data for Automotive Mechanical Design Process');
#335=PRODUCT_CONTEXT('part definition',#334,'mechanical');
#336=PRODUCT('bague_adaptation_gsxr_k100',
'bague_adaptation_gsxr_k100 v4',$,(#335));
#337=PRESENTATION_STYLE_ASSIGNMENT((#338));
#338=SURFACE_STYLE_USAGE(.BOTH.,#339);
#339=SURFACE_SIDE_STYLE('',(#340));
#340=SURFACE_STYLE_FILL_AREA(#341);
#341=FILL_AREA_STYLE('Steel - Satin',(#342));
#342=FILL_AREA_STYLE_COLOUR('Steel - Satin',#343);
#343=COLOUR_RGB('Steel - Satin',0.627450980392157,0.627450980392157,0.627450980392157);
ENDSEC;
END-ISO-10303-21;
