ISO-10303-21;
HEADER;
FILE_DESCRIPTION (( 'STEP AP214' ),
    '1' );
FILE_NAME ('Pièce2.STEP',
    '2022-09-21T08:50:32',
    ( '' ),
    ( '' ),
    'SwSTEP 2.0',
    'SolidWorks 2021',
    '' );
FILE_SCHEMA (( 'AUTOMOTIVE_DESIGN' ));
ENDSEC;

DATA;
#1 = EDGE_CURVE ( 'NONE', #139, #2, #83, .T. ) ;
#2 = VERTEX_POINT ( 'NONE', #327 ) ;
#3 = MANIFOLD_SOLID_BREP ( 'Enlèv. mat.-Extru.1', #23 ) ;
#4 = ORIENTED_EDGE ( 'NONE', *, *, #123, .T. ) ;
#5 = ORIENTED_EDGE ( 'NONE', *, *, #193, .T. ) ;
#6 = FILL_AREA_STYLE_COLOUR ( '', #261 ) ;
#7 = EDGE_LOOP ( 'NONE', ( #56, #240, #171, #286 ) ) ;
#8 = AXIS2_PLACEMENT_3D ( 'NONE', #16, #125, #344 ) ;
#9 = CARTESIAN_POINT ( 'NONE',  ( -22.90000000000000213, 0.000000000000000000, 3.000000000000000000 ) ) ;
#10 = EDGE_CURVE ( 'NONE', #174, #60, #94, .T. ) ;
#11 = DIRECTION ( 'NONE',  ( 0.000000000000000000, 0.000000000000000000, -1.000000000000000000 ) ) ;
#12 = CARTESIAN_POINT ( 'NONE',  ( 25.99999999999999645, 0.000000000000000000, -3.000000000000000000 ) ) ;
#13 = CARTESIAN_POINT ( 'NONE',  ( 5.000000000000000000, 6.123233995736766282E-16, 3.000000000000000888 ) ) ;
#14 = CARTESIAN_POINT ( 'NONE',  ( 0.000000000000000000, 0.000000000000000000, -6.000000000000000000 ) ) ;
#15 = EDGE_CURVE ( 'NONE', #54, #215, #181, .T. ) ;
#16 = CARTESIAN_POINT ( 'NONE',  ( 0.000000000000000000, 0.000000000000000000, -6.000000000000000000 ) ) ;
#17 = CIRCLE ( 'NONE', #186, 2.999999999999999112 ) ;
#18 = EDGE_LOOP ( 'NONE', ( #228, #275 ) ) ;
#19 = DIRECTION ( 'NONE',  ( -0.000000000000000000, -0.000000000000000000, -1.000000000000000000 ) ) ;
#20 = DIRECTION ( 'NONE',  ( 0.000000000000000000, 0.000000000000000000, -1.000000000000000000 ) ) ;
#21 = ADVANCED_FACE ( 'NONE', ( #260, #203 ), #68, .T. ) ;
#22 = DIRECTION ( 'NONE',  ( -0.000000000000000000, -1.000000000000000000, -0.000000000000000000 ) ) ;
#23 = CLOSED_SHELL ( 'NONE', ( #173, #92, #324, #242, #164, #21, #32, #339, #281, #230, #183 ) ) ;
#24 = AXIS2_PLACEMENT_3D ( 'NONE', #74, #99, #80 ) ;
#25 = SHAPE_DEFINITION_REPRESENTATION ( #276, #84 ) ;
#26 = ORIENTED_EDGE ( 'NONE', *, *, #44, .F. ) ;
#27 = FILL_AREA_STYLE_COLOUR ( '', #265 ) ;
#28 = CIRCLE ( 'NONE', #101, 5.000000000000000000 ) ;
#29 =( LENGTH_UNIT ( ) NAMED_UNIT ( * ) SI_UNIT ( .MILLI., .METRE. ) );
#30 = ORIENTED_EDGE ( 'NONE', *, *, #109, .T. ) ;
#31 = DIRECTION ( 'NONE',  ( -1.000000000000000000, 0.000000000000000000, -0.000000000000000000 ) ) ;
#32 = ADVANCED_FACE ( 'NONE', ( #40 ), #340, .T. ) ;
#33 = ORIENTED_EDGE ( 'NONE', *, *, #256, .T. ) ;
#34 = ORIENTED_EDGE ( 'NONE', *, *, #123, .F. ) ;
#35 = AXIS2_PLACEMENT_3D ( 'NONE', #292, #70, #89 ) ;
#36 = AXIS2_PLACEMENT_3D ( 'NONE', #251, #247, #31 ) ;
#37 = DIRECTION ( 'NONE',  ( -1.000000000000000000, 0.000000000000000000, 0.000000000000000000 ) ) ;
#38 = EDGE_CURVE ( 'NONE', #60, #174, #149, .T. ) ;
#39 = CARTESIAN_POINT ( 'NONE',  ( 0.000000000000000000, 0.000000000000000000, -6.000000000000000000 ) ) ;
#40 = FACE_OUTER_BOUND ( 'NONE', #218, .T. ) ;
#41 = CIRCLE ( 'NONE', #138, 22.90000000000000213 ) ;
#42 = DIRECTION ( 'NONE',  ( -0.000000000000000000, -0.000000000000000000, 1.000000000000000000 ) ) ;
#43 = DIRECTION ( 'NONE',  ( 0.000000000000000000, 0.000000000000000000, 1.000000000000000000 ) ) ;
#44 = EDGE_CURVE ( 'NONE', #174, #140, #316, .T. ) ;
#45 = DIRECTION ( 'NONE',  ( 0.000000000000000000, 0.000000000000000000, -1.000000000000000000 ) ) ;
#46 = CIRCLE ( 'NONE', #118, 22.99999999999999645 ) ;
#47 = AXIS2_PLACEMENT_3D ( 'NONE', #222, #262, #313 ) ;
#48 = CARTESIAN_POINT ( 'NONE',  ( 0.000000000000000000, 0.000000000000000000, 3.000000000000000000 ) ) ;
#49 = EDGE_CURVE ( 'NONE', #135, #333, #46, .T. ) ;
#50 = DIRECTION ( 'NONE',  ( -1.000000000000000000, 0.000000000000000000, 0.000000000000000000 ) ) ;
#51 = DIRECTION ( 'NONE',  ( -0.000000000000000000, -0.000000000000000000, -1.000000000000000000 ) ) ;
#52 = EDGE_LOOP ( 'NONE', ( #200, #30 ) ) ;
#53 = CARTESIAN_POINT ( 'NONE',  ( 0.000000000000000000, 0.000000000000000000, 0.000000000000000000 ) ) ;
#54 = VERTEX_POINT ( 'NONE', #13 ) ;
#55 = DIRECTION ( 'NONE',  ( -1.000000000000000000, -1.224646799147353454E-16, 0.000000000000000000 ) ) ;
#56 = ORIENTED_EDGE ( 'NONE', *, *, #109, .F. ) ;
#57 = PRESENTATION_STYLE_ASSIGNMENT (( #104 ) ) ;
#58 = EDGE_LOOP ( 'NONE', ( #134, #311, #304, #277 ) ) ;
#59 = CARTESIAN_POINT ( 'NONE',  ( 22.99999999999999645, 2.816687638038911957E-15, -3.000000000000000000 ) ) ;
#60 = VERTEX_POINT ( 'NONE', #12 ) ;
#61 = CIRCLE ( 'NONE', #177, 3.000000000000000000 ) ;
#62 = ORIENTED_EDGE ( 'NONE', *, *, #10, .F. ) ;
#63 = DIRECTION ( 'NONE',  ( 1.000000000000000000, 0.000000000000000000, 0.000000000000000000 ) ) ;
#64 = EDGE_LOOP ( 'NONE', ( #334, #252 ) ) ;
#65 = DIRECTION ( 'NONE',  ( 1.000000000000000000, 0.000000000000000000, -0.000000000000000000 ) ) ;
#66 = EDGE_CURVE ( 'NONE', #215, #285, #297, .T. ) ;
#67 =( GEOMETRIC_REPRESENTATION_CONTEXT ( 3 ) GLOBAL_UNCERTAINTY_ASSIGNED_CONTEXT ( ( #165 ) ) GLOBAL_UNIT_ASSIGNED_CONTEXT ( ( #106, #162, #166 ) ) REPRESENTATION_CONTEXT ( 'NONE', 'WORKASPACE' ) );
#68 = PLANE ( 'NONE',  #244 ) ;
#69 = DIRECTION ( 'NONE',  ( 1.000000000000000000, 0.000000000000000000, 0.000000000000000000 ) ) ;
#70 = DIRECTION ( 'NONE',  ( 0.000000000000000000, 0.000000000000000000, 1.000000000000000000 ) ) ;
#71 = AXIS2_PLACEMENT_3D ( 'NONE', #315, #178, #37 ) ;
#72 = CARTESIAN_POINT ( 'NONE',  ( 0.000000000000000000, 0.000000000000000000, -3.000000000000000000 ) ) ;
#73 = FACE_OUTER_BOUND ( 'NONE', #18, .T. ) ;
#74 = CARTESIAN_POINT ( 'NONE',  ( 0.000000000000000000, 0.000000000000000000, 3.000000000000000000 ) ) ;
#75 = EDGE_LOOP ( 'NONE', ( #163, #62, #33, #126 ) ) ;
#76 = EDGE_CURVE ( 'NONE', #60, #269, #88, .T. ) ;
#77 = DIRECTION ( 'NONE',  ( -0.000000000000000000, -0.000000000000000000, -1.000000000000000000 ) ) ;
#78 = DIRECTION ( 'NONE',  ( -1.000000000000000000, 0.000000000000000000, 0.000000000000000000 ) ) ;
#79 = EDGE_LOOP ( 'NONE', ( #306, #323 ) ) ;
#80 = DIRECTION ( 'NONE',  ( -1.000000000000000000, 0.000000000000000000, 0.000000000000000000 ) ) ;
#81 = ORIENTED_EDGE ( 'NONE', *, *, #1, .T. ) ;
#82 = DIRECTION ( 'NONE',  ( -0.000000000000000000, -0.000000000000000000, 1.000000000000000000 ) ) ;
#83 = LINE ( 'NONE', #9, #210 ) ;
#84 = ADVANCED_BREP_SHAPE_REPRESENTATION ( 'PiÞce2', ( #3, #191 ), #211 ) ;
#85 = UNCERTAINTY_MEASURE_WITH_UNIT (LENGTH_MEASURE( 1.000000000000000082E-05 ), #198, 'distance_accuracy_value', 'NONE');
#86 = ORIENTED_EDGE ( 'NONE', *, *, #302, .F. ) ;
#87 = VERTEX_POINT ( 'NONE', #90 ) ;
#88 = LINE ( 'NONE', #91, #337 ) ;
#89 = DIRECTION ( 'NONE',  ( 1.000000000000000000, 0.000000000000000000, 0.000000000000000000 ) ) ;
#90 = CARTESIAN_POINT ( 'NONE',  ( 22.90000000000000213, 2.804441170047439389E-15, 3.000000000000000000 ) ) ;
#91 = CARTESIAN_POINT ( 'NONE',  ( 25.99999999999999645, 0.000000000000000000, -6.000000000000000000 ) ) ;
#92 = ADVANCED_FACE ( 'NONE', ( #175 ), #168, .T. ) ;
#93 = DIRECTION ( 'NONE',  ( -1.000000000000000000, 0.000000000000000000, 0.000000000000000000 ) ) ;
#94 = CIRCLE ( 'NONE', #47, 25.99999999999999645 ) ;
#95 = MECHANICAL_DESIGN_GEOMETRIC_PRESENTATION_REPRESENTATION (  '', ( #329 ), #67 ) ;
#96 = FACE_BOUND ( 'NONE', #79, .T. ) ;
#97 = FACE_OUTER_BOUND ( 'NONE', #248, .T. ) ;
#98 = EDGE_CURVE ( 'NONE', #269, #140, #291, .T. ) ;
#99 = DIRECTION ( 'NONE',  ( -0.000000000000000000, -0.000000000000000000, -1.000000000000000000 ) ) ;
#100 = AXIS2_PLACEMENT_3D ( 'NONE', #208, #288, #258 ) ;
#101 = AXIS2_PLACEMENT_3D ( 'NONE', #241, #45, #50 ) ;
#102 = CYLINDRICAL_SURFACE ( 'NONE', #227, 25.99999999999999645 ) ;
#103 = DIRECTION ( 'NONE',  ( 1.000000000000000000, 0.000000000000000000, 0.000000000000000000 ) ) ;
#104 = SURFACE_STYLE_USAGE ( .BOTH. , #112 ) ;
#105 = EDGE_LOOP ( 'NONE', ( #108, #113 ) ) ;
#106 =( LENGTH_UNIT ( ) NAMED_UNIT ( * ) SI_UNIT ( .MILLI., .METRE. ) );
#107 = PRESENTATION_LAYER_ASSIGNMENT (  '', '', ( #130 ) ) ;
#108 = ORIENTED_EDGE ( 'NONE', *, *, #295, .F. ) ;
#109 = EDGE_CURVE ( 'NONE', #54, #345, #272, .T. ) ;
#110 = PRESENTATION_STYLE_ASSIGNMENT (( #279 ) ) ;
#111 = EDGE_LOOP ( 'NONE', ( #170, #86, #81, #255 ) ) ;
#112 = SURFACE_SIDE_STYLE ('',( #221 ) ) ;
#113 = ORIENTED_EDGE ( 'NONE', *, *, #66, .F. ) ;
#114 = CIRCLE ( 'NONE', #35, 22.90000000000000213 ) ;
#115 = DIRECTION ( 'NONE',  ( -0.000000000000000000, -0.000000000000000000, -1.000000000000000000 ) ) ;
#116 = CARTESIAN_POINT ( 'NONE',  ( 0.000000000000000000, 0.000000000000000000, 3.000000000000000888 ) ) ;
#117 = DIRECTION ( 'NONE',  ( -0.000000000000000000, -0.000000000000000000, 1.000000000000000000 ) ) ;
#118 = AXIS2_PLACEMENT_3D ( 'NONE', #121, #263, #148 ) ;
#119 = CIRCLE ( 'NONE', #124, 25.99999999999999645 ) ;
#120 = DIRECTION ( 'NONE',  ( -1.000000000000000000, 0.000000000000000000, 0.000000000000000000 ) ) ;
#121 = CARTESIAN_POINT ( 'NONE',  ( 0.000000000000000000, 0.000000000000000000, -6.000000000000000000 ) ) ;
#122 = CARTESIAN_POINT ( 'NONE',  ( 22.90000000000000213, 2.804441170047439389E-15, 3.000000000000000000 ) ) ;
#123 = EDGE_CURVE ( 'NONE', #87, #139, #114, .T. ) ;
#124 = AXIS2_PLACEMENT_3D ( 'NONE', #53, #239, #156 ) ;
#125 = DIRECTION ( 'NONE',  ( 0.000000000000000000, 0.000000000000000000, -1.000000000000000000 ) ) ;
#126 = ORIENTED_EDGE ( 'NONE', *, *, #49, .F. ) ;
#127 = CYLINDRICAL_SURFACE ( 'NONE', #131, 5.000000000000000000 ) ;
#128 = CARTESIAN_POINT ( 'NONE',  ( 25.99999999999999645, 0.000000000000000000, 0.000000000000000000 ) ) ;
#129 = ORIENTED_EDGE ( 'NONE', *, *, #98, .T. ) ;
#130 = STYLED_ITEM ( 'NONE', ( #110 ), #3 ) ;
#131 = AXIS2_PLACEMENT_3D ( 'NONE', #319, #51, #78 ) ;
#132 = DIRECTION ( 'NONE',  ( -1.000000000000000000, 0.000000000000000000, -0.000000000000000000 ) ) ;
#133 = PRODUCT ( 'Pièce2', 'Pièce2', '', ( #172 ) ) ;
#134 = ORIENTED_EDGE ( 'NONE', *, *, #15, .F. ) ;
#135 = VERTEX_POINT ( 'NONE', #231 ) ;
#136 = APPLICATION_CONTEXT ( 'automotive_design' ) ;
#137 = PLANE ( 'NONE',  #36 ) ;
#138 = AXIS2_PLACEMENT_3D ( 'NONE', #152, #270, #103 ) ;
#139 = VERTEX_POINT ( 'NONE', #150 ) ;
#140 = VERTEX_POINT ( 'NONE', #289 ) ;
#141 = ORIENTED_EDGE ( 'NONE', *, *, #249, .T. ) ;
#142 = ORIENTED_EDGE ( 'NONE', *, *, #335, .T. ) ;
#143 = CIRCLE ( 'NONE', #190, 22.90000000000000213 ) ;
#144 = CIRCLE ( 'NONE', #8, 22.99999999999999645 ) ;
#145 =( NAMED_UNIT ( * ) SI_UNIT ( $, .STERADIAN. ) SOLID_ANGLE_UNIT ( ) );
#146 = DIRECTION ( 'NONE',  ( 1.000000000000000000, 0.000000000000000000, 0.000000000000000000 ) ) ;
#147 = PRODUCT_DEFINITION ( 'UNKNOWN', '', #236, #245 ) ;
#148 = DIRECTION ( 'NONE',  ( -1.000000000000000000, 0.000000000000000000, 0.000000000000000000 ) ) ;
#149 = CIRCLE ( 'NONE', #235, 25.99999999999999645 ) ;
#150 = CARTESIAN_POINT ( 'NONE',  ( -22.90000000000000213, 0.000000000000000000, 3.000000000000000000 ) ) ;
#151 = DIRECTION ( 'NONE',  ( -0.000000000000000000, -0.000000000000000000, 1.000000000000000000 ) ) ;
#152 = CARTESIAN_POINT ( 'NONE',  ( 0.000000000000000000, 0.000000000000000000, 3.000000000000000000 ) ) ;
#153 = VECTOR ( 'NONE', #296, 1000.000000000000000 ) ;
#154 = DIRECTION ( 'NONE',  ( -1.000000000000000000, 0.000000000000000000, 0.000000000000000000 ) ) ;
#155 = DIRECTION ( 'NONE',  ( -0.000000000000000000, -0.000000000000000000, -1.000000000000000000 ) ) ;
#156 = DIRECTION ( 'NONE',  ( -1.000000000000000000, 0.000000000000000000, 0.000000000000000000 ) ) ;
#157 = EDGE_CURVE ( 'NONE', #2, #250, #143, .T. ) ;
#158 = ORIENTED_EDGE ( 'NONE', *, *, #10, .T. ) ;
#159 = CIRCLE ( 'NONE', #280, 22.90000000000000213 ) ;
#160 = CARTESIAN_POINT ( 'NONE',  ( 0.000000000000000000, 0.000000000000000000, 0.000000000000000000 ) ) ;
#161 = ORIENTED_EDGE ( 'NONE', *, *, #179, .T. ) ;
#162 =( NAMED_UNIT ( * ) PLANE_ANGLE_UNIT ( ) SI_UNIT ( $, .RADIAN. ) );
#163 = ORIENTED_EDGE ( 'NONE', *, *, #335, .F. ) ;
#164 = ADVANCED_FACE ( 'NONE', ( #180 ), #209, .T. ) ;
#165 = UNCERTAINTY_MEASURE_WITH_UNIT (LENGTH_MEASURE( 1.000000000000000082E-05 ), #106, 'distance_accuracy_value', 'NONE');
#166 =( NAMED_UNIT ( * ) SI_UNIT ( $, .STERADIAN. ) SOLID_ANGLE_UNIT ( ) );
#167 = SURFACE_SIDE_STYLE ('',( #332 ) ) ;
#168 = TOROIDAL_SURFACE ( 'NONE', #100, 22.99999999999999645, 3.000000000000000000 ) ;
#169 = FACE_BOUND ( 'NONE', #105, .T. ) ;
#170 = ORIENTED_EDGE ( 'NONE', *, *, #249, .F. ) ;
#171 = ORIENTED_EDGE ( 'NONE', *, *, #66, .T. ) ;
#172 = PRODUCT_CONTEXT ( 'NONE', #267, 'mechanical' ) ;
#173 = ADVANCED_FACE ( 'NONE', ( #346 ), #127, .F. ) ;
#174 = VERTEX_POINT ( 'NONE', #234 ) ;
#175 = FACE_OUTER_BOUND ( 'NONE', #224, .T. ) ;
#176 = AXIS2_PLACEMENT_3D ( 'NONE', #116, #11, #93 ) ;
#177 = AXIS2_PLACEMENT_3D ( 'NONE', #237, #22, #301 ) ;
#178 = DIRECTION ( 'NONE',  ( 0.000000000000000000, 0.000000000000000000, -1.000000000000000000 ) ) ;
#179 = EDGE_CURVE ( 'NONE', #250, #2, #159, .T. ) ;
#180 = FACE_OUTER_BOUND ( 'NONE', #111, .T. ) ;
#181 = LINE ( 'NONE', #293, #259 ) ;
#182 = DIRECTION ( 'NONE',  ( -1.000000000000000000, 0.000000000000000000, 0.000000000000000000 ) ) ;
#183 = ADVANCED_FACE ( 'NONE', ( #188 ), #322, .F. ) ;
#184 = CARTESIAN_POINT ( 'NONE',  ( -5.000000000000000000, 0.000000000000000000, 3.000000000000000888 ) ) ;
#185 = AXIS2_PLACEMENT_3D ( 'NONE', #39, #151, #146 ) ;
#186 = AXIS2_PLACEMENT_3D ( 'NONE', #59, #197, #55 ) ;
#187 = LINE ( 'NONE', #122, #303 ) ;
#188 = FACE_OUTER_BOUND ( 'NONE', #58, .T. ) ;
#189 = ORIENTED_EDGE ( 'NONE', *, *, #312, .F. ) ;
#190 = AXIS2_PLACEMENT_3D ( 'NONE', #207, #314, #69 ) ;
#191 = AXIS2_PLACEMENT_3D ( 'NONE', #284, #201, #63 ) ;
#192 = CARTESIAN_POINT ( 'NONE',  ( -22.99999999999999645, 0.000000000000000000, -6.000000000000000000 ) ) ;
#193 = EDGE_CURVE ( 'NONE', #140, #269, #119, .T. ) ;
#194 = ORIENTED_EDGE ( 'NONE', *, *, #1, .F. ) ;
#195 = APPLICATION_PROTOCOL_DEFINITION ( 'draft international standard', 'automotive_design', 1998, #267 ) ;
#196 = FILL_AREA_STYLE ('',( #27 ) ) ;
#197 = DIRECTION ( 'NONE',  ( -1.224646799147353207E-16, 1.000000000000000000, 0.000000000000000000 ) ) ;
#198 =( LENGTH_UNIT ( ) NAMED_UNIT ( * ) SI_UNIT ( .MILLI., .METRE. ) );
#199 =( NAMED_UNIT ( * ) PLANE_ANGLE_UNIT ( ) SI_UNIT ( $, .RADIAN. ) );
#200 = ORIENTED_EDGE ( 'NONE', *, *, #216, .T. ) ;
#201 = DIRECTION ( 'NONE',  ( 0.000000000000000000, 0.000000000000000000, 1.000000000000000000 ) ) ;
#202 = EDGE_LOOP ( 'NONE', ( #310, #4 ) ) ;
#203 = FACE_OUTER_BOUND ( 'NONE', #202, .T. ) ;
#204 = DIRECTION ( 'NONE',  ( -1.000000000000000000, 0.000000000000000000, 0.000000000000000000 ) ) ;
#205 = MECHANICAL_DESIGN_GEOMETRIC_PRESENTATION_REPRESENTATION (  '', ( #130 ), #253 ) ;
#206 = AXIS2_PLACEMENT_3D ( 'NONE', #299, #20, #132 ) ;
#207 = CARTESIAN_POINT ( 'NONE',  ( 0.000000000000000000, 0.000000000000000000, 0.000000000000000000 ) ) ;
#208 = CARTESIAN_POINT ( 'NONE',  ( 0.000000000000000000, 0.000000000000000000, -3.000000000000000000 ) ) ;
#209 = CYLINDRICAL_SURFACE ( 'NONE', #328, 22.90000000000000213 ) ;
#210 = VECTOR ( 'NONE', #115, 1000.000000000000000 ) ;
#211 =( GEOMETRIC_REPRESENTATION_CONTEXT ( 3 ) GLOBAL_UNCERTAINTY_ASSIGNED_CONTEXT ( ( #305 ) ) GLOBAL_UNIT_ASSIGNED_CONTEXT ( ( #29, #199, #330 ) ) REPRESENTATION_CONTEXT ( 'NONE', 'WORKASPACE' ) );
#212 = LINE ( 'NONE', #184, #153 ) ;
#213 = CARTESIAN_POINT ( 'NONE',  ( -5.000000000000000000, 0.000000000000000000, -6.000000000000000000 ) ) ;
#214 = CARTESIAN_POINT ( 'NONE',  ( 0.000000000000000000, 0.000000000000000000, 3.000000000000000888 ) ) ;
#215 = VERTEX_POINT ( 'NONE', #271 ) ;
#216 = EDGE_CURVE ( 'NONE', #345, #54, #298, .T. ) ;
#217 = CARTESIAN_POINT ( 'NONE',  ( 0.000000000000000000, 0.000000000000000000, -6.000000000000000000 ) ) ;
#218 = EDGE_LOOP ( 'NONE', ( #26, #158, #326, #129 ) ) ;
#219 = DIRECTION ( 'NONE',  ( -1.000000000000000000, 0.000000000000000000, 0.000000000000000000 ) ) ;
#220 = ORIENTED_EDGE ( 'NONE', *, *, #44, .T. ) ;
#221 = SURFACE_STYLE_FILL_AREA ( #278 ) ;
#222 = CARTESIAN_POINT ( 'NONE',  ( 0.000000000000000000, 0.000000000000000000, -3.000000000000000000 ) ) ;
#223 = EDGE_LOOP ( 'NONE', ( #34, #141, #161, #194 ) ) ;
#224 = EDGE_LOOP ( 'NONE', ( #320, #142, #189, #266 ) ) ;
#225 = AXIS2_PLACEMENT_3D ( 'NONE', #14, #336, #120 ) ;
#226 = DIRECTION ( 'NONE',  ( 1.000000000000000000, 0.000000000000000000, 0.000000000000000000 ) ) ;
#227 = AXIS2_PLACEMENT_3D ( 'NONE', #217, #82, #226 ) ;
#228 = ORIENTED_EDGE ( 'NONE', *, *, #98, .F. ) ;
#229 = DIRECTION ( 'NONE',  ( -0.000000000000000000, -0.000000000000000000, -1.000000000000000000 ) ) ;
#230 = ADVANCED_FACE ( 'NONE', ( #325 ), #287, .T. ) ;
#231 = CARTESIAN_POINT ( 'NONE',  ( 22.99999999999999645, 3.000384657911015074E-15, -6.000000000000000000 ) ) ;
#232 = DIRECTION ( 'NONE',  ( -0.000000000000000000, -0.000000000000000000, 1.000000000000000000 ) ) ;
#233 = EDGE_CURVE ( 'NONE', #345, #285, #212, .T. ) ;
#234 = CARTESIAN_POINT ( 'NONE',  ( -25.99999999999999645, 3.184081677783117796E-15, -3.000000000000000000 ) ) ;
#235 = AXIS2_PLACEMENT_3D ( 'NONE', #72, #117, #204 ) ;
#236 = PRODUCT_DEFINITION_FORMATION_WITH_SPECIFIED_SOURCE ( 'ANY', '', #133, .NOT_KNOWN. ) ;
#237 = CARTESIAN_POINT ( 'NONE',  ( -22.99999999999999645, 0.000000000000000000, -3.000000000000000000 ) ) ;
#238 = CARTESIAN_POINT ( 'NONE',  ( 0.000000000000000000, 0.000000000000000000, -3.000000000000000000 ) ) ;
#239 = DIRECTION ( 'NONE',  ( 0.000000000000000000, 0.000000000000000000, -1.000000000000000000 ) ) ;
#240 = ORIENTED_EDGE ( 'NONE', *, *, #15, .T. ) ;
#241 = CARTESIAN_POINT ( 'NONE',  ( 0.000000000000000000, 0.000000000000000000, -6.000000000000000000 ) ) ;
#242 = ADVANCED_FACE ( 'NONE', ( #274 ), #343, .T. ) ;
#243 = ORIENTED_EDGE ( 'NONE', *, *, #38, .T. ) ;
#244 = AXIS2_PLACEMENT_3D ( 'NONE', #290, #43, #65 ) ;
#245 = PRODUCT_DEFINITION_CONTEXT ( 'detailed design', #136, 'design' ) ;
#246 = VECTOR ( 'NONE', #232, 1000.000000000000000 ) ;
#247 = DIRECTION ( 'NONE',  ( 0.000000000000000000, 0.000000000000000000, -1.000000000000000000 ) ) ;
#248 = EDGE_LOOP ( 'NONE', ( #243, #220, #5, #283 ) ) ;
#249 = EDGE_CURVE ( 'NONE', #87, #250, #187, .T. ) ;
#250 = VERTEX_POINT ( 'NONE', #318 ) ;
#251 = CARTESIAN_POINT ( 'NONE',  ( 0.000000000000000000, 0.000000000000000000, -6.000000000000000000 ) ) ;
#252 = ORIENTED_EDGE ( 'NONE', *, *, #49, .T. ) ;
#253 =( GEOMETRIC_REPRESENTATION_CONTEXT ( 3 ) GLOBAL_UNCERTAINTY_ASSIGNED_CONTEXT ( ( #85 ) ) GLOBAL_UNIT_ASSIGNED_CONTEXT ( ( #198, #338, #145 ) ) REPRESENTATION_CONTEXT ( 'NONE', 'WORKASPACE' ) );
#254 = AXIS2_PLACEMENT_3D ( 'NONE', #238, #321, #182 ) ;
#255 = ORIENTED_EDGE ( 'NONE', *, *, #157, .T. ) ;
#256 = EDGE_CURVE ( 'NONE', #174, #333, #61, .T. ) ;
#257 = CARTESIAN_POINT ( 'NONE',  ( -25.99999999999999645, 3.184081677783117796E-15, -6.000000000000000000 ) ) ;
#258 = DIRECTION ( 'NONE',  ( -1.000000000000000000, 0.000000000000000000, 0.000000000000000000 ) ) ;
#259 = VECTOR ( 'NONE', #229, 1000.000000000000000 ) ;
#260 = FACE_BOUND ( 'NONE', #52, .T. ) ;
#261 = COLOUR_RGB ( '',0.7921568627450980005, 0.8196078431372548767, 0.9333333333333333481 ) ;
#262 = DIRECTION ( 'NONE',  ( -0.000000000000000000, -0.000000000000000000, 1.000000000000000000 ) ) ;
#263 = DIRECTION ( 'NONE',  ( 0.000000000000000000, 0.000000000000000000, -1.000000000000000000 ) ) ;
#264 = PLANE ( 'NONE',  #206 ) ;
#265 = COLOUR_RGB ( '',0.7921568627450980005, 0.8196078431372548767, 0.9333333333333333481 ) ;
#266 = ORIENTED_EDGE ( 'NONE', *, *, #256, .F. ) ;
#267 = APPLICATION_CONTEXT ( 'automotive_design' ) ;
#268 = DIRECTION ( 'NONE',  ( -1.000000000000000000, 0.000000000000000000, 0.000000000000000000 ) ) ;
#269 = VERTEX_POINT ( 'NONE', #128 ) ;
#270 = DIRECTION ( 'NONE',  ( 0.000000000000000000, 0.000000000000000000, 1.000000000000000000 ) ) ;
#271 = CARTESIAN_POINT ( 'NONE',  ( 5.000000000000000000, 6.123233995736766282E-16, -6.000000000000000000 ) ) ;
#272 = CIRCLE ( 'NONE', #176, 5.000000000000000000 ) ;
#273 = AXIS2_PLACEMENT_3D ( 'NONE', #342, #77, #154 ) ;
#274 = FACE_OUTER_BOUND ( 'NONE', #223, .T. ) ;
#275 = ORIENTED_EDGE ( 'NONE', *, *, #193, .F. ) ;
#276 = PRODUCT_DEFINITION_SHAPE ( 'NONE', 'NONE',  #147 ) ;
#277 = ORIENTED_EDGE ( 'NONE', *, *, #295, .T. ) ;
#278 = FILL_AREA_STYLE ('',( #6 ) ) ;
#279 = SURFACE_STYLE_USAGE ( .BOTH. , #167 ) ;
#280 = AXIS2_PLACEMENT_3D ( 'NONE', #160, #341, #300 ) ;
#281 = ADVANCED_FACE ( 'NONE', ( #96, #73 ), #264, .F. ) ;
#282 = CARTESIAN_POINT ( 'NONE',  ( -5.000000000000000000, 0.000000000000000000, 3.000000000000000888 ) ) ;
#283 = ORIENTED_EDGE ( 'NONE', *, *, #76, .F. ) ;
#284 = CARTESIAN_POINT ( 'NONE',  ( 0.000000000000000000, 0.000000000000000000, 0.000000000000000000 ) ) ;
#285 = VERTEX_POINT ( 'NONE', #213 ) ;
#286 = ORIENTED_EDGE ( 'NONE', *, *, #233, .F. ) ;
#287 = TOROIDAL_SURFACE ( 'NONE', #254, 22.99999999999999645, 3.000000000000000000 ) ;
#288 = DIRECTION ( 'NONE',  ( 0.000000000000000000, 0.000000000000000000, -1.000000000000000000 ) ) ;
#289 = CARTESIAN_POINT ( 'NONE',  ( -25.99999999999999645, 3.184081677783117796E-15, 0.000000000000000000 ) ) ;
#290 = CARTESIAN_POINT ( 'NONE',  ( 0.000000000000000000, 0.000000000000000000, 3.000000000000000000 ) ) ;
#291 = CIRCLE ( 'NONE', #71, 25.99999999999999645 ) ;
#292 = CARTESIAN_POINT ( 'NONE',  ( 0.000000000000000000, 0.000000000000000000, 3.000000000000000000 ) ) ;
#293 = CARTESIAN_POINT ( 'NONE',  ( 5.000000000000000000, 6.123233995736766282E-16, 3.000000000000000888 ) ) ;
#294 = DIRECTION ( 'NONE',  ( 0.000000000000000000, 0.000000000000000000, -1.000000000000000000 ) ) ;
#295 = EDGE_CURVE ( 'NONE', #285, #215, #28, .T. ) ;
#296 = DIRECTION ( 'NONE',  ( -0.000000000000000000, -0.000000000000000000, -1.000000000000000000 ) ) ;
#297 = CIRCLE ( 'NONE', #225, 5.000000000000000000 ) ;
#298 = CIRCLE ( 'NONE', #317, 5.000000000000000000 ) ;
#299 = CARTESIAN_POINT ( 'NONE',  ( 0.000000000000000000, 0.000000000000000000, 0.000000000000000000 ) ) ;
#300 = DIRECTION ( 'NONE',  ( 1.000000000000000000, 0.000000000000000000, 0.000000000000000000 ) ) ;
#301 = DIRECTION ( 'NONE',  ( 0.000000000000000000, 0.000000000000000000, -1.000000000000000000 ) ) ;
#302 = EDGE_CURVE ( 'NONE', #139, #87, #41, .T. ) ;
#303 = VECTOR ( 'NONE', #155, 1000.000000000000000 ) ;
#304 = ORIENTED_EDGE ( 'NONE', *, *, #233, .T. ) ;
#305 = UNCERTAINTY_MEASURE_WITH_UNIT (LENGTH_MEASURE( 1.000000000000000082E-05 ), #29, 'distance_accuracy_value', 'NONE');
#306 = ORIENTED_EDGE ( 'NONE', *, *, #157, .F. ) ;
#307 = FACE_OUTER_BOUND ( 'NONE', #64, .T. ) ;
#308 = PRESENTATION_LAYER_ASSIGNMENT (  '', '', ( #329 ) ) ;
#309 = APPLICATION_PROTOCOL_DEFINITION ( 'draft international standard', 'automotive_design', 1998, #136 ) ;
#310 = ORIENTED_EDGE ( 'NONE', *, *, #302, .T. ) ;
#311 = ORIENTED_EDGE ( 'NONE', *, *, #216, .F. ) ;
#312 = EDGE_CURVE ( 'NONE', #333, #135, #144, .T. ) ;
#313 = DIRECTION ( 'NONE',  ( -1.000000000000000000, 0.000000000000000000, 0.000000000000000000 ) ) ;
#314 = DIRECTION ( 'NONE',  ( 0.000000000000000000, 0.000000000000000000, 1.000000000000000000 ) ) ;
#315 = CARTESIAN_POINT ( 'NONE',  ( 0.000000000000000000, 0.000000000000000000, 0.000000000000000000 ) ) ;
#316 = LINE ( 'NONE', #257, #246 ) ;
#317 = AXIS2_PLACEMENT_3D ( 'NONE', #214, #294, #268 ) ;
#318 = CARTESIAN_POINT ( 'NONE',  ( 22.90000000000000213, 2.804441170047439389E-15, 0.000000000000000000 ) ) ;
#319 = CARTESIAN_POINT ( 'NONE',  ( 0.000000000000000000, 0.000000000000000000, 3.000000000000000888 ) ) ;
#320 = ORIENTED_EDGE ( 'NONE', *, *, #38, .F. ) ;
#321 = DIRECTION ( 'NONE',  ( 0.000000000000000000, 0.000000000000000000, -1.000000000000000000 ) ) ;
#322 = CYLINDRICAL_SURFACE ( 'NONE', #273, 5.000000000000000000 ) ;
#323 = ORIENTED_EDGE ( 'NONE', *, *, #179, .F. ) ;
#324 = ADVANCED_FACE ( 'NONE', ( #97 ), #102, .T. ) ;
#325 = FACE_OUTER_BOUND ( 'NONE', #75, .T. ) ;
#326 = ORIENTED_EDGE ( 'NONE', *, *, #76, .T. ) ;
#327 = CARTESIAN_POINT ( 'NONE',  ( -22.90000000000000213, 0.000000000000000000, 0.000000000000000000 ) ) ;
#328 = AXIS2_PLACEMENT_3D ( 'NONE', #48, #19, #219 ) ;
#329 = STYLED_ITEM ( 'NONE', ( #57 ), #84 ) ;
#330 =( NAMED_UNIT ( * ) SI_UNIT ( $, .STERADIAN. ) SOLID_ANGLE_UNIT ( ) );
#331 = PRODUCT_RELATED_PRODUCT_CATEGORY ( 'part', '', ( #133 ) ) ;
#332 = SURFACE_STYLE_FILL_AREA ( #196 ) ;
#333 = VERTEX_POINT ( 'NONE', #192 ) ;
#334 = ORIENTED_EDGE ( 'NONE', *, *, #312, .T. ) ;
#335 = EDGE_CURVE ( 'NONE', #60, #135, #17, .T. ) ;
#336 = DIRECTION ( 'NONE',  ( 0.000000000000000000, 0.000000000000000000, -1.000000000000000000 ) ) ;
#337 = VECTOR ( 'NONE', #42, 1000.000000000000000 ) ;
#338 =( NAMED_UNIT ( * ) PLANE_ANGLE_UNIT ( ) SI_UNIT ( $, .RADIAN. ) );
#339 = ADVANCED_FACE ( 'NONE', ( #169, #307 ), #137, .T. ) ;
#340 = CYLINDRICAL_SURFACE ( 'NONE', #185, 25.99999999999999645 ) ;
#341 = DIRECTION ( 'NONE',  ( 0.000000000000000000, 0.000000000000000000, 1.000000000000000000 ) ) ;
#342 = CARTESIAN_POINT ( 'NONE',  ( 0.000000000000000000, 0.000000000000000000, 3.000000000000000888 ) ) ;
#343 = CYLINDRICAL_SURFACE ( 'NONE', #24, 22.90000000000000213 ) ;
#344 = DIRECTION ( 'NONE',  ( -1.000000000000000000, 0.000000000000000000, 0.000000000000000000 ) ) ;
#345 = VERTEX_POINT ( 'NONE', #282 ) ;
#346 = FACE_OUTER_BOUND ( 'NONE', #7, .T. ) ;
ENDSEC;
END-ISO-10303-21;
