ISO-10303-21;
HEADER;
FILE_DESCRIPTION (( 'STEP AP214' ),
    '1' );
FILE_NAME ('PIECE MARBRE T47.STEP',
    '2022-09-21T08:49:00',
    ( '' ),
    ( '' ),
    'SwSTEP 2.0',
    'SolidWorks 2021',
    '' );
FILE_SCHEMA (( 'AUTOMOTIVE_DESIGN' ));
ENDSEC;

DATA;
#1 = FILL_AREA_STYLE ('',( #224 ) ) ;
#2 = CYLINDRICAL_SURFACE ( 'NONE', #260, 17.00000000000000000 ) ;
#3 = DIRECTION ( 'NONE',  ( 0.000000000000000000, 0.000000000000000000, 1.000000000000000000 ) ) ;
#4 = DIRECTION ( 'NONE',  ( 0.000000000000000000, 0.000000000000000000, 1.000000000000000000 ) ) ;
#5 = AXIS2_PLACEMENT_3D ( 'NONE', #229, #4, #119 ) ;
#6 = CIRCLE ( 'NONE', #33, 26.00000000000000355 ) ;
#7 = DIRECTION ( 'NONE',  ( 0.000000000000000000, 0.000000000000000000, 1.000000000000000000 ) ) ;
#8 = AXIS2_PLACEMENT_3D ( 'NONE', #271, #115, #45 ) ;
#9 = AXIS2_PLACEMENT_3D ( 'NONE', #280, #121, #231 ) ;
#10 = SURFACE_STYLE_USAGE ( .BOTH. , #212 ) ;
#11 = COLOUR_RGB ( '',0.7921568627450980005, 0.8196078431372548767, 0.9333333333333333481 ) ;
#12 = ORIENTED_EDGE ( 'NONE', *, *, #109, .F. ) ;
#13 = CARTESIAN_POINT ( 'NONE',  ( 17.00000000000000000, 0.000000000000000000, -10.00000000000000178 ) ) ;
#14 = EDGE_CURVE ( 'NONE', #191, #101, #139, .T. ) ;
#15 = FACE_BOUND ( 'NONE', #50, .T. ) ;
#16 = PRODUCT_DEFINITION ( 'UNKNOWN', '', #143, #108 ) ;
#17 = CARTESIAN_POINT ( 'NONE',  ( 22.90000000000000213, 2.804441170047439389E-15, 3.000000000000000000 ) ) ;
#18 = UNCERTAINTY_MEASURE_WITH_UNIT (LENGTH_MEASURE( 1.000000000000000082E-05 ), #124, 'distance_accuracy_value', 'NONE');
#19 = ORIENTED_EDGE ( 'NONE', *, *, #109, .T. ) ;
#20 = CYLINDRICAL_SURFACE ( 'NONE', #147, 22.90000000000000213 ) ;
#21 = EDGE_LOOP ( 'NONE', ( #177, #82, #186, #279 ) ) ;
#22 = FACE_OUTER_BOUND ( 'NONE', #43, .T. ) ;
#23 = EDGE_LOOP ( 'NONE', ( #19, #75 ) ) ;
#24 = AXIS2_PLACEMENT_3D ( 'NONE', #94, #219, #223 ) ;
#25 = CARTESIAN_POINT ( 'NONE',  ( 0.000000000000000000, 0.000000000000000000, -10.00000000000000178 ) ) ;
#26 = CIRCLE ( 'NONE', #51, 22.90000000000000213 ) ;
#27 = DIRECTION ( 'NONE',  ( 1.000000000000000000, 0.000000000000000000, 0.000000000000000000 ) ) ;
#28 = ORIENTED_EDGE ( 'NONE', *, *, #171, .T. ) ;
#29 = FACE_OUTER_BOUND ( 'NONE', #162, .T. ) ;
#30 = EDGE_LOOP ( 'NONE', ( #135, #146 ) ) ;
#31 = MECHANICAL_DESIGN_GEOMETRIC_PRESENTATION_REPRESENTATION (  '', ( #245 ), #81 ) ;
#32 = CARTESIAN_POINT ( 'NONE',  ( 0.000000000000000000, 0.000000000000000000, 3.000000000000000000 ) ) ;
#33 = AXIS2_PLACEMENT_3D ( 'NONE', #243, #203, #42 ) ;
#34 = CARTESIAN_POINT ( 'NONE',  ( 26.00000000000000355, 0.000000000000000000, -10.00000000000000000 ) ) ;
#35 = EDGE_LOOP ( 'NONE', ( #274, #95, #127, #205 ) ) ;
#36 =( NAMED_UNIT ( * ) SI_UNIT ( $, .STERADIAN. ) SOLID_ANGLE_UNIT ( ) );
#37 = UNCERTAINTY_MEASURE_WITH_UNIT (LENGTH_MEASURE( 1.000000000000000082E-05 ), #88, 'distance_accuracy_value', 'NONE');
#38 = ORIENTED_EDGE ( 'NONE', *, *, #232, .T. ) ;
#39 = CARTESIAN_POINT ( 'NONE',  ( 0.000000000000000000, 0.000000000000000000, 3.000000000000000000 ) ) ;
#40 = CIRCLE ( 'NONE', #130, 17.00000000000000000 ) ;
#41 = ADVANCED_FACE ( 'NONE', ( #293, #256 ), #60, .F. ) ;
#42 = DIRECTION ( 'NONE',  ( -1.000000000000000000, 0.000000000000000000, 0.000000000000000000 ) ) ;
#43 = EDGE_LOOP ( 'NONE', ( #193, #250, #166, #56 ) ) ;
#44 = ADVANCED_BREP_SHAPE_REPRESENTATION ( 'PIECE MARBRE T47', ( #49, #241 ), #228 ) ;
#45 = DIRECTION ( 'NONE',  ( -1.000000000000000000, 0.000000000000000000, 0.000000000000000000 ) ) ;
#46 = AXIS2_PLACEMENT_3D ( 'NONE', #99, #188, #272 ) ;
#47 = EDGE_LOOP ( 'NONE', ( #285, #255 ) ) ;
#48 = CYLINDRICAL_SURFACE ( 'NONE', #211, 26.00000000000000355 ) ;
#49 = MANIFOLD_SOLID_BREP ( 'Enlèv. mat.-Extru.1', #215 ) ;
#50 = EDGE_LOOP ( 'NONE', ( #270, #237 ) ) ;
#51 = AXIS2_PLACEMENT_3D ( 'NONE', #273, #218, #140 ) ;
#52 = DIRECTION ( 'NONE',  ( -1.000000000000000000, 0.000000000000000000, 0.000000000000000000 ) ) ;
#53 = VERTEX_POINT ( 'NONE', #34 ) ;
#54 = DIRECTION ( 'NONE',  ( 1.000000000000000000, 0.000000000000000000, 0.000000000000000000 ) ) ;
#55 = EDGE_LOOP ( 'NONE', ( #290, #208, #122, #209 ) ) ;
#56 = ORIENTED_EDGE ( 'NONE', *, *, #281, .T. ) ;
#57 = ADVANCED_FACE ( 'NONE', ( #63, #174 ), #77, .T. ) ;
#58 = STYLED_ITEM ( 'NONE', ( #259 ), #44 ) ;
#59 = ADVANCED_FACE ( 'NONE', ( #64 ), #238, .T. ) ;
#60 = PLANE ( 'NONE',  #46 ) ;
#61 = DIRECTION ( 'NONE',  ( 1.000000000000000000, 0.000000000000000000, 0.000000000000000000 ) ) ;
#62 = DIRECTION ( 'NONE',  ( -0.000000000000000000, -0.000000000000000000, 1.000000000000000000 ) ) ;
#63 = FACE_BOUND ( 'NONE', #104, .T. ) ;
#64 = FACE_OUTER_BOUND ( 'NONE', #55, .T. ) ;
#65 = EDGE_CURVE ( 'NONE', #125, #244, #240, .T. ) ;
#66 =( NAMED_UNIT ( * ) PLANE_ANGLE_UNIT ( ) SI_UNIT ( $, .RADIAN. ) );
#67 = CIRCLE ( 'NONE', #128, 26.00000000000000355 ) ;
#68 = DIRECTION ( 'NONE',  ( 0.000000000000000000, 0.000000000000000000, -1.000000000000000000 ) ) ;
#69 = EDGE_CURVE ( 'NONE', #110, #226, #67, .T. ) ;
#70 = CARTESIAN_POINT ( 'NONE',  ( 22.90000000000000213, 2.804441170047439389E-15, 0.000000000000000000 ) ) ;
#71 = CIRCLE ( 'NONE', #170, 22.90000000000000213 ) ;
#72 = CARTESIAN_POINT ( 'NONE',  ( 17.00000000000000000, 0.000000000000000000, 3.000000000000000000 ) ) ;
#73 = CARTESIAN_POINT ( 'NONE',  ( 0.000000000000000000, 0.000000000000000000, -10.00000000000000178 ) ) ;
#74 = DIRECTION ( 'NONE',  ( 0.000000000000000000, 0.000000000000000000, 1.000000000000000000 ) ) ;
#75 = ORIENTED_EDGE ( 'NONE', *, *, #85, .T. ) ;
#76 = FACE_OUTER_BOUND ( 'NONE', #21, .T. ) ;
#77 = PLANE ( 'NONE',  #134 ) ;
#78 = DIRECTION ( 'NONE',  ( 0.000000000000000000, 0.000000000000000000, -1.000000000000000000 ) ) ;
#79 = EDGE_LOOP ( 'NONE', ( #165, #12, #252, #149 ) ) ;
#80 = EDGE_CURVE ( 'NONE', #144, #110, #195, .T. ) ;
#81 =( GEOMETRIC_REPRESENTATION_CONTEXT ( 3 ) GLOBAL_UNCERTAINTY_ASSIGNED_CONTEXT ( ( #37 ) ) GLOBAL_UNIT_ASSIGNED_CONTEXT ( ( #88, #66, #36 ) ) REPRESENTATION_CONTEXT ( 'NONE', 'WORKASPACE' ) );
#82 = ORIENTED_EDGE ( 'NONE', *, *, #103, .F. ) ;
#83 = AXIS2_PLACEMENT_3D ( 'NONE', #159, #291, #292 ) ;
#84 = EDGE_CURVE ( 'NONE', #158, #101, #265, .T. ) ;
#85 = EDGE_CURVE ( 'NONE', #144, #53, #153, .T. ) ;
#86 = CARTESIAN_POINT ( 'NONE',  ( 0.000000000000000000, 0.000000000000000000, 3.000000000000000000 ) ) ;
#87 = CARTESIAN_POINT ( 'NONE',  ( -17.00000000000000000, 2.081899558550500280E-15, 3.000000000000000000 ) ) ;
#88 =( LENGTH_UNIT ( ) NAMED_UNIT ( * ) SI_UNIT ( .MILLI., .METRE. ) );
#89 = CIRCLE ( 'NONE', #24, 22.90000000000000213 ) ;
#90 = SURFACE_STYLE_FILL_AREA ( #197 ) ;
#91 = AXIS2_PLACEMENT_3D ( 'NONE', #86, #258, #126 ) ;
#92 = EDGE_CURVE ( 'NONE', #125, #275, #249, .T. ) ;
#93 = DIRECTION ( 'NONE',  ( -0.000000000000000000, -0.000000000000000000, -1.000000000000000000 ) ) ;
#94 = CARTESIAN_POINT ( 'NONE',  ( 0.000000000000000000, 0.000000000000000000, 3.000000000000000000 ) ) ;
#95 = ORIENTED_EDGE ( 'NONE', *, *, #80, .T. ) ;
#96 = DIRECTION ( 'NONE',  ( -0.000000000000000000, -0.000000000000000000, 1.000000000000000000 ) ) ;
#97 = ORIENTED_EDGE ( 'NONE', *, *, #232, .F. ) ;
#98 = FACE_OUTER_BOUND ( 'NONE', #79, .T. ) ;
#99 = CARTESIAN_POINT ( 'NONE',  ( 0.000000000000000000, 0.000000000000000000, 0.000000000000000000 ) ) ;
#100 = DIRECTION ( 'NONE',  ( 1.000000000000000000, 0.000000000000000000, 0.000000000000000000 ) ) ;
#101 = VERTEX_POINT ( 'NONE', #185 ) ;
#102 = VECTOR ( 'NONE', #286, 1000.000000000000000 ) ;
#103 = EDGE_CURVE ( 'NONE', #158, #207, #89, .T. ) ;
#104 = EDGE_LOOP ( 'NONE', ( #133, #97 ) ) ;
#105 = APPLICATION_CONTEXT ( 'automotive_design' ) ;
#106 = CIRCLE ( 'NONE', #91, 17.00000000000000000 ) ;
#107 = CARTESIAN_POINT ( 'NONE',  ( 0.000000000000000000, 0.000000000000000000, 0.000000000000000000 ) ) ;
#108 = PRODUCT_DEFINITION_CONTEXT ( 'detailed design', #105, 'design' ) ;
#109 = EDGE_CURVE ( 'NONE', #53, #144, #168, .T. ) ;
#110 = VERTEX_POINT ( 'NONE', #268 ) ;
#111 = DIRECTION ( 'NONE',  ( -1.000000000000000000, 0.000000000000000000, 0.000000000000000000 ) ) ;
#112 = LINE ( 'NONE', #13, #178 ) ;
#113 =( NAMED_UNIT ( * ) PLANE_ANGLE_UNIT ( ) SI_UNIT ( $, .RADIAN. ) );
#114 = DIRECTION ( 'NONE',  ( -1.000000000000000000, 0.000000000000000000, -0.000000000000000000 ) ) ;
#115 = DIRECTION ( 'NONE',  ( 0.000000000000000000, 0.000000000000000000, -1.000000000000000000 ) ) ;
#116 = ADVANCED_FACE ( 'NONE', ( #22 ), #117, .F. ) ;
#117 = CYLINDRICAL_SURFACE ( 'NONE', #263, 17.00000000000000000 ) ;
#118 = APPLICATION_PROTOCOL_DEFINITION ( 'draft international standard', 'automotive_design', 1998, #105 ) ;
#119 = DIRECTION ( 'NONE',  ( 1.000000000000000000, 0.000000000000000000, 0.000000000000000000 ) ) ;
#120 = CARTESIAN_POINT ( 'NONE',  ( -17.00000000000000000, 2.081899558550500280E-15, -10.00000000000000178 ) ) ;
#121 = DIRECTION ( 'NONE',  ( -0.000000000000000000, -0.000000000000000000, 1.000000000000000000 ) ) ;
#122 = ORIENTED_EDGE ( 'NONE', *, *, #14, .T. ) ;
#123 = AXIS2_PLACEMENT_3D ( 'NONE', #189, #78, #114 ) ;
#124 =( LENGTH_UNIT ( ) NAMED_UNIT ( * ) SI_UNIT ( .MILLI., .METRE. ) );
#125 = VERTEX_POINT ( 'NONE', #120 ) ;
#126 = DIRECTION ( 'NONE',  ( 1.000000000000000000, 0.000000000000000000, 0.000000000000000000 ) ) ;
#127 = ORIENTED_EDGE ( 'NONE', *, *, #69, .T. ) ;
#128 = AXIS2_PLACEMENT_3D ( 'NONE', #284, #68, #157 ) ;
#129 = EDGE_CURVE ( 'NONE', #244, #141, #112, .T. ) ;
#130 = AXIS2_PLACEMENT_3D ( 'NONE', #148, #210, #225 ) ;
#131 = DIRECTION ( 'NONE',  ( 0.000000000000000000, 0.000000000000000000, 1.000000000000000000 ) ) ;
#132 = ADVANCED_FACE ( 'NONE', ( #76 ), #20, .T. ) ;
#133 = ORIENTED_EDGE ( 'NONE', *, *, #281, .F. ) ;
#134 = AXIS2_PLACEMENT_3D ( 'NONE', #32, #131, #283 ) ;
#135 = ORIENTED_EDGE ( 'NONE', *, *, #152, .F. ) ;
#136 = DIRECTION ( 'NONE',  ( -0.000000000000000000, -0.000000000000000000, -1.000000000000000000 ) ) ;
#137 = PRESENTATION_LAYER_ASSIGNMENT (  '', '', ( #58 ) ) ;
#138 = CARTESIAN_POINT ( 'NONE',  ( 26.00000000000000355, 0.000000000000000000, 0.000000000000000000 ) ) ;
#139 = CIRCLE ( 'NONE', #5, 22.90000000000000213 ) ;
#140 = DIRECTION ( 'NONE',  ( 1.000000000000000000, 0.000000000000000000, 0.000000000000000000 ) ) ;
#141 = VERTEX_POINT ( 'NONE', #72 ) ;
#142 = CARTESIAN_POINT ( 'NONE',  ( 26.00000000000000355, 0.000000000000000000, -10.00000000000000000 ) ) ;
#143 = PRODUCT_DEFINITION_FORMATION_WITH_SPECIFIED_SOURCE ( 'ANY', '', #184, .NOT_KNOWN. ) ;
#144 = VERTEX_POINT ( 'NONE', #163 ) ;
#145 = PLANE ( 'NONE',  #123 ) ;
#146 = ORIENTED_EDGE ( 'NONE', *, *, #69, .F. ) ;
#147 = AXIS2_PLACEMENT_3D ( 'NONE', #160, #246, #52 ) ;
#148 = CARTESIAN_POINT ( 'NONE',  ( 0.000000000000000000, 0.000000000000000000, 3.000000000000000000 ) ) ;
#149 = ORIENTED_EDGE ( 'NONE', *, *, #152, .T. ) ;
#150 = CARTESIAN_POINT ( 'NONE',  ( 0.000000000000000000, 0.000000000000000000, -10.00000000000000178 ) ) ;
#151 = DIRECTION ( 'NONE',  ( 1.000000000000000000, 0.000000000000000000, 0.000000000000000000 ) ) ;
#152 = EDGE_CURVE ( 'NONE', #226, #110, #6, .T. ) ;
#153 = CIRCLE ( 'NONE', #8, 26.00000000000000355 ) ;
#154 = PRESENTATION_STYLE_ASSIGNMENT (( #10 ) ) ;
#155 = AXIS2_PLACEMENT_3D ( 'NONE', #216, #198, #262 ) ;
#156 = VECTOR ( 'NONE', #62, 1000.000000000000000 ) ;
#157 = DIRECTION ( 'NONE',  ( -1.000000000000000000, 0.000000000000000000, 0.000000000000000000 ) ) ;
#158 = VERTEX_POINT ( 'NONE', #199 ) ;
#159 = CARTESIAN_POINT ( 'NONE',  ( 0.000000000000000000, 0.000000000000000000, -10.00000000000000000 ) ) ;
#160 = CARTESIAN_POINT ( 'NONE',  ( 0.000000000000000000, 0.000000000000000000, 3.000000000000000000 ) ) ;
#161 = PRODUCT_CONTEXT ( 'NONE', #266, 'mechanical' ) ;
#162 = EDGE_LOOP ( 'NONE', ( #190, #222, #38, #230 ) ) ;
#163 = CARTESIAN_POINT ( 'NONE',  ( -26.00000000000000355, 3.184081677783118585E-15, -10.00000000000000000 ) ) ;
#164 = CIRCLE ( 'NONE', #234, 17.00000000000000000 ) ;
#165 = ORIENTED_EDGE ( 'NONE', *, *, #80, .F. ) ;
#166 = ORIENTED_EDGE ( 'NONE', *, *, #129, .T. ) ;
#167 = FACE_OUTER_BOUND ( 'NONE', #35, .T. ) ;
#168 = CIRCLE ( 'NONE', #83, 26.00000000000000355 ) ;
#169 = EDGE_LOOP ( 'NONE', ( #202, #28 ) ) ;
#170 = AXIS2_PLACEMENT_3D ( 'NONE', #107, #7, #61 ) ;
#171 = EDGE_CURVE ( 'NONE', #207, #158, #26, .T. ) ;
#172 = SURFACE_SIDE_STYLE ('',( #90 ) ) ;
#173 = PRODUCT_RELATED_PRODUCT_CATEGORY ( 'part', '', ( #184 ) ) ;
#174 = FACE_OUTER_BOUND ( 'NONE', #169, .T. ) ;
#175 = SURFACE_STYLE_FILL_AREA ( #1 ) ;
#176 = ADVANCED_FACE ( 'NONE', ( #98 ), #48, .T. ) ;
#177 = ORIENTED_EDGE ( 'NONE', *, *, #180, .F. ) ;
#178 = VECTOR ( 'NONE', #206, 1000.000000000000000 ) ;
#179 = CARTESIAN_POINT ( 'NONE',  ( 0.000000000000000000, 0.000000000000000000, -10.00000000000000000 ) ) ;
#180 = EDGE_CURVE ( 'NONE', #207, #191, #294, .T. ) ;
#181 = EDGE_CURVE ( 'NONE', #53, #226, #201, .T. ) ;
#182 = ADVANCED_FACE ( 'NONE', ( #15, #221 ), #145, .T. ) ;
#183 = DIRECTION ( 'NONE',  ( -0.000000000000000000, -0.000000000000000000, 1.000000000000000000 ) ) ;
#184 = PRODUCT ( 'PIECE MARBRE T47', 'PIECE MARBRE T47', '', ( #161 ) ) ;
#185 = CARTESIAN_POINT ( 'NONE',  ( -22.90000000000000213, 0.000000000000000000, 0.000000000000000000 ) ) ;
#186 = ORIENTED_EDGE ( 'NONE', *, *, #84, .T. ) ;
#187 = PRESENTATION_LAYER_ASSIGNMENT (  '', '', ( #245 ) ) ;
#188 = DIRECTION ( 'NONE',  ( 0.000000000000000000, 0.000000000000000000, -1.000000000000000000 ) ) ;
#189 = CARTESIAN_POINT ( 'NONE',  ( 0.000000000000000000, 0.000000000000000000, -10.00000000000000000 ) ) ;
#190 = ORIENTED_EDGE ( 'NONE', *, *, #65, .F. ) ;
#191 = VERTEX_POINT ( 'NONE', #70 ) ;
#192 = SURFACE_STYLE_USAGE ( .BOTH. , #172 ) ;
#193 = ORIENTED_EDGE ( 'NONE', *, *, #92, .F. ) ;
#194 =( NAMED_UNIT ( * ) PLANE_ANGLE_UNIT ( ) SI_UNIT ( $, .RADIAN. ) );
#195 = LINE ( 'NONE', #257, #156 ) ;
#196 = CARTESIAN_POINT ( 'NONE',  ( 17.00000000000000000, 0.000000000000000000, -10.00000000000000178 ) ) ;
#197 = FILL_AREA_STYLE ('',( #213 ) ) ;
#198 = DIRECTION ( 'NONE',  ( 0.000000000000000000, 0.000000000000000000, 1.000000000000000000 ) ) ;
#199 = CARTESIAN_POINT ( 'NONE',  ( -22.90000000000000213, 0.000000000000000000, 3.000000000000000000 ) ) ;
#200 =( NAMED_UNIT ( * ) SI_UNIT ( $, .STERADIAN. ) SOLID_ANGLE_UNIT ( ) );
#201 = LINE ( 'NONE', #142, #102 ) ;
#202 = ORIENTED_EDGE ( 'NONE', *, *, #103, .T. ) ;
#203 = DIRECTION ( 'NONE',  ( 0.000000000000000000, 0.000000000000000000, -1.000000000000000000 ) ) ;
#204 = DIRECTION ( 'NONE',  ( 1.000000000000000000, 0.000000000000000000, 0.000000000000000000 ) ) ;
#205 = ORIENTED_EDGE ( 'NONE', *, *, #181, .F. ) ;
#206 = DIRECTION ( 'NONE',  ( -0.000000000000000000, -0.000000000000000000, 1.000000000000000000 ) ) ;
#207 = VERTEX_POINT ( 'NONE', #242 ) ;
#208 = ORIENTED_EDGE ( 'NONE', *, *, #180, .T. ) ;
#209 = ORIENTED_EDGE ( 'NONE', *, *, #84, .F. ) ;
#210 = DIRECTION ( 'NONE',  ( 0.000000000000000000, 0.000000000000000000, 1.000000000000000000 ) ) ;
#211 = AXIS2_PLACEMENT_3D ( 'NONE', #179, #220, #100 ) ;
#212 = SURFACE_SIDE_STYLE ('',( #175 ) ) ;
#213 = FILL_AREA_STYLE_COLOUR ( '', #11 ) ;
#214 = UNCERTAINTY_MEASURE_WITH_UNIT (LENGTH_MEASURE( 1.000000000000000082E-05 ), #276, 'distance_accuracy_value', 'NONE');
#215 = CLOSED_SHELL ( 'NONE', ( #253, #267, #59, #132, #57, #176, #182, #41, #116 ) ) ;
#216 = CARTESIAN_POINT ( 'NONE',  ( 0.000000000000000000, 0.000000000000000000, -10.00000000000000178 ) ) ;
#217 = VECTOR ( 'NONE', #264, 1000.000000000000000 ) ;
#218 = DIRECTION ( 'NONE',  ( 0.000000000000000000, 0.000000000000000000, 1.000000000000000000 ) ) ;
#219 = DIRECTION ( 'NONE',  ( 0.000000000000000000, 0.000000000000000000, 1.000000000000000000 ) ) ;
#220 = DIRECTION ( 'NONE',  ( -0.000000000000000000, -0.000000000000000000, 1.000000000000000000 ) ) ;
#221 = FACE_OUTER_BOUND ( 'NONE', #23, .T. ) ;
#222 = ORIENTED_EDGE ( 'NONE', *, *, #92, .T. ) ;
#223 = DIRECTION ( 'NONE',  ( 1.000000000000000000, 0.000000000000000000, 0.000000000000000000 ) ) ;
#224 = FILL_AREA_STYLE_COLOUR ( '', #287 ) ;
#225 = DIRECTION ( 'NONE',  ( 1.000000000000000000, 0.000000000000000000, 0.000000000000000000 ) ) ;
#226 = VERTEX_POINT ( 'NONE', #138 ) ;
#227 =( NAMED_UNIT ( * ) SI_UNIT ( $, .STERADIAN. ) SOLID_ANGLE_UNIT ( ) );
#228 =( GEOMETRIC_REPRESENTATION_CONTEXT ( 3 ) GLOBAL_UNCERTAINTY_ASSIGNED_CONTEXT ( ( #18 ) ) GLOBAL_UNIT_ASSIGNED_CONTEXT ( ( #124, #194, #227 ) ) REPRESENTATION_CONTEXT ( 'NONE', 'WORKASPACE' ) );
#229 = CARTESIAN_POINT ( 'NONE',  ( 0.000000000000000000, 0.000000000000000000, 0.000000000000000000 ) ) ;
#230 = ORIENTED_EDGE ( 'NONE', *, *, #129, .F. ) ;
#231 = DIRECTION ( 'NONE',  ( 1.000000000000000000, 0.000000000000000000, 0.000000000000000000 ) ) ;
#232 = EDGE_CURVE ( 'NONE', #275, #141, #40, .T. ) ;
#233 = CYLINDRICAL_SURFACE ( 'NONE', #9, 26.00000000000000355 ) ;
#234 = AXIS2_PLACEMENT_3D ( 'NONE', #150, #3, #27 ) ;
#235 = VECTOR ( 'NONE', #96, 1000.000000000000000 ) ;
#236 =( GEOMETRIC_REPRESENTATION_CONTEXT ( 3 ) GLOBAL_UNCERTAINTY_ASSIGNED_CONTEXT ( ( #214 ) ) GLOBAL_UNIT_ASSIGNED_CONTEXT ( ( #276, #113, #200 ) ) REPRESENTATION_CONTEXT ( 'NONE', 'WORKASPACE' ) );
#237 = ORIENTED_EDGE ( 'NONE', *, *, #65, .T. ) ;
#238 = CYLINDRICAL_SURFACE ( 'NONE', #277, 22.90000000000000213 ) ;
#239 = EDGE_CURVE ( 'NONE', #101, #191, #71, .T. ) ;
#240 = CIRCLE ( 'NONE', #155, 17.00000000000000000 ) ;
#241 = AXIS2_PLACEMENT_3D ( 'NONE', #269, #74, #204 ) ;
#242 = CARTESIAN_POINT ( 'NONE',  ( 22.90000000000000213, 2.804441170047439389E-15, 3.000000000000000000 ) ) ;
#243 = CARTESIAN_POINT ( 'NONE',  ( 0.000000000000000000, 0.000000000000000000, 0.000000000000000000 ) ) ;
#244 = VERTEX_POINT ( 'NONE', #196 ) ;
#245 = STYLED_ITEM ( 'NONE', ( #154 ), #49 ) ;
#246 = DIRECTION ( 'NONE',  ( -0.000000000000000000, -0.000000000000000000, -1.000000000000000000 ) ) ;
#247 = EDGE_CURVE ( 'NONE', #244, #125, #164, .T. ) ;
#248 = SHAPE_DEFINITION_REPRESENTATION ( #278, #44 ) ;
#249 = LINE ( 'NONE', #289, #235 ) ;
#250 = ORIENTED_EDGE ( 'NONE', *, *, #247, .F. ) ;
#251 = CARTESIAN_POINT ( 'NONE',  ( -22.90000000000000213, 0.000000000000000000, 3.000000000000000000 ) ) ;
#252 = ORIENTED_EDGE ( 'NONE', *, *, #181, .T. ) ;
#253 = ADVANCED_FACE ( 'NONE', ( #29 ), #2, .F. ) ;
#254 = DIRECTION ( 'NONE',  ( -0.000000000000000000, -0.000000000000000000, 1.000000000000000000 ) ) ;
#255 = ORIENTED_EDGE ( 'NONE', *, *, #14, .F. ) ;
#256 = FACE_OUTER_BOUND ( 'NONE', #30, .T. ) ;
#257 = CARTESIAN_POINT ( 'NONE',  ( -26.00000000000000355, 3.184081677783118585E-15, -10.00000000000000000 ) ) ;
#258 = DIRECTION ( 'NONE',  ( 0.000000000000000000, 0.000000000000000000, 1.000000000000000000 ) ) ;
#259 = PRESENTATION_STYLE_ASSIGNMENT (( #192 ) ) ;
#260 = AXIS2_PLACEMENT_3D ( 'NONE', #25, #254, #151 ) ;
#261 = MECHANICAL_DESIGN_GEOMETRIC_PRESENTATION_REPRESENTATION (  '', ( #58 ), #236 ) ;
#262 = DIRECTION ( 'NONE',  ( 1.000000000000000000, 0.000000000000000000, 0.000000000000000000 ) ) ;
#263 = AXIS2_PLACEMENT_3D ( 'NONE', #73, #183, #54 ) ;
#264 = DIRECTION ( 'NONE',  ( -0.000000000000000000, -0.000000000000000000, -1.000000000000000000 ) ) ;
#265 = LINE ( 'NONE', #251, #288 ) ;
#266 = APPLICATION_CONTEXT ( 'automotive_design' ) ;
#267 = ADVANCED_FACE ( 'NONE', ( #167 ), #233, .T. ) ;
#268 = CARTESIAN_POINT ( 'NONE',  ( -26.00000000000000355, 3.184081677783118585E-15, 0.000000000000000000 ) ) ;
#269 = CARTESIAN_POINT ( 'NONE',  ( 0.000000000000000000, 0.000000000000000000, 0.000000000000000000 ) ) ;
#270 = ORIENTED_EDGE ( 'NONE', *, *, #247, .T. ) ;
#271 = CARTESIAN_POINT ( 'NONE',  ( 0.000000000000000000, 0.000000000000000000, -10.00000000000000000 ) ) ;
#272 = DIRECTION ( 'NONE',  ( -1.000000000000000000, 0.000000000000000000, -0.000000000000000000 ) ) ;
#273 = CARTESIAN_POINT ( 'NONE',  ( 0.000000000000000000, 0.000000000000000000, 3.000000000000000000 ) ) ;
#274 = ORIENTED_EDGE ( 'NONE', *, *, #85, .F. ) ;
#275 = VERTEX_POINT ( 'NONE', #87 ) ;
#276 =( LENGTH_UNIT ( ) NAMED_UNIT ( * ) SI_UNIT ( .MILLI., .METRE. ) );
#277 = AXIS2_PLACEMENT_3D ( 'NONE', #39, #136, #111 ) ;
#278 = PRODUCT_DEFINITION_SHAPE ( 'NONE', 'NONE',  #16 ) ;
#279 = ORIENTED_EDGE ( 'NONE', *, *, #239, .T. ) ;
#280 = CARTESIAN_POINT ( 'NONE',  ( 0.000000000000000000, 0.000000000000000000, -10.00000000000000000 ) ) ;
#281 = EDGE_CURVE ( 'NONE', #141, #275, #106, .T. ) ;
#282 = APPLICATION_PROTOCOL_DEFINITION ( 'draft international standard', 'automotive_design', 1998, #266 ) ;
#283 = DIRECTION ( 'NONE',  ( 1.000000000000000000, 0.000000000000000000, -0.000000000000000000 ) ) ;
#284 = CARTESIAN_POINT ( 'NONE',  ( 0.000000000000000000, 0.000000000000000000, 0.000000000000000000 ) ) ;
#285 = ORIENTED_EDGE ( 'NONE', *, *, #239, .F. ) ;
#286 = DIRECTION ( 'NONE',  ( -0.000000000000000000, -0.000000000000000000, 1.000000000000000000 ) ) ;
#287 = COLOUR_RGB ( '',0.7921568627450980005, 0.8196078431372548767, 0.9333333333333333481 ) ;
#288 = VECTOR ( 'NONE', #93, 1000.000000000000000 ) ;
#289 = CARTESIAN_POINT ( 'NONE',  ( -17.00000000000000000, 2.081899558550500280E-15, -10.00000000000000178 ) ) ;
#290 = ORIENTED_EDGE ( 'NONE', *, *, #171, .F. ) ;
#291 = DIRECTION ( 'NONE',  ( 0.000000000000000000, 0.000000000000000000, -1.000000000000000000 ) ) ;
#292 = DIRECTION ( 'NONE',  ( -1.000000000000000000, 0.000000000000000000, 0.000000000000000000 ) ) ;
#293 = FACE_BOUND ( 'NONE', #47, .T. ) ;
#294 = LINE ( 'NONE', #17, #217 ) ;
ENDSEC;
END-ISO-10303-21;
