ISO-10303-21;
HEADER;
/* Generated by software containing ST-Developer
 * from STEP Tools, Inc. (www.steptools.com) 
 */

FILE_DESCRIPTION(
/* description */ (''),
/* implementation_level */ '2;1');

FILE_NAME(
/* name */ '/Users/nicolasjulien/Downloads/calle roue v4.step',
/* time_stamp */ '2022-09-05T12:58:24+02:00',
/* author */ (''),
/* organization */ (''),
/* preprocessor_version */ 'ST-DEVELOPER v19',
/* originating_system */ 'Autodesk Translation Framework v11.7.0.108',
/* authorisation */ '');

FILE_SCHEMA (('AUTOMOTIVE_DESIGN { 1 0 10303 214 3 1 1 }'));
ENDSEC;

DATA;
#10=MECHANICAL_DESIGN_GEOMETRIC_PRESENTATION_REPRESENTATION('',(#13,#14),
#558);
#11=SHAPE_REPRESENTATION_RELATIONSHIP('SRR','None',#565,#12);
#12=ADVANCED_BREP_SHAPE_REPRESENTATION('',(#15,#16),#557);
#13=STYLED_ITEM('',(#574),#15);
#14=STYLED_ITEM('',(#574),#16);
#15=MANIFOLD_SOLID_BREP('Corps1',#307);
#16=MANIFOLD_SOLID_BREP('Corps2',#308);
#17=CYLINDRICAL_SURFACE('',#327,12.75);
#18=CYLINDRICAL_SURFACE('',#331,20.);
#19=CYLINDRICAL_SURFACE('',#343,16.);
#20=CYLINDRICAL_SURFACE('',#349,12.75);
#21=CYLINDRICAL_SURFACE('',#353,20.);
#22=CYLINDRICAL_SURFACE('',#365,16.);
#23=FACE_BOUND('',#59,.T.);
#24=FACE_BOUND('',#65,.T.);
#25=FACE_BOUND('',#68,.T.);
#26=FACE_BOUND('',#73,.T.);
#27=FACE_BOUND('',#79,.T.);
#28=FACE_BOUND('',#82,.T.);
#29=PLANE('',#325);
#30=PLANE('',#335);
#31=PLANE('',#339);
#32=PLANE('',#347);
#33=PLANE('',#357);
#34=PLANE('',#361);
#35=FACE_OUTER_BOUND('',#57,.T.);
#36=FACE_OUTER_BOUND('',#58,.T.);
#37=FACE_OUTER_BOUND('',#60,.T.);
#38=FACE_OUTER_BOUND('',#61,.T.);
#39=FACE_OUTER_BOUND('',#62,.T.);
#40=FACE_OUTER_BOUND('',#63,.T.);
#41=FACE_OUTER_BOUND('',#64,.T.);
#42=FACE_OUTER_BOUND('',#66,.T.);
#43=FACE_OUTER_BOUND('',#67,.T.);
#44=FACE_OUTER_BOUND('',#69,.T.);
#45=FACE_OUTER_BOUND('',#70,.T.);
#46=FACE_OUTER_BOUND('',#71,.T.);
#47=FACE_OUTER_BOUND('',#72,.T.);
#48=FACE_OUTER_BOUND('',#74,.T.);
#49=FACE_OUTER_BOUND('',#75,.T.);
#50=FACE_OUTER_BOUND('',#76,.T.);
#51=FACE_OUTER_BOUND('',#77,.T.);
#52=FACE_OUTER_BOUND('',#78,.T.);
#53=FACE_OUTER_BOUND('',#80,.T.);
#54=FACE_OUTER_BOUND('',#81,.T.);
#55=FACE_OUTER_BOUND('',#83,.T.);
#56=FACE_OUTER_BOUND('',#84,.T.);
#57=EDGE_LOOP('',(#199,#200,#201,#202));
#58=EDGE_LOOP('',(#203));
#59=EDGE_LOOP('',(#204));
#60=EDGE_LOOP('',(#205,#206,#207,#208));
#61=EDGE_LOOP('',(#209,#210,#211,#212));
#62=EDGE_LOOP('',(#213,#214,#215,#216));
#63=EDGE_LOOP('',(#217,#218,#219,#220));
#64=EDGE_LOOP('',(#221));
#65=EDGE_LOOP('',(#222));
#66=EDGE_LOOP('',(#223,#224,#225,#226));
#67=EDGE_LOOP('',(#227));
#68=EDGE_LOOP('',(#228));
#69=EDGE_LOOP('',(#229,#230,#231,#232));
#70=EDGE_LOOP('',(#233,#234,#235,#236));
#71=EDGE_LOOP('',(#237,#238,#239,#240));
#72=EDGE_LOOP('',(#241));
#73=EDGE_LOOP('',(#242));
#74=EDGE_LOOP('',(#243,#244,#245,#246));
#75=EDGE_LOOP('',(#247,#248,#249,#250));
#76=EDGE_LOOP('',(#251,#252,#253,#254));
#77=EDGE_LOOP('',(#255,#256,#257,#258));
#78=EDGE_LOOP('',(#259));
#79=EDGE_LOOP('',(#260));
#80=EDGE_LOOP('',(#261,#262,#263,#264));
#81=EDGE_LOOP('',(#265));
#82=EDGE_LOOP('',(#266));
#83=EDGE_LOOP('',(#267,#268,#269,#270));
#84=EDGE_LOOP('',(#271,#272,#273,#274));
#85=LINE('',#477,#101);
#86=LINE('',#485,#102);
#87=LINE('',#489,#103);
#88=LINE('',#493,#104);
#89=LINE('',#497,#105);
#90=LINE('',#504,#106);
#91=LINE('',#510,#107);
#92=LINE('',#513,#108);
#93=LINE('',#518,#109);
#94=LINE('',#526,#110);
#95=LINE('',#530,#111);
#96=LINE('',#534,#112);
#97=LINE('',#538,#113);
#98=LINE('',#545,#114);
#99=LINE('',#551,#115);
#100=LINE('',#554,#116);
#101=VECTOR('',#372,13.25);
#102=VECTOR('',#383,12.75);
#103=VECTOR('',#388,19.5);
#104=VECTOR('',#393,20.);
#105=VECTOR('',#398,19.5);
#106=VECTOR('',#407,13.);
#107=VECTOR('',#414,15.75);
#108=VECTOR('',#419,16.);
#109=VECTOR('',#424,13.25);
#110=VECTOR('',#435,12.75);
#111=VECTOR('',#440,19.5);
#112=VECTOR('',#445,20.);
#113=VECTOR('',#450,19.5);
#114=VECTOR('',#459,13.);
#115=VECTOR('',#466,15.75);
#116=VECTOR('',#471,16.);
#117=CIRCLE('',#323,12.75);
#118=CIRCLE('',#324,13.75);
#119=CIRCLE('',#326,19.);
#120=CIRCLE('',#328,12.75);
#121=CIRCLE('',#330,20.);
#122=CIRCLE('',#332,20.);
#123=CIRCLE('',#334,19.);
#124=CIRCLE('',#336,16.);
#125=CIRCLE('',#338,13.25);
#126=CIRCLE('',#340,15.5);
#127=CIRCLE('',#342,16.);
#128=CIRCLE('',#345,12.75);
#129=CIRCLE('',#346,13.75);
#130=CIRCLE('',#348,19.);
#131=CIRCLE('',#350,12.75);
#132=CIRCLE('',#352,20.);
#133=CIRCLE('',#354,20.);
#134=CIRCLE('',#356,19.);
#135=CIRCLE('',#358,16.);
#136=CIRCLE('',#360,13.25);
#137=CIRCLE('',#362,15.5);
#138=CIRCLE('',#364,16.);
#139=VERTEX_POINT('',#474);
#140=VERTEX_POINT('',#476);
#141=VERTEX_POINT('',#480);
#142=VERTEX_POINT('',#483);
#143=VERTEX_POINT('',#487);
#144=VERTEX_POINT('',#491);
#145=VERTEX_POINT('',#495);
#146=VERTEX_POINT('',#499);
#147=VERTEX_POINT('',#502);
#148=VERTEX_POINT('',#506);
#149=VERTEX_POINT('',#509);
#150=VERTEX_POINT('',#515);
#151=VERTEX_POINT('',#517);
#152=VERTEX_POINT('',#521);
#153=VERTEX_POINT('',#524);
#154=VERTEX_POINT('',#528);
#155=VERTEX_POINT('',#532);
#156=VERTEX_POINT('',#536);
#157=VERTEX_POINT('',#540);
#158=VERTEX_POINT('',#543);
#159=VERTEX_POINT('',#547);
#160=VERTEX_POINT('',#550);
#161=EDGE_CURVE('',#139,#139,#117,.T.);
#162=EDGE_CURVE('',#139,#140,#85,.T.);
#163=EDGE_CURVE('',#140,#140,#118,.T.);
#164=EDGE_CURVE('',#141,#141,#119,.T.);
#165=EDGE_CURVE('',#142,#142,#120,.T.);
#166=EDGE_CURVE('',#142,#139,#86,.T.);
#167=EDGE_CURVE('',#143,#143,#121,.T.);
#168=EDGE_CURVE('',#143,#141,#87,.T.);
#169=EDGE_CURVE('',#144,#144,#122,.T.);
#170=EDGE_CURVE('',#144,#143,#88,.T.);
#171=EDGE_CURVE('',#145,#145,#123,.T.);
#172=EDGE_CURVE('',#145,#144,#89,.T.);
#173=EDGE_CURVE('',#146,#146,#124,.T.);
#174=EDGE_CURVE('',#147,#147,#125,.T.);
#175=EDGE_CURVE('',#147,#142,#90,.T.);
#176=EDGE_CURVE('',#148,#148,#126,.T.);
#177=EDGE_CURVE('',#148,#149,#91,.T.);
#178=EDGE_CURVE('',#149,#149,#127,.T.);
#179=EDGE_CURVE('',#149,#146,#92,.T.);
#180=EDGE_CURVE('',#150,#150,#128,.T.);
#181=EDGE_CURVE('',#150,#151,#93,.T.);
#182=EDGE_CURVE('',#151,#151,#129,.T.);
#183=EDGE_CURVE('',#152,#152,#130,.T.);
#184=EDGE_CURVE('',#153,#153,#131,.T.);
#185=EDGE_CURVE('',#153,#150,#94,.T.);
#186=EDGE_CURVE('',#154,#154,#132,.T.);
#187=EDGE_CURVE('',#154,#152,#95,.T.);
#188=EDGE_CURVE('',#155,#155,#133,.T.);
#189=EDGE_CURVE('',#155,#154,#96,.T.);
#190=EDGE_CURVE('',#156,#156,#134,.T.);
#191=EDGE_CURVE('',#156,#155,#97,.T.);
#192=EDGE_CURVE('',#157,#157,#135,.T.);
#193=EDGE_CURVE('',#158,#158,#136,.T.);
#194=EDGE_CURVE('',#158,#153,#98,.T.);
#195=EDGE_CURVE('',#159,#159,#137,.T.);
#196=EDGE_CURVE('',#159,#160,#99,.T.);
#197=EDGE_CURVE('',#160,#160,#138,.T.);
#198=EDGE_CURVE('',#160,#157,#100,.T.);
#199=ORIENTED_EDGE('',*,*,#161,.T.);
#200=ORIENTED_EDGE('',*,*,#162,.T.);
#201=ORIENTED_EDGE('',*,*,#163,.T.);
#202=ORIENTED_EDGE('',*,*,#162,.F.);
#203=ORIENTED_EDGE('',*,*,#164,.F.);
#204=ORIENTED_EDGE('',*,*,#163,.F.);
#205=ORIENTED_EDGE('',*,*,#165,.F.);
#206=ORIENTED_EDGE('',*,*,#166,.T.);
#207=ORIENTED_EDGE('',*,*,#161,.F.);
#208=ORIENTED_EDGE('',*,*,#166,.F.);
#209=ORIENTED_EDGE('',*,*,#167,.T.);
#210=ORIENTED_EDGE('',*,*,#168,.T.);
#211=ORIENTED_EDGE('',*,*,#164,.T.);
#212=ORIENTED_EDGE('',*,*,#168,.F.);
#213=ORIENTED_EDGE('',*,*,#169,.F.);
#214=ORIENTED_EDGE('',*,*,#170,.T.);
#215=ORIENTED_EDGE('',*,*,#167,.F.);
#216=ORIENTED_EDGE('',*,*,#170,.F.);
#217=ORIENTED_EDGE('',*,*,#171,.T.);
#218=ORIENTED_EDGE('',*,*,#172,.T.);
#219=ORIENTED_EDGE('',*,*,#169,.T.);
#220=ORIENTED_EDGE('',*,*,#172,.F.);
#221=ORIENTED_EDGE('',*,*,#171,.F.);
#222=ORIENTED_EDGE('',*,*,#173,.T.);
#223=ORIENTED_EDGE('',*,*,#174,.T.);
#224=ORIENTED_EDGE('',*,*,#175,.T.);
#225=ORIENTED_EDGE('',*,*,#165,.T.);
#226=ORIENTED_EDGE('',*,*,#175,.F.);
#227=ORIENTED_EDGE('',*,*,#176,.F.);
#228=ORIENTED_EDGE('',*,*,#174,.F.);
#229=ORIENTED_EDGE('',*,*,#176,.T.);
#230=ORIENTED_EDGE('',*,*,#177,.T.);
#231=ORIENTED_EDGE('',*,*,#178,.T.);
#232=ORIENTED_EDGE('',*,*,#177,.F.);
#233=ORIENTED_EDGE('',*,*,#178,.F.);
#234=ORIENTED_EDGE('',*,*,#179,.T.);
#235=ORIENTED_EDGE('',*,*,#173,.F.);
#236=ORIENTED_EDGE('',*,*,#179,.F.);
#237=ORIENTED_EDGE('',*,*,#180,.T.);
#238=ORIENTED_EDGE('',*,*,#181,.T.);
#239=ORIENTED_EDGE('',*,*,#182,.T.);
#240=ORIENTED_EDGE('',*,*,#181,.F.);
#241=ORIENTED_EDGE('',*,*,#183,.F.);
#242=ORIENTED_EDGE('',*,*,#182,.F.);
#243=ORIENTED_EDGE('',*,*,#184,.F.);
#244=ORIENTED_EDGE('',*,*,#185,.T.);
#245=ORIENTED_EDGE('',*,*,#180,.F.);
#246=ORIENTED_EDGE('',*,*,#185,.F.);
#247=ORIENTED_EDGE('',*,*,#186,.T.);
#248=ORIENTED_EDGE('',*,*,#187,.T.);
#249=ORIENTED_EDGE('',*,*,#183,.T.);
#250=ORIENTED_EDGE('',*,*,#187,.F.);
#251=ORIENTED_EDGE('',*,*,#188,.F.);
#252=ORIENTED_EDGE('',*,*,#189,.T.);
#253=ORIENTED_EDGE('',*,*,#186,.F.);
#254=ORIENTED_EDGE('',*,*,#189,.F.);
#255=ORIENTED_EDGE('',*,*,#190,.T.);
#256=ORIENTED_EDGE('',*,*,#191,.T.);
#257=ORIENTED_EDGE('',*,*,#188,.T.);
#258=ORIENTED_EDGE('',*,*,#191,.F.);
#259=ORIENTED_EDGE('',*,*,#190,.F.);
#260=ORIENTED_EDGE('',*,*,#192,.T.);
#261=ORIENTED_EDGE('',*,*,#193,.T.);
#262=ORIENTED_EDGE('',*,*,#194,.T.);
#263=ORIENTED_EDGE('',*,*,#184,.T.);
#264=ORIENTED_EDGE('',*,*,#194,.F.);
#265=ORIENTED_EDGE('',*,*,#195,.F.);
#266=ORIENTED_EDGE('',*,*,#193,.F.);
#267=ORIENTED_EDGE('',*,*,#195,.T.);
#268=ORIENTED_EDGE('',*,*,#196,.T.);
#269=ORIENTED_EDGE('',*,*,#197,.T.);
#270=ORIENTED_EDGE('',*,*,#196,.F.);
#271=ORIENTED_EDGE('',*,*,#197,.F.);
#272=ORIENTED_EDGE('',*,*,#198,.T.);
#273=ORIENTED_EDGE('',*,*,#192,.F.);
#274=ORIENTED_EDGE('',*,*,#198,.F.);
#275=CONICAL_SURFACE('',#322,13.25,0.785398163397449);
#276=CONICAL_SURFACE('',#329,19.5,0.785398163397448);
#277=CONICAL_SURFACE('',#333,19.5,0.785398163397448);
#278=CONICAL_SURFACE('',#337,13.,0.785398163397451);
#279=CONICAL_SURFACE('',#341,15.75,0.785398163397451);
#280=CONICAL_SURFACE('',#344,13.25,0.785398163397449);
#281=CONICAL_SURFACE('',#351,19.5,0.785398163397447);
#282=CONICAL_SURFACE('',#355,19.5,0.785398163397447);
#283=CONICAL_SURFACE('',#359,13.,0.785398163397448);
#284=CONICAL_SURFACE('',#363,15.75,0.785398163397448);
#285=ADVANCED_FACE('',(#35),#275,.F.);
#286=ADVANCED_FACE('',(#36,#23),#29,.F.);
#287=ADVANCED_FACE('',(#37),#17,.F.);
#288=ADVANCED_FACE('',(#38),#276,.T.);
#289=ADVANCED_FACE('',(#39),#18,.T.);
#290=ADVANCED_FACE('',(#40),#277,.T.);
#291=ADVANCED_FACE('',(#41,#24),#30,.T.);
#292=ADVANCED_FACE('',(#42),#278,.F.);
#293=ADVANCED_FACE('',(#43,#25),#31,.T.);
#294=ADVANCED_FACE('',(#44),#279,.T.);
#295=ADVANCED_FACE('',(#45),#19,.T.);
#296=ADVANCED_FACE('',(#46),#280,.F.);
#297=ADVANCED_FACE('',(#47,#26),#32,.F.);
#298=ADVANCED_FACE('',(#48),#20,.F.);
#299=ADVANCED_FACE('',(#49),#281,.T.);
#300=ADVANCED_FACE('',(#50),#21,.T.);
#301=ADVANCED_FACE('',(#51),#282,.T.);
#302=ADVANCED_FACE('',(#52,#27),#33,.T.);
#303=ADVANCED_FACE('',(#53),#283,.F.);
#304=ADVANCED_FACE('',(#54,#28),#34,.T.);
#305=ADVANCED_FACE('',(#55),#284,.T.);
#306=ADVANCED_FACE('',(#56),#22,.T.);
#307=CLOSED_SHELL('',(#285,#286,#287,#288,#289,#290,#291,#292,#293,#294,
#295));
#308=CLOSED_SHELL('',(#296,#297,#298,#299,#300,#301,#302,#303,#304,#305,
#306));
#309=DERIVED_UNIT_ELEMENT(#311,1.);
#310=DERIVED_UNIT_ELEMENT(#560,-3.);
#311=(
MASS_UNIT()
NAMED_UNIT(*)
SI_UNIT(.KILO.,.GRAM.)
);
#312=DERIVED_UNIT((#309,#310));
#313=MEASURE_REPRESENTATION_ITEM('density measure',
POSITIVE_RATIO_MEASURE(7850.),#312);
#314=PROPERTY_DEFINITION_REPRESENTATION(#319,#316);
#315=PROPERTY_DEFINITION_REPRESENTATION(#320,#317);
#316=REPRESENTATION('material name',(#318),#557);
#317=REPRESENTATION('density',(#313),#557);
#318=DESCRIPTIVE_REPRESENTATION_ITEM('Acier','Acier');
#319=PROPERTY_DEFINITION('material property','material name',#567);
#320=PROPERTY_DEFINITION('material property','density of part',#567);
#321=AXIS2_PLACEMENT_3D('placement',#472,#366,#367);
#322=AXIS2_PLACEMENT_3D('',#473,#368,#369);
#323=AXIS2_PLACEMENT_3D('',#475,#370,#371);
#324=AXIS2_PLACEMENT_3D('',#478,#373,#374);
#325=AXIS2_PLACEMENT_3D('',#479,#375,#376);
#326=AXIS2_PLACEMENT_3D('',#481,#377,#378);
#327=AXIS2_PLACEMENT_3D('',#482,#379,#380);
#328=AXIS2_PLACEMENT_3D('',#484,#381,#382);
#329=AXIS2_PLACEMENT_3D('',#486,#384,#385);
#330=AXIS2_PLACEMENT_3D('',#488,#386,#387);
#331=AXIS2_PLACEMENT_3D('',#490,#389,#390);
#332=AXIS2_PLACEMENT_3D('',#492,#391,#392);
#333=AXIS2_PLACEMENT_3D('',#494,#394,#395);
#334=AXIS2_PLACEMENT_3D('',#496,#396,#397);
#335=AXIS2_PLACEMENT_3D('',#498,#399,#400);
#336=AXIS2_PLACEMENT_3D('',#500,#401,#402);
#337=AXIS2_PLACEMENT_3D('',#501,#403,#404);
#338=AXIS2_PLACEMENT_3D('',#503,#405,#406);
#339=AXIS2_PLACEMENT_3D('',#505,#408,#409);
#340=AXIS2_PLACEMENT_3D('',#507,#410,#411);
#341=AXIS2_PLACEMENT_3D('',#508,#412,#413);
#342=AXIS2_PLACEMENT_3D('',#511,#415,#416);
#343=AXIS2_PLACEMENT_3D('',#512,#417,#418);
#344=AXIS2_PLACEMENT_3D('',#514,#420,#421);
#345=AXIS2_PLACEMENT_3D('',#516,#422,#423);
#346=AXIS2_PLACEMENT_3D('',#519,#425,#426);
#347=AXIS2_PLACEMENT_3D('',#520,#427,#428);
#348=AXIS2_PLACEMENT_3D('',#522,#429,#430);
#349=AXIS2_PLACEMENT_3D('',#523,#431,#432);
#350=AXIS2_PLACEMENT_3D('',#525,#433,#434);
#351=AXIS2_PLACEMENT_3D('',#527,#436,#437);
#352=AXIS2_PLACEMENT_3D('',#529,#438,#439);
#353=AXIS2_PLACEMENT_3D('',#531,#441,#442);
#354=AXIS2_PLACEMENT_3D('',#533,#443,#444);
#355=AXIS2_PLACEMENT_3D('',#535,#446,#447);
#356=AXIS2_PLACEMENT_3D('',#537,#448,#449);
#357=AXIS2_PLACEMENT_3D('',#539,#451,#452);
#358=AXIS2_PLACEMENT_3D('',#541,#453,#454);
#359=AXIS2_PLACEMENT_3D('',#542,#455,#456);
#360=AXIS2_PLACEMENT_3D('',#544,#457,#458);
#361=AXIS2_PLACEMENT_3D('',#546,#460,#461);
#362=AXIS2_PLACEMENT_3D('',#548,#462,#463);
#363=AXIS2_PLACEMENT_3D('',#549,#464,#465);
#364=AXIS2_PLACEMENT_3D('',#552,#467,#468);
#365=AXIS2_PLACEMENT_3D('',#553,#469,#470);
#366=DIRECTION('axis',(0.,0.,1.));
#367=DIRECTION('refdir',(1.,0.,0.));
#368=DIRECTION('center_axis',(0.,0.,-1.));
#369=DIRECTION('ref_axis',(1.,0.,0.));
#370=DIRECTION('center_axis',(0.,0.,1.));
#371=DIRECTION('ref_axis',(1.,0.,0.));
#372=DIRECTION('',(-0.707106781186548,-8.65956056235494E-17,-0.707106781186547));
#373=DIRECTION('center_axis',(0.,0.,-1.));
#374=DIRECTION('ref_axis',(1.,0.,0.));
#375=DIRECTION('center_axis',(0.,0.,1.));
#376=DIRECTION('ref_axis',(1.,0.,0.));
#377=DIRECTION('center_axis',(0.,0.,1.));
#378=DIRECTION('ref_axis',(1.,0.,0.));
#379=DIRECTION('center_axis',(0.,0.,1.));
#380=DIRECTION('ref_axis',(1.,0.,0.));
#381=DIRECTION('center_axis',(0.,0.,-1.));
#382=DIRECTION('ref_axis',(1.,0.,0.));
#383=DIRECTION('',(0.,0.,-1.));
#384=DIRECTION('center_axis',(0.,0.,1.));
#385=DIRECTION('ref_axis',(1.,0.,0.));
#386=DIRECTION('center_axis',(0.,0.,-1.));
#387=DIRECTION('ref_axis',(1.,0.,0.));
#388=DIRECTION('',(0.707106781186547,8.65956056235493E-17,-0.707106781186548));
#389=DIRECTION('center_axis',(0.,0.,1.));
#390=DIRECTION('ref_axis',(1.,0.,0.));
#391=DIRECTION('center_axis',(0.,0.,1.));
#392=DIRECTION('ref_axis',(1.,0.,0.));
#393=DIRECTION('',(0.,0.,-1.));
#394=DIRECTION('center_axis',(0.,0.,-1.));
#395=DIRECTION('ref_axis',(1.,0.,0.));
#396=DIRECTION('center_axis',(0.,0.,-1.));
#397=DIRECTION('ref_axis',(1.,0.,0.));
#398=DIRECTION('',(-0.707106781186547,-8.65956056235493E-17,-0.707106781186548));
#399=DIRECTION('center_axis',(0.,0.,1.));
#400=DIRECTION('ref_axis',(1.,0.,0.));
#401=DIRECTION('center_axis',(0.,0.,-1.));
#402=DIRECTION('ref_axis',(1.,0.,0.));
#403=DIRECTION('center_axis',(0.,0.,1.));
#404=DIRECTION('ref_axis',(1.,0.,0.));
#405=DIRECTION('center_axis',(0.,0.,1.));
#406=DIRECTION('ref_axis',(1.,0.,0.));
#407=DIRECTION('',(0.707106781186549,8.65956056235495E-17,-0.707106781186546));
#408=DIRECTION('center_axis',(0.,0.,1.));
#409=DIRECTION('ref_axis',(1.,0.,0.));
#410=DIRECTION('center_axis',(0.,0.,-1.));
#411=DIRECTION('ref_axis',(1.,0.,0.));
#412=DIRECTION('center_axis',(0.,0.,-1.));
#413=DIRECTION('ref_axis',(1.,0.,0.));
#414=DIRECTION('',(-0.707106781186549,-8.65956056235495E-17,-0.707106781186546));
#415=DIRECTION('center_axis',(0.,0.,1.));
#416=DIRECTION('ref_axis',(1.,0.,0.));
#417=DIRECTION('center_axis',(0.,0.,1.));
#418=DIRECTION('ref_axis',(1.,0.,0.));
#419=DIRECTION('',(0.,0.,-1.));
#420=DIRECTION('center_axis',(0.,0.,-1.));
#421=DIRECTION('ref_axis',(1.,0.,0.));
#422=DIRECTION('center_axis',(0.,0.,1.));
#423=DIRECTION('ref_axis',(1.,0.,0.));
#424=DIRECTION('',(-0.707106781186548,-8.65956056235494E-17,-0.707106781186547));
#425=DIRECTION('center_axis',(0.,0.,-1.));
#426=DIRECTION('ref_axis',(1.,0.,0.));
#427=DIRECTION('center_axis',(0.,0.,1.));
#428=DIRECTION('ref_axis',(1.,0.,0.));
#429=DIRECTION('center_axis',(0.,0.,1.));
#430=DIRECTION('ref_axis',(1.,0.,0.));
#431=DIRECTION('center_axis',(0.,0.,1.));
#432=DIRECTION('ref_axis',(1.,0.,0.));
#433=DIRECTION('center_axis',(0.,0.,-1.));
#434=DIRECTION('ref_axis',(1.,0.,0.));
#435=DIRECTION('',(0.,0.,-1.));
#436=DIRECTION('center_axis',(0.,0.,1.));
#437=DIRECTION('ref_axis',(1.,0.,0.));
#438=DIRECTION('center_axis',(0.,0.,-1.));
#439=DIRECTION('ref_axis',(1.,0.,0.));
#440=DIRECTION('',(0.707106781186546,8.65956056235492E-17,-0.707106781186549));
#441=DIRECTION('center_axis',(0.,0.,1.));
#442=DIRECTION('ref_axis',(1.,0.,0.));
#443=DIRECTION('center_axis',(0.,0.,1.));
#444=DIRECTION('ref_axis',(1.,0.,0.));
#445=DIRECTION('',(0.,0.,-1.));
#446=DIRECTION('center_axis',(0.,0.,-1.));
#447=DIRECTION('ref_axis',(1.,0.,0.));
#448=DIRECTION('center_axis',(0.,0.,-1.));
#449=DIRECTION('ref_axis',(1.,0.,0.));
#450=DIRECTION('',(-0.707106781186546,-8.65956056235492E-17,-0.707106781186549));
#451=DIRECTION('center_axis',(0.,0.,1.));
#452=DIRECTION('ref_axis',(1.,0.,0.));
#453=DIRECTION('center_axis',(0.,0.,-1.));
#454=DIRECTION('ref_axis',(1.,0.,0.));
#455=DIRECTION('center_axis',(0.,0.,1.));
#456=DIRECTION('ref_axis',(1.,0.,0.));
#457=DIRECTION('center_axis',(0.,0.,1.));
#458=DIRECTION('ref_axis',(1.,0.,0.));
#459=DIRECTION('',(0.707106781186548,8.65956056235493E-17,-0.707106781186548));
#460=DIRECTION('center_axis',(0.,0.,1.));
#461=DIRECTION('ref_axis',(1.,0.,0.));
#462=DIRECTION('center_axis',(0.,0.,-1.));
#463=DIRECTION('ref_axis',(1.,0.,0.));
#464=DIRECTION('center_axis',(0.,0.,-1.));
#465=DIRECTION('ref_axis',(1.,0.,0.));
#466=DIRECTION('',(-0.707106781186547,-8.65956056235493E-17,-0.707106781186547));
#467=DIRECTION('center_axis',(0.,0.,1.));
#468=DIRECTION('ref_axis',(1.,0.,0.));
#469=DIRECTION('center_axis',(0.,0.,1.));
#470=DIRECTION('ref_axis',(1.,0.,0.));
#471=DIRECTION('',(0.,0.,-1.));
#472=CARTESIAN_POINT('',(0.,0.,0.));
#473=CARTESIAN_POINT('Origin',(-25.,0.,0.5));
#474=CARTESIAN_POINT('',(-37.75,-1.56142466891288E-15,1.));
#475=CARTESIAN_POINT('Origin',(-25.,0.,1.));
#476=CARTESIAN_POINT('',(-38.75,1.68388934882761E-15,0.));
#477=CARTESIAN_POINT('',(-38.25,-1.62265700887024E-15,0.5));
#478=CARTESIAN_POINT('Origin',(-25.,0.,0.));
#479=CARTESIAN_POINT('Origin',(-25.,0.,0.));
#480=CARTESIAN_POINT('',(-44.,-2.32682891837997E-15,0.));
#481=CARTESIAN_POINT('Origin',(-25.,0.,0.));
#482=CARTESIAN_POINT('Origin',(-25.,0.,0.));
#483=CARTESIAN_POINT('',(-37.75,1.56142466891288E-15,35.));
#484=CARTESIAN_POINT('Origin',(-25.,0.,35.));
#485=CARTESIAN_POINT('',(-37.75,-1.56142466891288E-15,0.));
#486=CARTESIAN_POINT('Origin',(-25.,0.,0.5));
#487=CARTESIAN_POINT('',(-45.,2.44929359829471E-15,1.));
#488=CARTESIAN_POINT('Origin',(-25.,0.,1.));
#489=CARTESIAN_POINT('',(-44.5,-2.38806125833734E-15,0.5));
#490=CARTESIAN_POINT('Origin',(-25.,0.,0.));
#491=CARTESIAN_POINT('',(-45.,-2.44929359829471E-15,4.));
#492=CARTESIAN_POINT('Origin',(-25.,0.,4.));
#493=CARTESIAN_POINT('',(-45.,-2.44929359829471E-15,0.));
#494=CARTESIAN_POINT('Origin',(-25.,0.,4.5));
#495=CARTESIAN_POINT('',(-44.,2.32682891837997E-15,5.));
#496=CARTESIAN_POINT('Origin',(-25.,0.,5.));
#497=CARTESIAN_POINT('',(-44.5,-2.38806125833734E-15,4.5));
#498=CARTESIAN_POINT('Origin',(-25.,0.,5.));
#499=CARTESIAN_POINT('',(-41.,-1.95943487863577E-15,5.));
#500=CARTESIAN_POINT('Origin',(-25.,0.,5.));
#501=CARTESIAN_POINT('Origin',(-25.,0.,35.25));
#502=CARTESIAN_POINT('',(-38.25,-1.62265700887024E-15,35.5));
#503=CARTESIAN_POINT('Origin',(-25.,0.,35.5));
#504=CARTESIAN_POINT('',(-38.,-1.59204083889156E-15,35.25));
#505=CARTESIAN_POINT('Origin',(-25.,0.,35.5));
#506=CARTESIAN_POINT('',(-40.5,1.8982025386784E-15,35.5));
#507=CARTESIAN_POINT('Origin',(-25.,0.,35.5));
#508=CARTESIAN_POINT('Origin',(-25.,0.,35.25));
#509=CARTESIAN_POINT('',(-41.,-1.95943487863577E-15,35.));
#510=CARTESIAN_POINT('',(-40.75,-1.92881870865708E-15,35.25));
#511=CARTESIAN_POINT('Origin',(-25.,0.,35.));
#512=CARTESIAN_POINT('Origin',(-25.,0.,0.));
#513=CARTESIAN_POINT('',(-41.,-1.95943487863577E-15,0.));
#514=CARTESIAN_POINT('Origin',(25.,0.,0.5));
#515=CARTESIAN_POINT('',(12.25,-1.56142466891288E-15,1.));
#516=CARTESIAN_POINT('Origin',(25.,0.,1.));
#517=CARTESIAN_POINT('',(11.25,1.68388934882761E-15,0.));
#518=CARTESIAN_POINT('',(11.75,-1.62265700887024E-15,0.5));
#519=CARTESIAN_POINT('Origin',(25.,0.,0.));
#520=CARTESIAN_POINT('Origin',(25.,0.,0.));
#521=CARTESIAN_POINT('',(6.,-2.32682891837997E-15,0.));
#522=CARTESIAN_POINT('Origin',(25.,0.,0.));
#523=CARTESIAN_POINT('Origin',(25.,0.,0.));
#524=CARTESIAN_POINT('',(12.25,1.56142466891288E-15,28.));
#525=CARTESIAN_POINT('Origin',(25.,0.,28.));
#526=CARTESIAN_POINT('',(12.25,-1.56142466891288E-15,0.));
#527=CARTESIAN_POINT('Origin',(25.,0.,0.5));
#528=CARTESIAN_POINT('',(5.,2.44929359829471E-15,1.));
#529=CARTESIAN_POINT('Origin',(25.,0.,1.));
#530=CARTESIAN_POINT('',(5.5,-2.38806125833734E-15,0.5));
#531=CARTESIAN_POINT('Origin',(25.,0.,0.));
#532=CARTESIAN_POINT('',(5.,-2.44929359829471E-15,4.));
#533=CARTESIAN_POINT('Origin',(25.,0.,4.));
#534=CARTESIAN_POINT('',(5.,-2.44929359829471E-15,0.));
#535=CARTESIAN_POINT('Origin',(25.,0.,4.5));
#536=CARTESIAN_POINT('',(6.,2.32682891837997E-15,5.));
#537=CARTESIAN_POINT('Origin',(25.,0.,5.));
#538=CARTESIAN_POINT('',(5.5,-2.38806125833734E-15,4.5));
#539=CARTESIAN_POINT('Origin',(25.,0.,5.));
#540=CARTESIAN_POINT('',(8.99999999999999,-1.95943487863577E-15,5.));
#541=CARTESIAN_POINT('Origin',(25.,0.,5.));
#542=CARTESIAN_POINT('Origin',(25.,0.,28.25));
#543=CARTESIAN_POINT('',(11.75,-1.62265700887024E-15,28.5));
#544=CARTESIAN_POINT('Origin',(25.,0.,28.5));
#545=CARTESIAN_POINT('',(12.,-1.59204083889156E-15,28.25));
#546=CARTESIAN_POINT('Origin',(25.,0.,28.5));
#547=CARTESIAN_POINT('',(9.49999999999999,1.8982025386784E-15,28.5));
#548=CARTESIAN_POINT('Origin',(25.,0.,28.5));
#549=CARTESIAN_POINT('Origin',(25.,0.,28.25));
#550=CARTESIAN_POINT('',(8.99999999999999,-1.95943487863577E-15,28.));
#551=CARTESIAN_POINT('',(9.24999999999999,-1.92881870865708E-15,28.25));
#552=CARTESIAN_POINT('Origin',(25.,0.,28.));
#553=CARTESIAN_POINT('Origin',(25.,0.,0.));
#554=CARTESIAN_POINT('',(8.99999999999999,-1.95943487863577E-15,0.));
#555=UNCERTAINTY_MEASURE_WITH_UNIT(LENGTH_MEASURE(0.01),#559,
'DISTANCE_ACCURACY_VALUE',
'Maximum model space distance between geometric entities at asserted c
onnectivities');
#556=UNCERTAINTY_MEASURE_WITH_UNIT(LENGTH_MEASURE(0.01),#559,
'DISTANCE_ACCURACY_VALUE',
'Maximum model space distance between geometric entities at asserted c
onnectivities');
#557=(
GEOMETRIC_REPRESENTATION_CONTEXT(3)
GLOBAL_UNCERTAINTY_ASSIGNED_CONTEXT((#555))
GLOBAL_UNIT_ASSIGNED_CONTEXT((#559,#561,#562))
REPRESENTATION_CONTEXT('','3D')
);
#558=(
GEOMETRIC_REPRESENTATION_CONTEXT(3)
GLOBAL_UNCERTAINTY_ASSIGNED_CONTEXT((#556))
GLOBAL_UNIT_ASSIGNED_CONTEXT((#559,#561,#562))
REPRESENTATION_CONTEXT('','3D')
);
#559=(
LENGTH_UNIT()
NAMED_UNIT(*)
SI_UNIT(.MILLI.,.METRE.)
);
#560=(
LENGTH_UNIT()
NAMED_UNIT(*)
SI_UNIT($,.METRE.)
);
#561=(
NAMED_UNIT(*)
PLANE_ANGLE_UNIT()
SI_UNIT($,.RADIAN.)
);
#562=(
NAMED_UNIT(*)
SI_UNIT($,.STERADIAN.)
SOLID_ANGLE_UNIT()
);
#563=SHAPE_DEFINITION_REPRESENTATION(#564,#565);
#564=PRODUCT_DEFINITION_SHAPE('',$,#567);
#565=SHAPE_REPRESENTATION('',(#321),#557);
#566=PRODUCT_DEFINITION_CONTEXT('part definition',#571,'design');
#567=PRODUCT_DEFINITION('calle roue','calle roue v4',#568,#566);
#568=PRODUCT_DEFINITION_FORMATION('',$,#573);
#569=PRODUCT_RELATED_PRODUCT_CATEGORY('calle roue v4','calle roue v4',(#573));
#570=APPLICATION_PROTOCOL_DEFINITION('international standard',
'automotive_design',2009,#571);
#571=APPLICATION_CONTEXT(
'Core Data for Automotive Mechanical Design Process');
#572=PRODUCT_CONTEXT('part definition',#571,'mechanical');
#573=PRODUCT('calle roue','calle roue v4',$,(#572));
#574=PRESENTATION_STYLE_ASSIGNMENT((#575));
#575=SURFACE_STYLE_USAGE(.BOTH.,#576);
#576=SURFACE_SIDE_STYLE('',(#577));
#577=SURFACE_STYLE_FILL_AREA(#578);
#578=FILL_AREA_STYLE('Acier - Satin\X\E9',(#579));
#579=FILL_AREA_STYLE_COLOUR('Acier - Satin\X\E9',#580);
#580=COLOUR_RGB('Acier - Satin\X\E9',0.627450980392157,0.627450980392157,
0.627450980392157);
ENDSEC;
END-ISO-10303-21;
